  0
SECTION
  2
HEADER
  9
$ACADVER
  1
AC1009
  9
$INSBASE
 10
0.0
 20
0.0
 30
0.0
  9
$EXTMIN
 10
0.0
 20
-2.960436562073669
 30
0.0
  9
$EXTMAX
 10
287.49999865130093
 20
202.5
 30
0.0
  9
$LIMMIN
 10
0.0
 20
0.0
  9
$LIMMAX
 10
375.0
 20
270.0
  9
$ORTHOMODE
 70
     1
  9
$REGENMODE
 70
     1
  9
$FILLMODE
 70
     1
  9
$QTEXTMODE
 70
     0
  9
$MIRRTEXT
 70
     0
  9
$DRAGMODE
 70
     2
  9
$LTSCALE
 40
10.0
  9
$OSMODE
 70
  3071
  9
$ATTMODE
 70
     1
  9
$TEXTSIZE
 40
4.000000000000048
  9
$TRACEWID
 40
0.05
  9
$TEXTSTYLE
  7
STANDARD
  9
$CLAYER
  8
0
  9
$CELTYPE
  6
BYLAYER
  9
$CECOLOR
 62
   256
  9
$DIMSCALE
 40
1.0
  9
$DIMASZ
 40
3.0
  9
$DIMEXO
 40
2.0
  9
$DIMDLI
 40
0.38
  9
$DIMRND
 40
0.0
  9
$DIMDLE
 40
0.0
  9
$DIMEXE
 40
2.0
  9
$DIMTP
 40
0.0
  9
$DIMTM
 40
0.0
  9
$DIMTXT
 40
3.2000000000000002
  9
$DIMCEN
 40
0.0
  9
$DIMTSZ
 40
0.0
  9
$DIMTOL
 70
     0
  9
$DIMLIM
 70
     0
  9
$DIMTIH
 70
     0
  9
$DIMTOH
 70
     0
  9
$DIMSE1
 70
     0
  9
$DIMSE2
 70
     0
  9
$DIMTAD
 70
     1
  9
$DIMZIN
 70
     0
  9
$DIMBLK
  1

  9
$DIMASO
 70
     1
  9
$DIMSHO
 70
     0
  9
$DIMPOST
  1

  9
$DIMAPOST
  1

  9
$DIMALT
 70
     0
  9
$DIMALTD
 70
     2
  9
$DIMALTF
 40
25.399999999999999
  9
$DIMLFAC
 40
1.0
  9
$DIMTOFL
 70
     1
  9
$DIMTVP
 40
1.6000000000000001
  9
$DIMTIX
 70
     1
  9
$DIMSOXD
 70
     0
  9
$DIMSAH
 70
     0
  9
$DIMBLK1
  1

  9
$DIMBLK2
  1

  9
$DIMSTYLE
  2
STANDARD
  9
$DIMCLRD
 70
     0
  9
$DIMCLRE
 70
     0
  9
$DIMCLRT
 70
     0
  9
$DIMTFAC
 40
1.0
  9
$DIMGAP
 40
0.09
  9
$LUNITS
 70
     2
  9
$LUPREC
 70
     4
  9
$SKETCHINC
 40
0.1
  9
$FILLETRAD
 40
0.0
  9
$AUNITS
 70
     0
  9
$AUPREC
 70
     4
  9
$MENU
  1
E:\r13\win\SUPPORT\ACAD
  9
$ELEVATION
 40
0.0
  9
$PELEVATION
 40
0.0
  9
$THICKNESS
 40
0.0
  9
$LIMCHECK
 70
     0
  9
$BLIPMODE
 70
     0
  9
$CHAMFERA
 40
0.0
  9
$CHAMFERB
 40
0.0
  9
$SKPOLY
 70
     0
  9
$TDCREATE
 40
2449839.7883912041
  9
$TDUPDATE
 40
2456597.4432594329
  9
$TDINDWG
 40
0.0252430093
  9
$TDUSRTIMER
 40
0.0252430093
  9
$USRTIMER
 70
     1
  9
$ANGBASE
 50
0.0
  9
$ANGDIR
 70
     0
  9
$PDMODE
 70
     0
  9
$PDSIZE
 40
0.0
  9
$PLINEWID
 40
0.0
  9
$COORDS
 70
     1
  9
$SPLFRAME
 70
     0
  9
$SPLINETYPE
 70
     6
  9
$SPLINESEGS
 70
     8
  9
$ATTDIA
 70
     0
  9
$ATTREQ
 70
     1
  9
$HANDLING
 70
     1
  9
$HANDSEED
  5
4E8C
  9
$SURFTAB1
 70
     6
  9
$SURFTAB2
 70
     6
  9
$SURFTYPE
 70
     6
  9
$SURFU
 70
     6
  9
$SURFV
 70
     6
  9
$UCSNAME
  2

  9
$UCSORG
 10
0.0
 20
0.0
 30
0.0
  9
$UCSXDIR
 10
1.0
 20
0.0
 30
0.0
  9
$UCSYDIR
 10
0.0
 20
1.0
 30
0.0
  9
$PUCSNAME
  2

  9
$PUCSORG
 10
0.0
 20
0.0
 30
0.0
  9
$PUCSXDIR
 10
1.0
 20
0.0
 30
0.0
  9
$PUCSYDIR
 10
0.0
 20
1.0
 30
0.0
  9
$USERI1
 70
     0
  9
$USERI2
 70
     1
  9
$USERI3
 70
     1
  9
$USERI4
 70
     0
  9
$USERI5
 70
     0
  9
$USERR1
 40
0.0
  9
$USERR2
 40
0.0
  9
$USERR3
 40
0.0
  9
$USERR4
 40
0.0
  9
$USERR5
 40
0.0
  9
$WORLDVIEW
 70
     1
  9
$SHADEDGE
 70
     3
  9
$SHADEDIF
 70
    70
  9
$TILEMODE
 70
     1
  9
$MAXACTVP
 70
    16
  9
$PLIMCHECK
 70
     0
  9
$PEXTMIN
 10
1.0000000000000000E+020
 20
1.0000000000000000E+020
 30
1.0000000000000000E+020
  9
$PEXTMAX
 10
-1.0000000000000000E+020
 20
-1.0000000000000000E+020
 30
-1.0000000000000000E+020
  9
$PLIMMIN
 10
0.0
 20
0.0
  9
$PLIMMAX
 10
12.0
 20
9.0
  9
$UNITMODE
 70
     0
  9
$VISRETAIN
 70
     0
  9
$PLINEGEN
 70
     0
  9
$PSLTSCALE
 70
     0
  0
ENDSEC
  0
SECTION
  2
TABLES
  0
TABLE
  2
VPORT
 70
     1
  0
VPORT
  2
*ACTIVE
 70
     0
 10
0.0
 20
0.0
 11
1.0
 21
1.0
 12
187.49427839065231
 22
134.10366293909439
 13
0.0
 23
0.0
 14
10.0
 24
10.0
 15
10.0
 25
10.0
 16
0.0
 26
0.0
 36
1.0
 17
0.0
 27
0.0
 37
0.0
 40
277.29405978699532
 41
2.304913294797688
 42
50.0
 43
0.0
 44
0.0
 50
0.0
 51
0.0
 71
     0
 72
   500
 73
     1
 74
     0
 75
     0
 76
     0
 77
     0
 78
     2
  0
ENDTAB
  0
TABLE
  2
LTYPE
 70
     4
  0
LTYPE
  2
CONTINUOUS
 70
     0
  3
Solid Line
 72
    65
 73
     0
 40
0.0
  0
LTYPE
  2
CENTER
 70
     0
  3
____ _ ____ _ ____ _ ____ _ ____ _ ____ _ ____
 72
    65
 73
     4
 40
2.0
 49
1.25
 49
-0.25
 49
0.25
 49
-0.25
  0
LTYPE
  2
HIDDEN
 70
     0
  3
_ _ _ _ _ _ _ _ _ _ _ _ _ _ _ _ _ _ _ _ _ _ _
 72
    65
 73
     2
 40
0.375
 49
0.25
 49
-0.125
  0
LTYPE
  2
PHANTOM2
 70
     0
  3
___ _ _ ___ _ _ ___ _ _ ___ _ _
 72
    65
 73
     6
 40
1.25
 49
0.625
 49
-0.125
 49
0.125
 49
-0.125
 49
0.125
 49
-0.125
  0
ENDTAB
  0
TABLE
  2
LAYER
 70
     4
  0
LAYER
  2
0
 70
     0
 62
     7
  6
CONTINUOUS
  0
LAYER
  2
1
 70
     0
 62
     1
  6
CENTER
  0
LAYER
  2
2
 70
     0
 62
     2
  6
HIDDEN
  0
LAYER
  2
3
 70
     0
 62
     3
  6
CONTINUOUS
  0
ENDTAB
  0
TABLE
  2
STYLE
 70
     2
  0
STYLE
  2
STANDARD
 70
     0
 40
0.0
 41
1.0
 50
0.0
 71
     0
 42
4.000000000000048
  3
TXT
  4
BIGFONT
  0
STYLE
  2
STANDARD1
 70
     0
 40
0.0
 41
1.0
 50
0.0
 71
     0
 42
3.0
  3
txt
  4

  0
ENDTAB
  0
TABLE
  2
VIEW
 70
     1
  0
VIEW
  2
ALL
 70
     0
 40
270.0
 10
220.99159663865549
 20
135.0
 41
0.0
 11
0.0
 21
0.0
 31
1.0
 12
0.0
 22
0.0
 32
0.0
 42
0.0
 43
0.0
 44
0.0
 50
0.0
 71
     0
  0
ENDTAB
  0
TABLE
  2
UCS
 70
     0
  0
ENDTAB
  0
TABLE
  2
APPID
 70
     4
  0
APPID
  2
ACAD
 70
     0
  0
APPID
  2
ACAD_EXEMPT_FROM_CAD_STANDARDS
 70
     0
  0
APPID
  2
ACAD_MLEADERVER
 70
     0
  0
APPID
  2
ACAD_NAV_VCDISPLAY
 70
     0
  0
ENDTAB
  0
TABLE
  2
DIMSTYLE
 70
     1
  0
DIMSTYLE
  2
STANDARD
 70
     0
  3

  4

  5

  6

  7

 40
1.0
 41
0.18
 42
0.0625
 43
0.38
 44
0.18
 45
0.0
 46
0.0
 47
0.0
 48
0.0
140
0.18
141
0.09
142
0.0
143
25.399999999999999
144
1.0
145
0.0
146
1.0
147
0.09
 71
     0
 72
     0
 73
     1
 74
     1
 75
     0
 76
     0
 77
     0
 78
     0
170
     0
171
     2
172
     0
173
     0
174
     0
175
     0
176
     0
177
     0
178
     0
  0
ENDTAB
  0
ENDSEC
  0
SECTION
  2
BLOCKS
  0
BLOCK
  8
0
  2
$MODEL_SPACE
 70
     0
 10
0.0
 20
0.0
 30
0.0
  3
$MODEL_SPACE
  1

  0
ENDBLK
  5
121
  8
0
  0
BLOCK
 67
     1
  8
0
  2
$PAPER_SPACE
 70
     0
 10
0.0
 20
0.0
 30
0.0
  3
$PAPER_SPACE
  1

  0
ENDBLK
  5
11F
 67
     1
  8
0
  0
ENDSEC
  0
SECTION
  2
ENTITIES
  0
LINE
  5
36
  8
1
 10
151.0
 20
180.0
 30
0.0
 11
206.0
 21
180.0
 31
0.0
  0
LINE
  5
37
  8
0
 10
180.0
 20
188.75
 30
0.0
 11
157.81248573302099
 21
182.4036064845769
 31
0.0
  0
LINE
  5
38
  8
0
 10
198.43476694385501
 20
187.21376942134481
 30
0.0
 11
180.0
 21
188.75
 31
0.0
  0
ARC
  5
39
  8
0
 10
198.26867598414751
 20
185.22067790485551
 30
0.0
 40
1.9999999999996221
 50
15.948458381089459
 51
85.236358309273868
  0
LINE
  5
3A
  8
0
 10
198.43476694385501
 20
172.78623057865511
 30
0.0
 11
180.0
 21
171.25
 31
0.0
  0
ARC
  5
3B
  8
0
 10
198.26867598414751
 20
174.77932209514449
 30
0.0
 40
1.9999999999996221
 50
274.7636416907261
 51
344.05154161891051
  0
LINE
  5
3C
  8
0
 10
180.0
 20
171.25
 30
0.0
 11
157.81248573302099
 21
177.59639351542299
 31
0.0
  0
ARC
  5
3D
  8
0
 10
158.5
 20
180.0
 30
0.0
 40
2.5
 50
105.96235425054179
 51
254.03764574945819
  0
ARC
  5
3E
  8
0
 10
180.0
 20
180.0
 30
0.0
 40
21.0
 50
344.05154161891028
 51
15.94845838108972
  0
LINE
  5
3F
  8
1
 10
180.0
 20
120.0
 30
0.0
 11
180.0
 21
84.999999999999986
 31
0.0
  0
LINE
  5
40
  8
0
 10
190.0
 20
90.0
 30
0.0
 11
170.0
 21
90.0
 31
0.0
  0
LINE
  5
41
  8
0
 10
170.0
 20
90.0
 30
0.0
 11
170.0
 21
90.5
 31
0.0
  0
LINE
  5
42
  8
0
 10
190.0
 20
90.0
 30
0.0
 11
190.0
 21
90.5
 31
0.0
  0
ARC
  5
43
  8
0
 10
159.6725339527475
 20
107.1807148091056
 30
0.0
 40
2.4999999999995342
 50
119.3286501094846
 51
176.00000000000031
  0
ARC
  5
44
  8
0
 10
159.3204097801966
 20
107.53569166342839
 30
0.0
 40
1.9999999999995171
 50
103.59134828397821
 51
134.76885093801849
  0
ARC
  5
45
  8
0
 10
180.0
 20
22.0
 30
0.0
 40
90.0
 50
78.148135238340132
 51
103.59134828397841
  0
LINE
  5
46
  8
0
 10
200.07586370233409
 20
108.1335710138563
 30
0.0
 11
201.0
 21
90.5
 31
0.0
  0
LINE
  5
47
  8
0
 10
157.17862382709839
 20
107.3551059934659
 30
0.0
 11
156.0
 21
90.500000000000298
 31
0.0
  0
LINE
  5
48
  8
0
 10
156.0
 20
90.500000000000298
 30
0.0
 11
201.0
 21
90.500000000000384
 31
0.0
  0
LINE
  5
49
  8
0
 10
196.49999865130081
 20
94.500000000000014
 30
0.0
 11
163.49999865130081
 21
94.500000000000014
 31
0.0
  0
LINE
  5
4A
  8
0
 10
162.49999865130081
 20
93.499999999999986
 30
0.0
 11
162.49999865130081
 21
90.500000000000298
 31
0.0
  0
LINE
  5
4B
  8
0
 10
197.49999865130081
 20
93.499999999999986
 30
0.0
 11
197.49999865130081
 21
90.5
 31
0.0
  0
ARC
  5
4C
  8
0
 10
196.49999865130081
 20
93.499999999999986
 30
0.0
 40
1.0
 50
0.0
 51
90.0
  0
ARC
  5
4D
  8
0
 10
163.49999865130081
 20
93.499999999999986
 30
0.0
 40
1.0
 50
90.0
 51
179.99999999999989
  0
ARC
  5
4E
  8
0
 10
180.0
 20
180.0
 30
0.0
 40
17.5
 50
25.122158543987641
 51
167.2298325980708
  0
ARC
  5
4F
  8
0
 10
180.0
 20
180.0
 30
0.0
 40
17.5
 50
192.77016740192869
 51
334.87784145601262
  0
ARC
  5
50
  8
0
 10
160.25
 20
180.0
 30
0.0
 40
0.75
 50
90.0
 51
270.0
  0
ARC
  5
51
  8
0
 10
175.75
 20
180.0
 30
0.0
 40
0.75
 50
270.0
 51
90.0
  0
LINE
  5
52
  8
0
 10
160.25
 20
180.75
 30
0.0
 11
175.75
 21
180.75
 31
0.0
  0
LINE
  5
53
  8
0
 10
160.25
 20
179.25
 30
0.0
 11
175.75
 21
179.25
 31
0.0
  0
LINE
  5
54
  8
1
 10
180.0
 20
202.5
 30
0.0
 11
180.0
 21
157.5
 31
0.0
  0
ARC
  5
55
  8
0
 10
253.49999865130081
 20
93.499999999999986
 30
0.0
 40
1.0
 50
90.0
 51
179.99999999999989
  0
ARC
  5
56
  8
0
 10
286.49999865130093
 20
93.499999999999986
 30
0.0
 40
1.0
 50
0.0
 51
90.0
  0
LINE
  5
57
  8
0
 10
287.49999865130093
 20
93.499999999999986
 30
0.0
 11
287.49999865130093
 21
90.5
 31
0.0
  0
LINE
  5
58
  8
0
 10
252.49999865130081
 20
93.499999999999986
 30
0.0
 11
252.49999865130081
 21
90.500000000000298
 31
0.0
  0
LINE
  5
59
  8
0
 10
286.49999865130093
 20
94.500000000000014
 30
0.0
 11
278.75
 21
94.500000000000014
 31
0.0
  0
LINE
  5
5A
  8
0
 10
280.0
 20
90.0
 30
0.0
 11
280.0
 21
90.5
 31
0.0
  0
LINE
  5
5B
  8
0
 10
260.0
 20
90.0
 30
0.0
 11
260.0
 21
90.5
 31
0.0
  0
LINE
  5
5C
  8
0
 10
280.0
 20
90.0
 30
0.0
 11
260.0
 21
90.0
 31
0.0
  0
LINE
  5
5D
  8
1
 10
270.0
 20
120.0
 30
0.0
 11
270.0
 21
84.999999999999986
 31
0.0
  0
LINE
  5
5E
  8
0
 10
252.49999865130081
 20
90.500000000000298
 30
0.0
 11
287.49999865130093
 21
90.5
 31
0.0
  0
ARC
  5
60
  8
0
 10
276.75000000000603
 20
110.97458781990839
 30
0.0
 40
1.999999999994031
 50
359.99999999999977
 51
56.595092019228048
  0
LINE
  5
61
  8
0
 10
278.75
 20
110.97458686623411
 30
0.0
 11
278.75
 21
90.500000000000085
 31
0.0
  0
LINE
  5
62
  8
0
 10
261.24999999999989
 20
110.97458686623411
 30
0.0
 11
261.25
 21
90.500000000000227
 31
0.0
  0
ARC
  5
63
  8
0
 10
263.24999999999397
 20
110.97458781990839
 30
0.0
 40
1.999999999994031
 50
123.4049079807719
 51
180.0000000000002
  0
ARC
  5
64
  8
0
 10
270.0
 20
100.7395833333333
 30
0.0
 40
14.260416666666661
 50
56.595092019228332
 51
123.4049079807718
  0
ARC
  5
65
  8
0
 10
196.58066033070151
 20
107.9503951670065
 30
0.0
 40
3.499999999991477
 50
2.9999999999997882
 51
65.832912199209574
  0
ARC
  5
66
  8
0
 10
198.0736203406592
 20
108.124005061201
 30
0.0
 40
2.0000000000143232
 50
11.440391572619079
 51
78.148135238340174
  0
ARC
  5
67
  8
0
 10
180.0
 20
71.0
 30
0.0
 40
44.0
 50
65.832912199209446
 51
119.3286501094848
  0
LINE
  5
68
  8
0
 10
265.24999999999397
 20
109.92860903940159
 30
0.0
 11
274.75000000000603
 21
109.92860903940159
 31
0.0
  0
LINE
  5
69
  8
0
 10
261.25
 20
94.500000000000014
 30
0.0
 11
253.49999865130081
 21
94.500000000000014
 31
0.0
  0
CIRCLE
  5
6A
  8
0
 10
270.0
 20
98.499999999999645
 30
0.0
 40
3.0
  0
CIRCLE
  5
6B
  8
3
 10
270.0
 20
98.499999999999645
 30
0.0
 40
2.0
  0
CIRCLE
  5
6C
  8
0
 10
270.0
 20
98.499999999999645
 30
0.0
 40
1.6209999999999991
  0
LINE
  5
6D
  8
1
 10
264.10907711733353
 20
98.499999999999645
 30
0.0
 11
275.89092288266647
 21
98.499999999999645
 31
0.0
  0
LINE
  5
6E
  8
0
 10
276.75000000000603
 20
107.92860903940159
 30
0.0
 11
276.75000000000603
 21
90.500000000000085
 31
0.0
  0
LINE
  5
6F
  8
0
 10
263.24999999999397
 20
107.92860903940159
 30
0.0
 11
263.24999999999397
 21
90.500000000000227
 31
0.0
  0
ARC
  5
70
  8
0
 10
274.75000000000603
 20
107.92860903940159
 30
0.0
 40
2.0
 50
0.0000000000001018
 51
90.0
  0
ARC
  5
71
  8
0
 10
265.24999999999397
 20
107.92860903940159
 30
0.0
 40
2.0
 50
90.0
 51
179.99999999999989
  0
LINE
  5
72
  8
0
 10
276.75000000000603
 20
109.92860903940159
 30
0.0
 11
278.14530804266792
 21
111.50859935704931
 31
0.0
  0
LINE
  5
73
  8
0
 10
263.24999999999397
 20
109.92860903940159
 30
0.0
 11
261.85469195733208
 21
111.50859935704931
 31
0.0
  0
LINE
  5
74
  8
0
 10
87.596393515423074
 20
107.5179111692123
 30
0.0
 11
87.596393515423074
 21
90.500000000000156
 31
0.0
  0
LINE
  5
75
  8
0
 10
92.403606484576954
 20
107.5179111692123
 30
0.0
 11
92.403606484576954
 21
90.500000000000142
 31
0.0
  0
LINE
  5
76
  8
0
 10
81.249999999999986
 20
94.500000000000014
 30
0.0
 11
73.499998651300814
 21
94.500000000000014
 31
0.0
  0
LINE
  5
77
  8
0
 10
88.596393515423074
 20
108.5179111692123
 30
0.0
 11
91.403606484576954
 21
108.5179111692123
 31
0.0
  0
ARC
  5
78
  8
0
 10
90.0
 20
100.7395833333333
 30
0.0
 40
14.260416666666661
 50
56.595092019228332
 51
123.4049079807718
  0
ARC
  5
79
  8
0
 10
83.249999999993946
 20
110.97458781990839
 30
0.0
 40
1.999999999994031
 50
123.4049079807719
 51
180.0000000000002
  0
LINE
  5
7A
  8
0
 10
81.249999999999886
 20
110.97458686623411
 30
0.0
 11
81.25
 21
90.500000000000227
 31
0.0
  0
LINE
  5
7B
  8
0
 10
98.750000000000071
 20
110.97458686623411
 30
0.0
 11
98.750000000000071
 21
90.500000000000085
 31
0.0
  0
ARC
  5
7C
  8
0
 10
96.750000000006011
 20
110.97458781990839
 30
0.0
 40
1.999999999994031
 50
359.99999999999977
 51
56.595092019228048
  0
LINE
  5
7D
  8
0
 10
72.499998651300814
 20
90.500000000000298
 30
0.0
 11
107.4999986513008
 21
90.5
 31
0.0
  0
LINE
  5
7E
  8
1
 10
90.0
 20
120.0
 30
0.0
 11
90.0
 21
84.999999999999986
 31
0.0
  0
LINE
  5
7F
  8
0
 10
100.0
 20
90.0
 30
0.0
 11
80.0
 21
90.0
 31
0.0
  0
LINE
  5
80
  8
0
 10
80.0
 20
90.0
 30
0.0
 11
80.0
 21
90.5
 31
0.0
  0
LINE
  5
81
  8
0
 10
100.0
 20
90.0
 30
0.0
 11
100.0
 21
90.5
 31
0.0
  0
LINE
  5
82
  8
0
 10
106.4999986513008
 20
94.500000000000014
 30
0.0
 11
98.750000000000071
 21
94.500000000000014
 31
0.0
  0
LINE
  5
83
  8
0
 10
72.499998651300814
 20
93.499999999999986
 30
0.0
 11
72.499998651300814
 21
90.500000000000298
 31
0.0
  0
LINE
  5
84
  8
0
 10
107.4999986513008
 20
93.499999999999986
 30
0.0
 11
107.4999986513008
 21
90.5
 31
0.0
  0
ARC
  5
85
  8
0
 10
106.4999986513008
 20
93.499999999999986
 30
0.0
 40
1.0
 50
0.0
 51
90.0
  0
ARC
  5
86
  8
0
 10
73.499998651300814
 20
93.499999999999986
 30
0.0
 40
1.0
 50
90.0
 51
179.99999999999989
  0
ARC
  5
87
  8
0
 10
91.403606484576954
 20
107.5179111692123
 30
0.0
 40
1.0
 50
0.0
 51
90.000000000000099
  0
ARC
  5
88
  8
0
 10
88.596393515423074
 20
107.5179111692123
 30
0.0
 40
1.0
 50
90.000000000000298
 51
179.99999999999989
  0
LINE
  5
89
  8
0
 10
92.403606484576954
 20
108.5179111692123
 30
0.0
 11
97.895182486292484
 21
111.5793824013938
 31
0.0
  0
LINE
  5
8A
  8
0
 10
87.596393515423046
 20
108.5179111692123
 30
0.0
 11
82.104817513707502
 21
111.5793824013938
 31
0.0
  0
LINE
  5
8C
  8
2
 10
183.5
 20
102.0000000000003
 30
0.0
 11
183.0
 21
101.13397459621589
 31
0.0
  0
LINE
  5
8D
  8
2
 10
183.5
 20
102.0000000000003
 30
0.0
 11
183.0
 21
102.8660254037847
 31
0.0
  0
LINE
  5
8E
  8
2
 10
191.00000000000011
 20
102.3000000000003
 30
0.0
 11
191.0
 21
103.48038475773591
 31
0.0
  0
LINE
  5
8F
  8
2
 10
190.69999999999999
 20
102.3000000000004
 30
0.0
 11
190.6999999999999
 21
104.00000000000669
 31
0.0
  0
LINE
  5
90
  8
2
 10
189.5800000000001
 20
102.3000000000003
 30
0.0
 11
191.0
 21
102.3000000000004
 31
0.0
  0
LINE
  5
91
  8
2
 10
189.5800000000001
 20
101.7000000000004
 30
0.0
 11
191.0
 21
101.7000000000004
 31
0.0
  0
LINE
  5
92
  8
2
 10
189.5800000000001
 20
101.7000000000004
 30
0.0
 11
189.5800000000001
 21
102.3000000000003
 31
0.0
  0
LINE
  5
99
  8
2
 10
183.5
 20
99.999999999994003
 30
0.0
 11
183.0
 21
99.999999999994003
 31
0.0
  0
LINE
  5
9A
  8
2
 10
183.5
 20
104.00000000000669
 30
0.0
 11
183.0
 21
104.00000000000669
 31
0.0
  0
LINE
  5
9B
  8
2
 10
191.0
 20
100.51961524226471
 30
0.0
 11
191.00000000000011
 21
101.7000000000004
 31
0.0
  0
LINE
  5
9C
  8
2
 10
190.6999999999999
 20
104.00000000000669
 30
0.0
 11
183.5
 21
104.00000000000669
 31
0.0
  0
LINE
  5
9D
  8
2
 10
190.69999999999999
 20
99.999999999993975
 30
0.0
 11
183.4999999999998
 21
99.999999999993975
 31
0.0
  0
LINE
  5
9E
  8
2
 10
183.5
 20
99.999999999993975
 30
0.0
 11
183.5
 21
104.00000000000681
 31
0.0
  0
LINE
  5
9F
  8
2
 10
183.0
 20
103.50000000000669
 30
0.0
 11
183.5
 21
104.00000000000669
 31
0.0
  0
LINE
  5
A0
  8
2
 10
183.5
 20
99.999999999993975
 30
0.0
 11
183.0
 21
100.4999999999939
 31
0.0
  0
LINE
  5
A1
  8
2
 10
190.69999999999999
 20
99.999999999993975
 30
0.0
 11
190.69999999999999
 21
101.7000000000004
 31
0.0
  0
LINE
  5
A2
  8
2
 10
190.69999999999999
 20
104.00000000000681
 30
0.0
 11
190.99999999999989
 21
103.4803847577362
 31
0.0
  0
LINE
  5
A3
  8
2
 10
190.69999999999999
 20
99.999999999993975
 30
0.0
 11
190.99999999999989
 21
100.51961524226461
 31
0.0
  0
LINE
  5
A4
  8
2
 10
190.91881575202211
 20
103.6210000000079
 30
0.0
 11
183.1210000000012
 21
103.6210000000079
 31
0.0
  0
LINE
  5
A5
  8
2
 10
190.91881575202211
 20
100.3789999999927
 30
0.0
 11
183.1210000000012
 21
100.3789999999927
 31
0.0
  0
LINE
  5
AD
  8
1
 10
180.5
 20
102.0000000000003
 30
0.0
 11
202.90074140323989
 21
102.0000000000004
 31
0.0
  0
ARC
  5
4A27
  8
2
 10
168.80585051341231
 20
103.2058823529412
 30
0.0
 40
1.499999999999998
 50
2.9999999999999258
 51
90.000000853773628
  0
ARC
  5
4A28
  8
2
 10
167.19414948658761
 20
103.2058823529412
 30
0.0
 40
1.4999999999999989
 50
90.000000853773628
 51
177.0
  0
LINE
  5
4A29
  8
2
 10
165.02620388964149
 20
90.5
 30
0.0
 11
165.69620518445581
 21
103.28438628730559
 31
0.0
  0
LINE
  5
4A2A
  8
2
 10
170.30379481554419
 20
103.28438628730559
 30
0.0
 11
171.0
 21
90.0
 31
0.0
  0
ARC
  5
4A2B
  8
2
 10
191.19414948658761
 20
103.2058823529411
 30
0.0
 40
1.500000000000006
 50
90.0
 51
133.16289714029261
  0
ARC
  5
4A2C
  8
2
 10
192.80585051341231
 20
103.2058823529411
 30
0.0
 40
1.500000000000004
 50
46.837102859707393
 51
90.0
  0
LINE
  5
4A2D
  8
2
 10
194.4916445409545
 20
99.700000000000003
 30
0.0
 11
194.97379611035839
 21
90.5
 31
0.0
  0
LINE
  5
4A2E
  8
2
 10
189.0
 20
90.0
 30
0.0
 11
189.52407779283041
 21
100.0
 31
0.0
  0
LINE
  5
4A2F
  8
2
 10
168.80585051341231
 20
104.7058823529412
 30
0.0
 11
167.19414948658761
 21
104.7058823529412
 31
0.0
  0
LINE
  5
4A31
  8
2
 10
191.19414948658761
 20
104.7058823529412
 30
0.0
 11
192.80585051341231
 21
104.7058823529412
 31
0.0
  0
POLYLINE
  5
4AB4
  8
2
 66
     1
 10
0.0
 20
0.0
 30
0.0
 70
     8
  0
VERTEX
  5
4AB5
  8
2
 10
190.25925579679389
 20
104.0003215730346
 30
0.0
 70
    32
  0
VERTEX
  5
4AB6
  8
2
 10
190.25297720156249
 20
104.01605903497619
 30
0.0
 70
    32
  0
VERTEX
  5
4AB7
  8
2
 10
190.2412820664849
 20
104.04643880079441
 30
0.0
 70
    32
  0
VERTEX
  5
4AB8
  8
2
 10
190.23069123319831
 20
104.0753238523191
 30
0.0
 70
    32
  0
VERTEX
  5
4AB9
  8
2
 10
190.22579304146069
 20
104.08919295018779
 30
0.0
 70
    32
  0
VERTEX
  5
4ABA
  8
2
 10
190.2211506470793
 20
104.1026728808376
 30
0.0
 70
    32
  0
VERTEX
  5
4ABB
  8
2
 10
190.21260611155921
 20
104.12844448974261
 30
0.0
 70
    32
  0
VERTEX
  5
4ABC
  8
2
 10
190.20502018720731
 20
104.1525413093983
 30
0.0
 70
    32
  0
VERTEX
  5
4ABD
  8
2
 10
190.19834517655201
 20
104.1748873871628
 30
0.0
 70
    32
  0
VERTEX
  5
4ABE
  8
2
 10
190.19251581666211
 20
104.19546224550869
 30
0.0
 70
    32
  0
VERTEX
  5
4ABF
  8
2
 10
190.18746810050649
 20
104.214246191157
 30
0.0
 70
    32
  0
VERTEX
  5
4AC0
  8
2
 10
190.18521779696329
 20
104.2229606233297
 30
0.0
 70
    32
  0
VERTEX
  5
4AC1
  8
2
 10
190.18313968557769
 20
104.2312202791595
 30
0.0
 70
    32
  0
VERTEX
  5
4AC2
  8
2
 10
190.17947047937409
 20
104.24636626906999
 30
0.0
 70
    32
  0
VERTEX
  5
4AC3
  8
2
 10
190.1764037487942
 20
104.2596650041383
 30
0.0
 70
    32
  0
VERTEX
  5
4AC4
  8
2
 10
190.1738881705667
 20
104.27109069729011
 30
0.0
 70
    32
  0
VERTEX
  5
4AC5
  8
2
 10
190.17187457694681
 20
104.28063023566339
 30
0.0
 70
    32
  0
VERTEX
  5
4AC6
  8
2
 10
190.17031939660049
 20
104.2882742318796
 30
0.0
 70
    32
  0
VERTEX
  5
4AC7
  8
2
 10
190.16970204119659
 20
104.2913828420115
 30
0.0
 70
    32
  0
VERTEX
  5
4AC8
  8
2
 10
190.1691863048782
 20
104.29401451752599
 30
0.0
 70
    32
  0
VERTEX
  5
4AC9
  8
2
 10
190.1684471328517
 20
104.2978445211107
 30
0.0
 70
    32
  0
VERTEX
  5
4ACA
  8
2
 10
190.1680824763157
 20
104.29976046400169
 30
0.0
 70
    32
  0
VERTEX
  5
4ACB
  8
2
 10
190.1680371270507
 20
104.3
 30
0.0
 70
    32
  0
SEQEND
  5
4ACC
  8
2
  0
POLYLINE
  5
4AE6
  8
2
 66
     1
 10
0.0
 20
0.0
 30
0.0
 70
     8
  0
VERTEX
  5
4AE7
  8
2
 10
193.29116950364661
 20
103.28438628730559
 30
0.0
 70
    32
  0
VERTEX
  5
4AE8
  8
2
 10
193.27459579867599
 20
103.26596820087489
 30
0.0
 70
    32
  0
VERTEX
  5
4AE9
  8
2
 10
193.2413836280715
 20
103.22888223095001
 30
0.0
 70
    32
  0
VERTEX
  5
4AEA
  8
2
 10
193.20812287536029
 20
103.1914835600703
 30
0.0
 70
    32
  0
VERTEX
  5
4AEB
  8
2
 10
193.1914888574689
 20
103.17267447416209
 30
0.0
 70
    32
  0
VERTEX
  5
4AEC
  8
2
 10
193.1748604145867
 20
103.1537961420496
 30
0.0
 70
    32
  0
VERTEX
  5
4AED
  8
2
 10
193.14164498124379
 20
103.11584317322701
 30
0.0
 70
    32
  0
VERTEX
  5
4AEE
  8
2
 10
193.10852730484791
 20
103.0776468522843
 30
0.0
 70
    32
  0
VERTEX
  5
4AEF
  8
2
 10
193.0755602918224
 20
103.03922812930441
 30
0.0
 70
    32
  0
VERTEX
  5
4AF0
  8
2
 10
193.0427992679881
 20
103.0006064425761
 30
0.0
 70
    32
  0
VERTEX
  5
4AF1
  8
2
 10
193.01030229198849
 20
102.9617994419641
 30
0.0
 70
    32
  0
VERTEX
  5
4AF2
  8
2
 10
192.99417601039099
 20
102.94233649461481
 30
0.0
 70
    32
  0
VERTEX
  5
4AF3
  8
2
 10
192.97815455698819
 20
102.92285200639991
 30
0.0
 70
    32
  0
VERTEX
  5
4AF4
  8
2
 10
192.9464521298261
 20
102.8838176592253
 30
0.0
 70
    32
  0
VERTEX
  5
4AF5
  8
2
 10
192.91524495480471
 20
102.8446869260883
 30
0.0
 70
    32
  0
VERTEX
  5
4AF6
  8
2
 10
192.88458631786179
 20
102.8054443289257
 30
0.0
 70
    32
  0
VERTEX
  5
4AF7
  8
2
 10
192.85453464723651
 20
102.7660685440611
 30
0.0
 70
    32
  0
VERTEX
  5
4AF8
  8
2
 10
192.82515482818431
 20
102.72653150636501
 30
0.0
 70
    32
  0
VERTEX
  5
4AF9
  8
2
 10
192.8107393392475
 20
102.7066916918899
 30
0.0
 70
    32
  0
VERTEX
  5
4AFA
  8
2
 10
192.79652001618371
 20
102.686797554809
 30
0.0
 70
    32
  0
VERTEX
  5
4AFB
  8
2
 10
192.76871407402939
 20
102.646822686188
 30
0.0
 70
    32
  0
VERTEX
  5
4AFC
  8
2
 10
192.7418347680117
 20
102.60655402229079
 30
0.0
 70
    32
  0
VERTEX
  5
4AFD
  8
2
 10
192.72877794176449
 20
102.5862905159547
 30
0.0
 70
    32
  0
VERTEX
  5
4AFE
  8
2
 10
192.71599784805849
 20
102.5659296529508
 30
0.0
 70
    32
  0
VERTEX
  5
4AFF
  8
2
 10
192.6913612230471
 20
102.5249120098556
 30
0.0
 70
    32
  0
VERTEX
  5
4B00
  8
2
 10
192.66809144185081
 20
102.4834290209062
 30
0.0
 70
    32
  0
VERTEX
  5
4B01
  8
2
 10
192.65701918920141
 20
102.4624680662797
 30
0.0
 70
    32
  0
VERTEX
  5
4B02
  8
2
 10
192.64635328605681
 20
102.4413330652861
 30
0.0
 70
    32
  0
VERTEX
  5
4B03
  8
2
 10
192.62635217833201
 20
102.3984467019261
 30
0.0
 70
    32
  0
VERTEX
  5
4B04
  8
2
 10
192.6083497550357
 20
102.35456650208199
 30
0.0
 70
    32
  0
VERTEX
  5
4B05
  8
2
 10
192.59268081827469
 20
102.3094735391754
 30
0.0
 70
    32
  0
VERTEX
  5
4B06
  8
2
 10
192.58477926113389
 20
102.2825125975677
 30
0.0
 70
    32
  0
VERTEX
  5
4B07
  8
2
 10
192.58270599503001
 20
102.2747101549343
 30
0.0
 70
    32
  0
VERTEX
  5
4B08
  8
2
 10
192.58071888893889
 20
102.26686086392
 30
0.0
 70
    32
  0
VERTEX
  5
4B09
  8
2
 10
192.5797584037563
 20
102.26291816642291
 30
0.0
 70
    32
  0
VERTEX
  5
4B0A
  8
2
 10
192.5788203779089
 20
102.25896317085039
 30
0.0
 70
    32
  0
VERTEX
  5
4B0B
  8
2
 10
192.57701297703591
 20
102.25101548048239
 30
0.0
 70
    32
  0
VERTEX
  5
4B0C
  8
2
 10
192.57529928406919
 20
102.24301616075211
 30
0.0
 70
    32
  0
VERTEX
  5
4B0D
  8
2
 10
192.57368198158389
 20
102.23496354817961
 30
0.0
 70
    32
  0
VERTEX
  5
4B0E
  8
2
 10
192.57216383860941
 20
102.2268559538811
 30
0.0
 70
    32
  0
VERTEX
  5
4B0F
  8
2
 10
192.5707477116041
 20
102.2186916701242
 30
0.0
 70
    32
  0
VERTEX
  5
4B10
  8
2
 10
192.5700788207088
 20
102.21458773259791
 30
0.0
 70
    32
  0
VERTEX
  5
4B11
  8
2
 10
192.56943654466659
 20
102.21046897734659
 30
0.0
 70
    32
  0
VERTEX
  5
4B12
  8
2
 10
192.56823336888289
 20
102.2021861515381
 30
0.0
 70
    32
  0
VERTEX
  5
4B13
  8
2
 10
192.5671413007114
 20
102.193841471871
 30
0.0
 70
    32
  0
VERTEX
  5
4B14
  8
2
 10
192.5666379285866
 20
102.1896454018591
 30
0.0
 70
    32
  0
VERTEX
  5
4B15
  8
2
 10
192.56616353932799
 20
102.18543322845009
 30
0.0
 70
    32
  0
VERTEX
  5
4B16
  8
2
 10
192.56530336286309
 20
102.1769597300367
 30
0.0
 70
    32
  0
VERTEX
  5
4B17
  8
2
 10
192.56456412348891
 20
102.1684193115918
 30
0.0
 70
    32
  0
VERTEX
  5
4B18
  8
2
 10
192.56424092153691
 20
102.1641234959791
 30
0.0
 70
    32
  0
VERTEX
  5
4B19
  8
2
 10
192.56394924133431
 20
102.159810341479
 30
0.0
 70
    32
  0
VERTEX
  5
4B1A
  8
2
 10
192.5634621972365
 20
102.15113122815831
 30
0.0
 70
    32
  0
VERTEX
  5
4B1B
  8
2
 10
192.56310652436539
 20
102.14238042621071
 30
0.0
 70
    32
  0
VERTEX
  5
4B1C
  8
2
 10
192.5628857987883
 20
102.1335564415329
 30
0.0
 70
    32
  0
VERTEX
  5
4B1D
  8
2
 10
192.5628036290758
 20
102.1246578355605
 30
0.0
 70
    32
  0
VERTEX
  5
4B1E
  8
2
 10
192.56286362331679
 20
102.11568471091149
 30
0.0
 70
    32
  0
VERTEX
  5
4B1F
  8
2
 10
192.56294738787139
 20
102.11119882654491
 30
0.0
 70
    32
  0
VERTEX
  5
4B20
  8
2
 10
192.5630663761857
 20
102.1067325796207
 30
0.0
 70
    32
  0
VERTEX
  5
4B21
  8
2
 10
192.5634080873325
 20
102.0978583466602
 30
0.0
 70
    32
  0
VERTEX
  5
4B22
  8
2
 10
192.56388490013981
 20
102.0890606585741
 30
0.0
 70
    32
  0
VERTEX
  5
4B23
  8
2
 10
192.56449299442281
 20
102.08033808343539
 30
0.0
 70
    32
  0
VERTEX
  5
4B24
  8
2
 10
192.56522859905991
 20
102.0716891153503
 30
0.0
 70
    32
  0
VERTEX
  5
4B25
  8
2
 10
192.56608800346621
 20
102.063112180183
 30
0.0
 70
    32
  0
VERTEX
  5
4B26
  8
2
 10
192.56656299011399
 20
102.05885021601649
 30
0.0
 70
    32
  0
VERTEX
  5
4B27
  8
2
 10
192.5670675677855
 20
102.054605642339
 30
0.0
 70
    32
  0
VERTEX
  5
4B28
  8
2
 10
192.56816373171731
 20
102.0461678124307
 30
0.0
 70
    32
  0
VERTEX
  5
4B29
  8
2
 10
192.56937302193009
 20
102.037796955633
 30
0.0
 70
    32
  0
VERTEX
  5
4B2A
  8
2
 10
192.57069205805209
 20
102.029491300541
 30
0.0
 70
    32
  0
VERTEX
  5
4B2B
  8
2
 10
192.5721175572566
 20
102.02124904833759
 30
0.0
 70
    32
  0
VERTEX
  5
4B2C
  8
2
 10
192.57364633749799
 20
102.0130683820891
 30
0.0
 70
    32
  0
VERTEX
  5
4B2D
  8
2
 10
192.5744484916824
 20
102.0090005732323
 30
0.0
 70
    32
  0
VERTEX
  5
4B2E
  8
2
 10
192.57527531947071
 20
102.00494747599571
 30
0.0
 70
    32
  0
VERTEX
  5
4B2F
  8
2
 10
192.57700152738741
 20
101.9968845044407
 30
0.0
 70
    32
  0
VERTEX
  5
4B30
  8
2
 10
192.57882208868969
 20
101.988877650696
 30
0.0
 70
    32
  0
VERTEX
  5
4B31
  8
2
 10
192.5807342328122
 20
101.9809251151629
 30
0.0
 70
    32
  0
VERTEX
  5
4B32
  8
2
 10
192.582735289129
 20
101.973025123044
 30
0.0
 70
    32
  0
VERTEX
  5
4B33
  8
2
 10
192.58482268421571
 20
101.9651759313641
 30
0.0
 70
    32
  0
VERTEX
  5
4B34
  8
2
 10
192.58589798038
 20
101.96126985127709
 30
0.0
 70
    32
  0
VERTEX
  5
4B35
  8
2
 10
192.58699393855619
 20
101.95737583527389
 30
0.0
 70
    32
  0
VERTEX
  5
4B36
  8
2
 10
192.58924666282229
 20
101.9496231735924
 30
0.0
 70
    32
  0
VERTEX
  5
4B37
  8
2
 10
192.5915785538476
 20
101.9419163335572
 30
0.0
 70
    32
  0
VERTEX
  5
4B38
  8
2
 10
192.6003322306268
 20
101.9152812176067
 30
0.0
 70
    32
  0
VERTEX
  5
4B39
  8
2
 10
192.6085191418594
 20
101.8928364434942
 30
0.0
 70
    32
  0
VERTEX
  5
4B3A
  8
2
 10
192.61728429986951
 20
101.87071186108911
 30
0.0
 70
    32
  0
VERTEX
  5
4B3B
  8
2
 10
192.6363713605235
 20
101.8273107140469
 30
0.0
 70
    32
  0
VERTEX
  5
4B3C
  8
2
 10
192.6572842139233
 20
101.7848674225923
 30
0.0
 70
    32
  0
VERTEX
  5
4B3D
  8
2
 10
192.67978532579181
 20
101.74318458454781
 30
0.0
 70
    32
  0
VERTEX
  5
4B3E
  8
2
 10
192.70369259410609
 20
101.7020862584951
 30
0.0
 70
    32
  0
VERTEX
  5
4B3F
  8
2
 10
192.72886397701609
 20
101.6614223934874
 30
0.0
 70
    32
  0
VERTEX
  5
4B40
  8
2
 10
192.7418873362885
 20
101.64121353613631
 30
0.0
 70
    32
  0
VERTEX
  5
4B41
  8
2
 10
192.7551832494635
 20
101.6210723428222
 30
0.0
 70
    32
  0
VERTEX
  5
4B42
  8
2
 10
192.78250450357299
 20
101.581009393698
 30
0.0
 70
    32
  0
VERTEX
  5
4B43
  8
2
 10
192.81071042446021
 20
101.5411965587226
 30
0.0
 70
    32
  0
VERTEX
  5
4B44
  8
2
 10
192.83971416695681
 20
101.5015827422787
 30
0.0
 70
    32
  0
VERTEX
  5
4B45
  8
2
 10
192.86944204280209
 20
101.4621241441053
 30
0.0
 70
    32
  0
VERTEX
  5
4B46
  8
2
 10
192.89983060556739
 20
101.42278390703019
 30
0.0
 70
    32
  0
VERTEX
  5
4B47
  8
2
 10
192.9152550443209
 20
101.4031484313179
 30
0.0
 70
    32
  0
VERTEX
  5
4B48
  8
2
 10
192.93082436483971
 20
101.3835316084904
 30
0.0
 70
    32
  0
VERTEX
  5
4B49
  8
2
 10
192.9623740242078
 20
101.3443426703834
 30
0.0
 70
    32
  0
VERTEX
  5
4B4A
  8
2
 10
192.99443514454401
 20
101.3051977348855
 30
0.0
 70
    32
  0
VERTEX
  5
4B4B
  8
2
 10
193.02696714679141
 20
101.26608203610481
 30
0.0
 70
    32
  0
VERTEX
  5
4B4C
  8
2
 10
193.0599325824171
 20
101.2269847858846
 30
0.0
 70
    32
  0
VERTEX
  5
4B4D
  8
2
 10
193.09328799395601
 20
101.187908624044
 30
0.0
 70
    32
  0
VERTEX
  5
4B4E
  8
2
 10
193.1100794529755
 20
101.16840257333619
 30
0.0
 70
    32
  0
VERTEX
  5
4B4F
  8
2
 10
193.12693510108531
 20
101.148924387319
 30
0.0
 70
    32
  0
VERTEX
  5
4B50
  8
2
 10
193.16081526366119
 20
101.1100594668271
 30
0.0
 70
    32
  0
VERTEX
  5
4B51
  8
2
 10
193.1948823003188
 20
101.07133048478789
 30
0.0
 70
    32
  0
VERTEX
  5
4B52
  8
2
 10
193.21197196028999
 20
101.0520225292435
 30
0.0
 70
    32
  0
VERTEX
  5
4B53
  8
2
 10
193.22909182138909
 20
101.0327553757897
 30
0.0
 70
    32
  0
VERTEX
  5
4B54
  8
2
 10
193.2634010342851
 20
100.9943531974414
 30
0.0
 70
    32
  0
VERTEX
  5
4B55
  8
2
 10
193.2977685902851
 20
100.95614395270781
 30
0.0
 70
    32
  0
VERTEX
  5
4B56
  8
2
 10
193.31496169056061
 20
100.9371181484709
 30
0.0
 70
    32
  0
VERTEX
  5
4B57
  8
2
 10
193.3321544663286
 20
100.9181484224429
 30
0.0
 70
    32
  0
VERTEX
  5
4B58
  8
2
 10
193.36651987658689
 20
100.88038800666401
 30
0.0
 70
    32
  0
VERTEX
  5
4B59
  8
2
 10
193.40082720950829
 20
100.8428845731915
 30
0.0
 70
    32
  0
VERTEX
  5
4B5A
  8
2
 10
193.435039986791
 20
100.80566031239709
 30
0.0
 70
    32
  0
VERTEX
  5
4B5B
  8
2
 10
193.4691228418271
 20
100.76873759641219
 30
0.0
 70
    32
  0
VERTEX
  5
4B5C
  8
2
 10
193.50304143869511
 20
100.7321389241884
 30
0.0
 70
    32
  0
VERTEX
  5
4B5D
  8
2
 10
193.51992862163249
 20
100.713968214833
 30
0.0
 70
    32
  0
VERTEX
  5
4B5E
  8
2
 10
193.5367622011388
 20
100.69588708744411
 30
0.0
 70
    32
  0
VERTEX
  5
4B5F
  8
2
 10
193.57025222234901
 20
100.6600051537326
 30
0.0
 70
    32
  0
VERTEX
  5
4B60
  8
2
 10
193.6034792737436
 20
100.6245163569899
 30
0.0
 70
    32
  0
VERTEX
  5
4B61
  8
2
 10
193.63641182353621
 20
100.5894439906703
 30
0.0
 70
    32
  0
VERTEX
  5
4B62
  8
2
 10
193.66901906342949
 20
100.5548113034327
 30
0.0
 70
    32
  0
VERTEX
  5
4B63
  8
2
 10
193.70127094283171
 20
100.5206413964786
 30
0.0
 70
    32
  0
VERTEX
  5
4B64
  8
2
 10
193.71725444873391
 20
100.5037371393623
 30
0.0
 70
    32
  0
VERTEX
  5
4B65
  8
2
 10
193.7331382100862
 20
100.4869571217926
 30
0.0
 70
    32
  0
VERTEX
  5
4B66
  8
2
 10
193.76459246025041
 20
100.45378098067739
 30
0.0
 70
    32
  0
VERTEX
  5
4B67
  8
2
 10
193.7956061889727
 20
100.4211350221296
 30
0.0
 70
    32
  0
VERTEX
  5
4B68
  8
2
 10
193.82628561896931
 20
100.3889013724378
 30
0.0
 70
    32
  0
VERTEX
  5
4B69
  8
2
 10
193.85683776115309
 20
100.35685789912679
 30
0.0
 70
    32
  0
VERTEX
  5
4B6A
  8
2
 10
193.8872124403745
 20
100.3250534022154
 30
0.0
 70
    32
  0
VERTEX
  5
4B6B
  8
2
 10
193.9023158374186
 20
100.3092578029632
 30
0.0
 70
    32
  0
VERTEX
  5
4B6C
  8
2
 10
193.91735408315341
 20
100.29354228976121
 30
0.0
 70
    32
  0
VERTEX
  5
4B6D
  8
2
 10
193.94720785829841
 20
100.2623781491189
 30
0.0
 70
    32
  0
VERTEX
  5
4B6E
  8
2
 10
193.97671982696289
 20
100.231613615396
 30
0.0
 70
    32
  0
VERTEX
  5
4B6F
  8
2
 10
194.00583709387041
 20
100.2013002363034
 30
0.0
 70
    32
  0
VERTEX
  5
4B70
  8
2
 10
194.0345079592413
 20
100.1714883341045
 30
0.0
 70
    32
  0
VERTEX
  5
4B71
  8
2
 10
194.06268207026361
 20
100.142226866062
 30
0.0
 70
    32
  0
VERTEX
  5
4B72
  8
2
 10
194.0765675127578
 20
100.127817436489
 30
0.0
 70
    32
  0
VERTEX
  5
4B73
  8
2
 10
194.09031056238061
 20
100.11356329365159
 30
0.0
 70
    32
  0
VERTEX
  5
4B74
  8
2
 10
194.1173459239138
 20
100.0855437366835
 30
0.0
 70
    32
  0
VERTEX
  5
4B75
  8
2
 10
194.14374157762441
 20
100.0582134172609
 30
0.0
 70
    32
  0
VERTEX
  5
4B76
  8
2
 10
194.16945194156
 20
100.03161660400831
 30
0.0
 70
    32
  0
VERTEX
  5
4B77
  8
2
 10
194.1944326162685
 20
100.00579642481679
 30
0.0
 70
    32
  0
VERTEX
  5
4B78
  8
2
 10
194.21864056907219
 20
99.98079468243489
 30
0.0
 70
    32
  0
VERTEX
  5
4B79
  8
2
 10
194.23044174492051
 20
99.968613381871521
 30
0.0
 70
    32
  0
VERTEX
  5
4B7A
  8
2
 10
194.24203431279051
 20
99.956651675558135
 30
0.0
 70
    32
  0
VERTEX
  5
4B7B
  8
2
 10
194.26457407567781
 20
99.933406028712454
 30
0.0
 70
    32
  0
VERTEX
  5
4B7C
  8
2
 10
194.2862219582274
 20
99.911094535359652
 30
0.0
 70
    32
  0
VERTEX
  5
4B7D
  8
2
 10
194.29670029460519
 20
99.900299907226966
 30
0.0
 70
    32
  0
VERTEX
  5
4B7E
  8
2
 10
194.30694442531939
 20
99.889749595844478
 30
0.0
 70
    32
  0
VERTEX
  5
4B7F
  8
2
 10
194.32671430986241
 20
99.869397165479853
 30
0.0
 70
    32
  0
VERTEX
  5
4B80
  8
2
 10
194.34549770836651
 20
99.850070247903233
 30
0.0
 70
    32
  0
VERTEX
  5
4B81
  8
2
 10
194.35450908704669
 20
99.840801485295898
 30
0.0
 70
    32
  0
VERTEX
  5
4B82
  8
2
 10
194.36326158972591
 20
99.831801050710894
 30
0.0
 70
    32
  0
VERTEX
  5
4B83
  8
2
 10
194.37997468527351
 20
99.814620070815664
 30
0.0
 70
    32
  0
VERTEX
  5
4B84
  8
2
 10
194.39560771409231
 20
99.798555864943154
 30
0.0
 70
    32
  0
VERTEX
  5
4B85
  8
2
 10
194.41013358064879
 20
99.78363484869044
 30
0.0
 70
    32
  0
VERTEX
  5
4B86
  8
2
 10
194.4235275372975
 20
99.769881131645192
 30
0.0
 70
    32
  0
VERTEX
  5
4B87
  8
2
 10
194.4357673034273
 20
99.757316396875979
 30
0.0
 70
    32
  0
VERTEX
  5
4B88
  8
2
 10
194.44144809465001
 20
99.751485992504101
 30
0.0
 70
    32
  0
VERTEX
  5
4B89
  8
2
 10
194.44683313048691
 20
99.745959835717144
 30
0.0
 70
    32
  0
VERTEX
  5
4B8A
  8
2
 10
194.45670766724751
 20
99.735828287162349
 30
0.0
 70
    32
  0
VERTEX
  5
4B8B
  8
2
 10
194.46537561838821
 20
99.726936588696191
 30
0.0
 70
    32
  0
VERTEX
  5
4B8C
  8
2
 10
194.47282386669741
 20
99.719297451036283
 30
0.0
 70
    32
  0
VERTEX
  5
4B8D
  8
2
 10
194.4790417224153
 20
99.712921202508795
 30
0.0
 70
    32
  0
VERTEX
  5
4B8E
  8
2
 10
194.48402111625049
 20
99.707815591214029
 30
0.0
 70
    32
  0
VERTEX
  5
4B8F
  8
2
 10
194.48604461778399
 20
99.705740956496129
 30
0.0
 70
    32
  0
VERTEX
  5
4B90
  8
2
 10
194.48775672742809
 20
99.70398565368302
 30
0.0
 70
    32
  0
VERTEX
  5
4B91
  8
2
 10
194.49024604099401
 20
99.701433655821106
 30
0.0
 70
    32
  0
VERTEX
  5
4B92
  8
2
 10
194.4914893299734
 20
99.700159110579975
 30
0.0
 70
    32
  0
VERTEX
  5
4B93
  8
2
 10
194.4916445409545
 20
99.700000000000003
 30
0.0
 70
    32
  0
SEQEND
  5
4B94
  8
2
  0
POLYLINE
  5
4B95
  8
2
 66
     1
 10
0.0
 20
0.0
 30
0.0
 70
     8
  0
VERTEX
  5
4B96
  8
2
 10
193.29116950364661
 20
103.28438628730559
 30
0.0
 70
    32
  0
VERTEX
  5
4B97
  8
2
 10
193.29767772970831
 20
103.29163811839381
 30
0.0
 70
    32
  0
VERTEX
  5
4B98
  8
2
 10
193.3105506699373
 20
103.30616277325851
 30
0.0
 70
    32
  0
VERTEX
  5
4B99
  8
2
 10
193.32323351397889
 20
103.32071212840449
 30
0.0
 70
    32
  0
VERTEX
  5
4B9A
  8
2
 10
193.3295041123186
 20
103.3279948461437
 30
0.0
 70
    32
  0
VERTEX
  5
4B9B
  8
2
 10
193.33572773751371
 20
103.33528227784041
 30
0.0
 70
    32
  0
VERTEX
  5
4B9C
  8
2
 10
193.3480347846297
 20
103.349869361396
 30
0.0
 70
    32
  0
VERTEX
  5
4B9D
  8
2
 10
193.36015606828531
 20
103.3644695624681
 30
0.0
 70
    32
  0
VERTEX
  5
4B9E
  8
2
 10
193.3720929708804
 20
103.37907910590749
 30
0.0
 70
    32
  0
VERTEX
  5
4B9F
  8
2
 10
193.3838468449224
 20
103.39369425604229
 30
0.0
 70
    32
  0
VERTEX
  5
4BA0
  8
2
 10
193.39541901377891
 20
103.4083113148352
 30
0.0
 70
    32
  0
VERTEX
  5
4BA1
  8
2
 10
193.4011373645497
 20
103.4156194142079
 30
0.0
 70
    32
  0
VERTEX
  5
4BA2
  8
2
 10
193.40681077250679
 20
103.4229266201685
 30
0.0
 70
    32
  0
VERTEX
  5
4BA3
  8
2
 10
193.41802338874751
 20
103.4375365442511
 30
0.0
 70
    32
  0
VERTEX
  5
4BA4
  8
2
 10
193.42905810368211
 20
103.4521374921413
 30
0.0
 70
    32
  0
VERTEX
  5
4BA5
  8
2
 10
193.43991613303541
 20
103.46672590037871
 30
0.0
 70
    32
  0
VERTEX
  5
4BA6
  8
2
 10
193.45059866812159
 20
103.48129823571639
 30
0.0
 70
    32
  0
VERTEX
  5
4BA7
  8
2
 10
193.46110687692541
 20
103.49585099394621
 30
0.0
 70
    32
  0
VERTEX
  5
4BA8
  8
2
 10
193.46629596785959
 20
103.5031189442511
 30
0.0
 70
    32
  0
VERTEX
  5
4BA9
  8
2
 10
193.4714419052099
 20
103.5103806988089
 30
0.0
 70
    32
  0
VERTEX
  5
4BAA
  8
2
 10
193.48160487764599
 20
103.52488390097911
 30
0.0
 70
    32
  0
VERTEX
  5
4BAB
  8
2
 10
193.491596898956
 20
103.5393571771161
 30
0.0
 70
    32
  0
VERTEX
  5
4BAC
  8
2
 10
193.49652898067461
 20
103.54658129137761
 30
0.0
 70
    32
  0
VERTEX
  5
4BAD
  8
2
 10
193.5014161715284
 20
103.553792858221
 30
0.0
 70
    32
  0
VERTEX
  5
4BAE
  8
2
 10
193.51105436562179
 20
103.5681732537107
 30
0.0
 70
    32
  0
VERTEX
  5
4BAF
  8
2
 10
193.52051252844939
 20
103.5824941835503
 30
0.0
 70
    32
  0
VERTEX
  5
4BB0
  8
2
 10
193.52517467116951
 20
103.5896314276103
 30
0.0
 70
    32
  0
VERTEX
  5
4BB1
  8
2
 10
193.5297924890005
 20
103.5967527045032
 30
0.0
 70
    32
  0
VERTEX
  5
4BB2
  8
2
 10
193.5388960390008
 20
103.6109459105091
 30
0.0
 70
    32
  0
VERTEX
  5
4BB3
  8
2
 10
193.54782493432211
 20
103.625070930408
 30
0.0
 70
    32
  0
VERTEX
  5
4BB4
  8
2
 10
193.57772522376649
 20
103.6739308276654
 30
0.0
 70
    32
  0
VERTEX
  5
4BB5
  8
2
 10
193.62425527235271
 20
103.7553266033707
 30
0.0
 70
    32
  0
VERTEX
  5
4BB6
  8
2
 10
193.66504110246129
 20
103.8331342064086
 30
0.0
 70
    32
  0
VERTEX
  5
4BB7
  8
2
 10
193.700151091539
 20
103.9062462741372
 30
0.0
 70
    32
  0
VERTEX
  5
4BB8
  8
2
 10
193.7299994488117
 20
103.97420899809531
 30
0.0
 70
    32
  0
VERTEX
  5
4BB9
  8
2
 10
193.74308904961711
 20
104.0061554186785
 30
0.0
 70
    32
  0
VERTEX
  5
4BBA
  8
2
 10
193.75502689541159
 20
104.0366909917831
 30
0.0
 70
    32
  0
VERTEX
  5
4BBB
  8
2
 10
193.77565763969
 20
104.0933687924457
 30
0.0
 70
    32
  0
VERTEX
  5
4BBC
  8
2
 10
193.7923043369367
 20
104.1438976677107
 30
0.0
 70
    32
  0
VERTEX
  5
4BBD
  8
2
 10
193.80532128796091
 20
104.1877000351565
 30
0.0
 70
    32
  0
VERTEX
  5
4BBE
  8
2
 10
193.81517731600641
 20
104.22451475163381
 30
0.0
 70
    32
  0
VERTEX
  5
4BBF
  8
2
 10
193.82235275839221
 20
104.2541952940247
 30
0.0
 70
    32
  0
VERTEX
  5
4BC0
  8
2
 10
193.8250729521537
 20
104.2663103035844
 30
0.0
 70
    32
  0
VERTEX
  5
4BC1
  8
2
 10
193.82728070384101
 20
104.2765820286541
 30
0.0
 70
    32
  0
VERTEX
  5
4BC2
  8
2
 10
193.83033248304841
 20
104.2915580046494
 30
0.0
 70
    32
  0
VERTEX
  5
4BC3
  8
2
 10
193.83178486957041
 20
104.29906140109939
 30
0.0
 70
    32
  0
VERTEX
  5
4BC4
  8
2
 10
193.8319628729493
 20
104.3
 30
0.0
 70
    32
  0
SEQEND
  5
4BC5
  8
2
  0
LINE
  5
4BC6
  8
2
 10
200.51884843059599
 20
99.700000000000003
 30
0.0
 11
194.4916445409545
 21
99.700000000000003
 31
0.0
  0
LINE
  5
4BC7
  8
2
 10
193.8319628729493
 20
104.3
 30
0.0
 11
200.277772645894
 21
104.3
 31
0.0
  0
ARC
  5
4BC8
  8
2
 10
191.19414948658729
 20
103.2058823529413
 30
0.0
 40
1.499999999999694
 50
142.75924480348519
 51
148.03428124920299
  0
LINE
  5
4BE2
  8
2
 10
190.1684471328517
 20
104.2978445211107
 30
0.0
 11
190.0
 21
104.1136306681049
 31
0.0
  0
POLYLINE
  5
4C0F
  8
2
 66
     1
 10
0.0
 20
0.0
 30
0.0
 70
     8
  0
VERTEX
  5
4C11
  8
2
 10
190.25938712682
 20
104.00000000000669
 30
0.0
 70
    32
  0
VERTEX
  5
4C12
  8
2
 10
190.25925579679389
 20
104.0003215730346
 30
0.0
 70
    32
  0
SEQEND
  5
4C10
  8
2
  0
LINE
  5
4C14
  8
2
 10
177.0
 20
97.0
 30
0.0
 11
177.0
 21
112.0
 31
0.0
  0
LINE
  5
4C15
  8
2
 10
183.0
 20
112.0
 30
0.0
 11
183.0
 21
104.00000000000669
 31
0.0
  0
LINE
  5
4C16
  8
2
 10
183.0
 20
112.0
 30
0.0
 11
177.0
 21
112.0
 31
0.0
  0
LINE
  5
4CA5
  8
2
 10
172.5
 20
90.0
 30
0.0
 11
172.5
 21
97.0
 31
0.0
  0
LINE
  5
4CA6
  8
2
 10
187.5
 20
97.0
 30
0.0
 11
187.5
 21
90.0
 31
0.0
  0
LINE
  5
4CA7
  8
2
 10
187.5
 20
97.0
 30
0.0
 11
172.5
 21
97.0
 31
0.0
  0
POLYLINE
  5
4CA8
  8
2
 66
     1
 10
0.0
 20
0.0
 30
0.0
 70
     8
  0
VERTEX
  5
4CA9
  8
2
 10
183.0
 20
100.0
 30
0.0
 70
    32
  0
VERTEX
  5
4CAA
  8
2
 10
182.99985873088821
 20
100.00021190990481
 30
0.0
 70
    32
  0
VERTEX
  5
4CAB
  8
2
 10
182.9987206871908
 20
100.0019194811554
 30
0.0
 70
    32
  0
VERTEX
  5
4CAC
  8
2
 10
182.99642783319959
 20
100.005362248534
 30
0.0
 70
    32
  0
VERTEX
  5
4CAD
  8
2
 10
182.9948446158354
 20
100.0077414141234
 30
0.0
 70
    32
  0
VERTEX
  5
4CAE
  8
2
 10
182.99296905821041
 20
100.0105619428077
 30
0.0
 70
    32
  0
VERTEX
  5
4CAF
  8
2
 10
182.98834001589111
 20
100.0175328374532
 30
0.0
 70
    32
  0
VERTEX
  5
4CB0
  8
2
 10
182.98254302812481
 20
100.0262819566573
 30
0.0
 70
    32
  0
VERTEX
  5
4CB1
  8
2
 10
182.97558679912791
 20
100.03680953569339
 30
0.0
 70
    32
  0
VERTEX
  5
4CB2
  8
2
 10
182.96748597526371
 20
100.0491096869924
 30
0.0
 70
    32
  0
VERTEX
  5
4CB3
  8
2
 10
182.95826105069611
 20
100.06317051755551
 30
0.0
 70
    32
  0
VERTEX
  5
4CB4
  8
2
 10
182.95323514831369
 20
100.07085567122741
 30
0.0
 70
    32
  0
VERTEX
  5
4CB5
  8
2
 10
182.94793870806171
 20
100.0789735487274
 30
0.0
 70
    32
  0
VERTEX
  5
4CB6
  8
2
 10
182.93655170970061
 20
100.09649377627861
 30
0.0
 70
    32
  0
VERTEX
  5
4CB7
  8
2
 10
182.9241385698088
 20
100.11570003039751
 30
0.0
 70
    32
  0
VERTEX
  5
4CB8
  8
2
 10
182.91074310033531
 20
100.1365555022621
 30
0.0
 70
    32
  0
VERTEX
  5
4CB9
  8
2
 10
182.89641382799641
 20
100.15901845120359
 30
0.0
 70
    32
  0
VERTEX
  5
4CBA
  8
2
 10
182.8811981170611
 20
100.18305129688351
 30
0.0
 70
    32
  0
VERTEX
  5
4CBB
  8
2
 10
182.87327358934101
 20
100.1956438491238
 30
0.0
 70
    32
  0
VERTEX
  5
4CBC
  8
2
 10
182.8651476242612
 20
100.2086120161143
 30
0.0
 70
    32
  0
VERTEX
  5
4CBD
  8
2
 10
182.8483220777288
 20
100.2356478076989
 30
0.0
 70
    32
  0
VERTEX
  5
4CBE
  8
2
 10
182.83078540118461
 20
100.2641008129616
 30
0.0
 70
    32
  0
VERTEX
  5
4CBF
  8
2
 10
182.82177138697011
 20
100.2788394147194
 30
0.0
 70
    32
  0
VERTEX
  5
4CC0
  8
2
 10
182.81260519917831
 20
100.29390855859209
 30
0.0
 70
    32
  0
VERTEX
  5
4CC1
  8
2
 10
182.79385219172531
 20
100.3250044569586
 30
0.0
 70
    32
  0
VERTEX
  5
4CC2
  8
2
 10
182.77459961234771
 20
100.3573183482975
 30
0.0
 70
    32
  0
VERTEX
  5
4CC3
  8
2
 10
182.76480943929801
 20
100.3739092166697
 30
0.0
 70
    32
  0
VERTEX
  5
4CC4
  8
2
 10
182.75492281860829
 20
100.39077666668391
 30
0.0
 70
    32
  0
VERTEX
  5
4CC5
  8
2
 10
182.7348995962391
 20
100.4253013616857
 30
0.0
 70
    32
  0
VERTEX
  5
4CC6
  8
2
 10
182.71460995035
 20
100.46080956911121
 30
0.0
 70
    32
  0
VERTEX
  5
4CC7
  8
2
 10
182.6941354988663
 20
100.49721389204861
 30
0.0
 70
    32
  0
VERTEX
  5
4CC8
  8
2
 10
182.67355882181931
 20
100.5344227165624
 30
0.0
 70
    32
  0
VERTEX
  5
4CC9
  8
2
 10
182.65296277921951
 20
100.57234054903689
 30
0.0
 70
    32
  0
VERTEX
  5
4CCA
  8
2
 10
182.642678188312
 20
100.59154410541881
 30
0.0
 70
    32
  0
VERTEX
  5
4CCB
  8
2
 10
182.6323329532718
 20
100.6110519171397
 30
0.0
 70
    32
  0
VERTEX
  5
4CCC
  8
2
 10
182.61141272743001
 20
100.651120304481
 30
0.0
 70
    32
  0
VERTEX
  5
4CCD
  8
2
 10
182.59024929074221
 20
100.69256304618899
 30
0.0
 70
    32
  0
VERTEX
  5
4CCE
  8
2
 10
182.56892189929641
 20
100.73534205229829
 30
0.0
 70
    32
  0
VERTEX
  5
4CCF
  8
2
 10
182.54751334016191
 20
100.77941644353901
 30
0.0
 70
    32
  0
VERTEX
  5
4CD0
  8
2
 10
182.5261094104344
 20
100.82474311170461
 30
0.0
 70
    32
  0
VERTEX
  5
4CD1
  8
2
 10
182.51543668778169
 20
100.8478621045039
 30
0.0
 70
    32
  0
VERTEX
  5
4CD2
  8
2
 10
182.5047983950561
 20
100.8712772705947
 30
0.0
 70
    32
  0
VERTEX
  5
4CD3
  8
2
 10
182.48367057476469
 20
100.9189729309807
 30
0.0
 70
    32
  0
VERTEX
  5
4CD4
  8
2
 10
182.46281813913259
 20
100.9677823938526
 30
0.0
 70
    32
  0
VERTEX
  5
4CD5
  8
2
 10
182.4423351197816
 20
101.01765543859671
 30
0.0
 70
    32
  0
VERTEX
  5
4CD6
  8
2
 10
182.4223167985127
 20
101.0685394950095
 30
0.0
 70
    32
  0
VERTEX
  5
4CD7
  8
2
 10
182.40285901714859
 20
101.1203799363973
 30
0.0
 70
    32
  0
VERTEX
  5
4CD8
  8
2
 10
182.39337025274881
 20
101.1466412438235
 30
0.0
 70
    32
  0
VERTEX
  5
4CD9
  8
2
 10
182.3840574426961
 20
101.17312038961229
 30
0.0
 70
    32
  0
VERTEX
  5
4CDA
  8
2
 10
182.36600676055369
 20
101.226703167609
 30
0.0
 70
    32
  0
VERTEX
  5
4CDB
  8
2
 10
182.34879515973981
 20
101.2810850520284
 30
0.0
 70
    32
  0
VERTEX
  5
4CDC
  8
2
 10
182.3325115797935
 20
101.3362151931001
 30
0.0
 70
    32
  0
VERTEX
  5
4CDD
  8
2
 10
182.31724658023541
 20
101.3920265518848
 30
0.0
 70
    32
  0
VERTEX
  5
4CDE
  8
2
 10
182.3030868715004
 20
101.4484484270008
 30
0.0
 70
    32
  0
VERTEX
  5
4CDF
  8
2
 10
182.2964472263682
 20
101.4768653486008
 30
0.0
 70
    32
  0
VERTEX
  5
4CE0
  8
2
 10
182.29011401603651
 20
101.50540702952129
 30
0.0
 70
    32
  0
VERTEX
  5
4CE1
  8
2
 10
182.27840312775189
 20
101.5628263359375
 30
0.0
 70
    32
  0
VERTEX
  5
4CE2
  8
2
 10
182.26802163593501
 20
101.6206292827994
 30
0.0
 70
    32
  0
VERTEX
  5
4CE3
  8
2
 10
182.2590282759619
 20
101.6787388109413
 30
0.0
 70
    32
  0
VERTEX
  5
4CE4
  8
2
 10
182.25147281618081
 20
101.737074455404
 30
0.0
 70
    32
  0
VERTEX
  5
4CE5
  8
2
 10
182.24539524244639
 20
101.79555001882839
 30
0.0
 70
    32
  0
VERTEX
  5
4CE6
  8
2
 10
182.24292014702479
 20
101.8248121410315
 30
0.0
 70
    32
  0
VERTEX
  5
4CE7
  8
2
 10
182.24082441586461
 20
101.8540751469595
 30
0.0
 70
    32
  0
VERTEX
  5
4CE8
  8
2
 10
182.23777706671419
 20
101.91255744564459
 30
0.0
 70
    32
  0
VERTEX
  5
4CE9
  8
2
 10
182.23625725845309
 20
101.9709048804033
 30
0.0
 70
    32
  0
VERTEX
  5
4CEA
  8
2
 10
182.2360679774998
 20
102.0
 30
0.0
 70
    32
  0
VERTEX
  5
4CEB
  8
2
 10
182.23625725845309
 20
102.0290951195966
 30
0.0
 70
    32
  0
VERTEX
  5
4CEC
  8
2
 10
182.23777706671419
 20
102.08744255435541
 30
0.0
 70
    32
  0
VERTEX
  5
4CED
  8
2
 10
182.24082441586461
 20
102.1459248530405
 30
0.0
 70
    32
  0
VERTEX
  5
4CEE
  8
2
 10
182.24292014702479
 20
102.1751878589684
 30
0.0
 70
    32
  0
VERTEX
  5
4CEF
  8
2
 10
182.24539524244639
 20
102.20444998117161
 30
0.0
 70
    32
  0
VERTEX
  5
4CF0
  8
2
 10
182.25147281618081
 20
102.262925544596
 30
0.0
 70
    32
  0
VERTEX
  5
4CF1
  8
2
 10
182.2590282759619
 20
102.3212611890587
 30
0.0
 70
    32
  0
VERTEX
  5
4CF2
  8
2
 10
182.26802163593501
 20
102.3793707172005
 30
0.0
 70
    32
  0
VERTEX
  5
4CF3
  8
2
 10
182.27840312775189
 20
102.4371736640624
 30
0.0
 70
    32
  0
VERTEX
  5
4CF4
  8
2
 10
182.29011401603651
 20
102.49459297047861
 30
0.0
 70
    32
  0
VERTEX
  5
4CF5
  8
2
 10
182.2964472263682
 20
102.5231346513991
 30
0.0
 70
    32
  0
VERTEX
  5
4CF6
  8
2
 10
182.3030868715004
 20
102.5515515729992
 30
0.0
 70
    32
  0
VERTEX
  5
4CF7
  8
2
 10
182.31724658023541
 20
102.6079734481151
 30
0.0
 70
    32
  0
VERTEX
  5
4CF8
  8
2
 10
182.3325115797935
 20
102.6637848068998
 30
0.0
 70
    32
  0
VERTEX
  5
4CF9
  8
2
 10
182.34879515973981
 20
102.7189149479716
 30
0.0
 70
    32
  0
VERTEX
  5
4CFA
  8
2
 10
182.36600676055369
 20
102.7732968323909
 30
0.0
 70
    32
  0
VERTEX
  5
4CFB
  8
2
 10
182.3840574426961
 20
102.82687961038761
 30
0.0
 70
    32
  0
VERTEX
  5
4CFC
  8
2
 10
182.39337025274881
 20
102.85335875617641
 30
0.0
 70
    32
  0
VERTEX
  5
4CFD
  8
2
 10
182.40285901714859
 20
102.8796200636027
 30
0.0
 70
    32
  0
VERTEX
  5
4CFE
  8
2
 10
182.42231679851281
 20
102.9314605049905
 30
0.0
 70
    32
  0
VERTEX
  5
4CFF
  8
2
 10
182.4423351197816
 20
102.98234456140329
 30
0.0
 70
    32
  0
VERTEX
  5
4D00
  8
2
 10
182.46281813913259
 20
103.0322176061474
 30
0.0
 70
    32
  0
VERTEX
  5
4D01
  8
2
 10
182.48367057476469
 20
103.0810270690192
 30
0.0
 70
    32
  0
VERTEX
  5
4D02
  8
2
 10
182.5047983950561
 20
103.1287227294053
 30
0.0
 70
    32
  0
VERTEX
  5
4D03
  8
2
 10
182.51543668778169
 20
103.152137895496
 30
0.0
 70
    32
  0
VERTEX
  5
4D04
  8
2
 10
182.5261094104344
 20
103.17525688829529
 30
0.0
 70
    32
  0
VERTEX
  5
4D05
  8
2
 10
182.54751334016191
 20
103.22058355646099
 30
0.0
 70
    32
  0
VERTEX
  5
4D06
  8
2
 10
182.56892189929641
 20
103.26465794770171
 30
0.0
 70
    32
  0
VERTEX
  5
4D07
  8
2
 10
182.59024929074221
 20
103.30743695381101
 30
0.0
 70
    32
  0
VERTEX
  5
4D08
  8
2
 10
182.61141272743001
 20
103.3488796955189
 30
0.0
 70
    32
  0
VERTEX
  5
4D09
  8
2
 10
182.6323329532718
 20
103.3889480828602
 30
0.0
 70
    32
  0
VERTEX
  5
4D0A
  8
2
 10
182.642678188312
 20
103.4084558945811
 30
0.0
 70
    32
  0
VERTEX
  5
4D0B
  8
2
 10
182.65296277921951
 20
103.42765945096311
 30
0.0
 70
    32
  0
VERTEX
  5
4D0C
  8
2
 10
182.67355882181931
 20
103.4655772834376
 30
0.0
 70
    32
  0
VERTEX
  5
4D0D
  8
2
 10
182.6941354988663
 20
103.50278610795129
 30
0.0
 70
    32
  0
VERTEX
  5
4D0E
  8
2
 10
182.71460995035
 20
103.5391904308887
 30
0.0
 70
    32
  0
VERTEX
  5
4D0F
  8
2
 10
182.7348995962391
 20
103.5746986383143
 30
0.0
 70
    32
  0
VERTEX
  5
4D10
  8
2
 10
182.75492281860829
 20
103.609223333316
 30
0.0
 70
    32
  0
VERTEX
  5
4D11
  8
2
 10
182.76480943929801
 20
103.6260907833302
 30
0.0
 70
    32
  0
VERTEX
  5
4D12
  8
2
 10
182.77459961234771
 20
103.6426816517025
 30
0.0
 70
    32
  0
VERTEX
  5
4D13
  8
2
 10
182.79385219172531
 20
103.6749955430414
 30
0.0
 70
    32
  0
VERTEX
  5
4D14
  8
2
 10
182.81260519917839
 20
103.70609144140791
 30
0.0
 70
    32
  0
VERTEX
  5
4D15
  8
2
 10
182.82177138697011
 20
103.7211605852806
 30
0.0
 70
    32
  0
VERTEX
  5
4D16
  8
2
 10
182.83078540118461
 20
103.7358991870383
 30
0.0
 70
    32
  0
VERTEX
  5
4D17
  8
2
 10
182.8483220777288
 20
103.7643521923011
 30
0.0
 70
    32
  0
VERTEX
  5
4D18
  8
2
 10
182.8651476242612
 20
103.7913879838856
 30
0.0
 70
    32
  0
VERTEX
  5
4D19
  8
2
 10
182.87327358934101
 20
103.8043561508761
 30
0.0
 70
    32
  0
VERTEX
  5
4D1A
  8
2
 10
182.8811981170611
 20
103.81694870311649
 30
0.0
 70
    32
  0
VERTEX
  5
4D1B
  8
2
 10
182.89641382799641
 20
103.84098154879641
 30
0.0
 70
    32
  0
VERTEX
  5
4D1C
  8
2
 10
182.91074310033531
 20
103.8634444977379
 30
0.0
 70
    32
  0
VERTEX
  5
4D1D
  8
2
 10
182.9241385698088
 20
103.8842999696024
 30
0.0
 70
    32
  0
VERTEX
  5
4D1E
  8
2
 10
182.93655170970061
 20
103.90350622372129
 30
0.0
 70
    32
  0
VERTEX
  5
4D1F
  8
2
 10
182.94793870806171
 20
103.9210264512725
 30
0.0
 70
    32
  0
VERTEX
  5
4D20
  8
2
 10
182.95323514831369
 20
103.92914432877259
 30
0.0
 70
    32
  0
VERTEX
  5
4D21
  8
2
 10
182.95826105069611
 20
103.9368294824444
 30
0.0
 70
    32
  0
VERTEX
  5
4D22
  8
2
 10
182.96748597526371
 20
103.95089031300751
 30
0.0
 70
    32
  0
VERTEX
  5
4D23
  8
2
 10
182.97558679912791
 20
103.96319046430661
 30
0.0
 70
    32
  0
VERTEX
  5
4D24
  8
2
 10
182.98254302812481
 20
103.9737180433426
 30
0.0
 70
    32
  0
VERTEX
  5
4D25
  8
2
 10
182.98834001589111
 20
103.9824671625467
 30
0.0
 70
    32
  0
VERTEX
  5
4D26
  8
2
 10
182.99296905821041
 20
103.9894380571923
 30
0.0
 70
    32
  0
VERTEX
  5
4D27
  8
2
 10
182.9948446158354
 20
103.9922585858765
 30
0.0
 70
    32
  0
VERTEX
  5
4D28
  8
2
 10
182.99642783319959
 20
103.994637751466
 30
0.0
 70
    32
  0
VERTEX
  5
4D29
  8
2
 10
182.9987206871908
 20
103.9980805188446
 30
0.0
 70
    32
  0
VERTEX
  5
4D2A
  8
2
 10
182.99985873088821
 20
103.99978809009509
 30
0.0
 70
    32
  0
VERTEX
  5
4D2B
  8
2
 10
183.0
 20
104.0
 30
0.0
 70
    32
  0
SEQEND
  5
4D2C
  8
2
  0
LINE
  5
4D2D
  8
2
 10
183.00000000000401
 20
99.999999999994003
 30
0.0
 11
183.0
 21
97.0
 31
0.0
  0
LINE
  5
4D2E
  8
2
 10
183.0
 20
100.4999999999939
 30
0.0
 11
183.0
 21
103.50000000000669
 31
0.0
  0
LINE
  5
4DC6
  8
0
 10
180.0
 20
112.0
 30
0.0
 11
179.99999865130081
 21
94.500000000000014
 31
0.0
  0
TEXT
  5
4E26
  8
0
 62
     3
 10
0.0
 20
0.0
 30
0.0
 40
10.0
  1
INK45
  7
STANDARD1
  0
ENDSEC
  0
EOF
