  0
SECTION
  2
HEADER
  9
$ACADVER
  1
AC1009
  9
$INSBASE
 10
0.0
 20
0.0
 30
0.0
  9
$EXTMIN
 10
0.0
 20
0.0000000000000568
 30
0.0
  9
$EXTMAX
 10
285.5
 20
235.4999999999990905
 30
0.0
  9
$LIMMIN
 10
0.0
 20
0.0
  9
$LIMMAX
 10
420.0
 20
297.0
  9
$ORTHOMODE
 70
     1
  9
$REGENMODE
 70
     1
  9
$FILLMODE
 70
     1
  9
$QTEXTMODE
 70
     0
  9
$MIRRTEXT
 70
     0
  9
$DRAGMODE
 70
     2
  9
$LTSCALE
 40
1.0
  9
$OSMODE
 70
    37
  9
$ATTMODE
 70
     1
  9
$TEXTSIZE
 40
2.5
  9
$TRACEWID
 40
1.0
  9
$TEXTSTYLE
  7
STANDARD
  9
$CLAYER
  8
1
  9
$CELTYPE
  6
BYLAYER
  9
$CECOLOR
 62
   256
  9
$DIMSCALE
 40
1.0
  9
$DIMASZ
 40
2.5
  9
$DIMEXO
 40
0.625
  9
$DIMDLI
 40
3.75
  9
$DIMRND
 40
0.0
  9
$DIMDLE
 40
0.0
  9
$DIMEXE
 40
1.25
  9
$DIMTP
 40
0.0
  9
$DIMTM
 40
0.0
  9
$DIMTXT
 40
2.5
  9
$DIMCEN
 40
2.5
  9
$DIMTSZ
 40
0.0
  9
$DIMTOL
 70
     0
  9
$DIMLIM
 70
     0
  9
$DIMTIH
 70
     0
  9
$DIMTOH
 70
     0
  9
$DIMSE1
 70
     0
  9
$DIMSE2
 70
     0
  9
$DIMTAD
 70
     1
  9
$DIMZIN
 70
     8
  9
$DIMBLK
  1

  9
$DIMASO
 70
     1
  9
$DIMSHO
 70
     1
  9
$DIMPOST
  1

  9
$DIMAPOST
  1

  9
$DIMALT
 70
     0
  9
$DIMALTD
 70
     3
  9
$DIMALTF
 40
0.03937007874016
  9
$DIMLFAC
 40
1.0
  9
$DIMTOFL
 70
     1
  9
$DIMTVP
 40
0.0
  9
$DIMTIX
 70
     0
  9
$DIMSOXD
 70
     0
  9
$DIMSAH
 70
     0
  9
$DIMBLK1
  1

  9
$DIMBLK2
  1

  9
$DIMSTYLE
  2
ISO-25
  9
$DIMCLRD
 70
     0
  9
$DIMCLRE
 70
     0
  9
$DIMCLRT
 70
     0
  9
$DIMTFAC
 40
1.0
  9
$DIMGAP
 40
0.625
  9
$LUNITS
 70
     2
  9
$LUPREC
 70
     1
  9
$SKETCHINC
 40
1.0
  9
$FILLETRAD
 40
0.0
  9
$AUNITS
 70
     0
  9
$AUPREC
 70
     0
  9
$MENU
  1
.
  9
$ELEVATION
 40
0.0
  9
$PELEVATION
 40
0.0
  9
$THICKNESS
 40
0.0
  9
$LIMCHECK
 70
     0
  9
$BLIPMODE
 70
     0
  9
$CHAMFERA
 40
0.0
  9
$CHAMFERB
 40
0.0
  9
$SKPOLY
 70
     0
  9
$TDCREATE
 40
2454946.5997685180045664
  9
$TDUPDATE
 40
2460745.6381134260445833
  9
$TDINDWG
 40
1.4928891088
  9
$TDUSRTIMER
 40
1.4928889352000001
  9
$USRTIMER
 70
     1
  9
$ANGBASE
 50
0.0
  9
$ANGDIR
 70
     0
  9
$PDMODE
 70
     0
  9
$PDSIZE
 40
0.0
  9
$PLINEWID
 40
0.0
  9
$COORDS
 70
     1
  9
$SPLFRAME
 70
     0
  9
$SPLINETYPE
 70
     6
  9
$SPLINESEGS
 70
     8
  9
$ATTDIA
 70
     1
  9
$ATTREQ
 70
     1
  9
$HANDLING
 70
     1
  9
$HANDSEED
  5
193F0
  9
$SURFTAB1
 70
     6
  9
$SURFTAB2
 70
     6
  9
$SURFTYPE
 70
     6
  9
$SURFU
 70
     6
  9
$SURFV
 70
     6
  9
$UCSNAME
  2

  9
$UCSORG
 10
0.0
 20
0.0
 30
0.0
  9
$UCSXDIR
 10
1.0
 20
0.0
 30
0.0
  9
$UCSYDIR
 10
0.0
 20
1.0
 30
0.0
  9
$PUCSNAME
  2

  9
$PUCSORG
 10
0.0
 20
0.0
 30
0.0
  9
$PUCSXDIR
 10
1.0
 20
0.0
 30
0.0
  9
$PUCSYDIR
 10
0.0
 20
1.0
 30
0.0
  9
$USERI1
 70
     0
  9
$USERI2
 70
     0
  9
$USERI3
 70
     0
  9
$USERI4
 70
     0
  9
$USERI5
 70
     0
  9
$USERR1
 40
0.0
  9
$USERR2
 40
0.0
  9
$USERR3
 40
0.0
  9
$USERR4
 40
0.0
  9
$USERR5
 40
0.0
  9
$WORLDVIEW
 70
     1
  9
$SHADEDGE
 70
     3
  9
$SHADEDIF
 70
    70
  9
$TILEMODE
 70
     1
  9
$MAXACTVP
 70
    64
  9
$PLIMCHECK
 70
     0
  9
$PEXTMIN
 10
0.0
 20
0.0
 30
0.0
  9
$PEXTMAX
 10
0.0
 20
0.0
 30
0.0
  9
$PLIMMIN
 10
0.0
 20
0.0
  9
$PLIMMAX
 10
12.0
 20
9.0
  9
$UNITMODE
 70
     0
  9
$VISRETAIN
 70
     1
  9
$PLINEGEN
 70
     0
  9
$PSLTSCALE
 70
     1
  0
ENDSEC
  0
SECTION
  2
TABLES
  0
TABLE
  2
VPORT
 70
     1
  0
VPORT
  2
*ACTIVE
 70
     0
 10
0.0
 20
0.0
 11
1.0
 21
1.0
 12
-26.9260871954485914
 22
-58.5924802243029035
 13
0.0
 23
0.0
 14
10.0
 24
10.0
 15
10.0
 25
10.0
 16
0.0
 26
0.0
 36
260.884935587131622
 17
319.8196404188369115
 27
183.747620215537097
 37
0.0
 40
250.3102799824683871
 41
2.340243902439024
 42
50.0
 43
0.0
 44
0.0
 50
0.0
 51
0.0
 71
     0
 72
  1000
 73
     1
 74
     3
 75
     0
 76
     0
 77
     0
 78
     0
  0
ENDTAB
  0
TABLE
  2
LTYPE
 70
     4
  0
LTYPE
  2
CONTINUOUS
 70
     0
  3
Solid line
 72
    65
 73
     0
 40
0.0
  0
LTYPE
  2
CENTER
 70
     0
  3
Center ____ _ ____ _ ____ _ ____ _ ____ _ ____
 72
    65
 73
     4
 40
10.1600000000000001
 49
6.3499999999999979
 49
-1.27
 49
1.27
 49
-1.27
  0
LTYPE
  2
PHANTOM2
 70
     0
  3
Phantom (.5x) ___ _ _ ___ _ _ ___ _ _ ___ _ _
 72
    65
 73
     6
 40
31.75
 49
15.875
 49
-3.174999999999998
 49
3.174999999999998
 49
-3.174999999999998
 49
3.174999999999998
 49
-3.174999999999998
  0
LTYPE
  2
HIDDEN
 70
     0
  3
Hidden __ __ __ __ __ __ __ __ __ __ __ __ __ __
 72
    65
 73
     2
 40
1.905
 49
1.27
 49
-0.635
  0
ENDTAB
  0
TABLE
  2
LAYER
 70
     5
  0
LAYER
  2
0
 70
     0
 62
     7
  6
CONTINUOUS
  0
LAYER
  2
1
 70
     0
 62
     1
  6
CENTER
  0
LAYER
  2
DEFPOINTS
 70
     0
 62
     7
  6
CONTINUOUS
  0
LAYER
  2
3
 70
     0
 62
     3
  6
CONTINUOUS
  0
LAYER
  2
2
 70
     0
 62
     2
  6
HIDDEN
  0
ENDTAB
  0
TABLE
  2
STYLE
 70
     3
  0
STYLE
  2
STANDARD
 70
     0
 40
0.0
 41
1.0
 50
0.0
 71
     0
 42
2.5
  3
txt
  4

  0
STYLE
  2
ANNOTATIVE
 70
     0
 40
0.0
 41
1.0
 50
0.0
 71
     0
 42
0.2
  3
txt
  4

  0
STYLE
  2
STANDARD1
 70
     0
 40
0.0
 41
1.0
 50
0.0
 71
     0
 42
3.0
  3
txt
  4

  0
ENDTAB
  0
TABLE
  2
VIEW
 70
     0
  0
ENDTAB
  0
TABLE
  2
UCS
 70
     0
  0
ENDTAB
  0
TABLE
  2
APPID
 70
   133
  0
APPID
  2
ACAD
 70
     0
  0
APPID
  2
ACADANNOTATIVE
 70
     0
  0
APPID
  2
_FTCNV
 70
     0
  0
APPID
  2
GENIUS_GENODEF_13
 70
     0
  0
APPID
  2
GENIUS_GENOENT_13
 70
     0
  0
APPID
  2
GENIUS_GENOBJ-N-CEN_13
 70
     0
  0
APPID
  2
GENIUS_GENOLIS_13
 70
     0
  0
APPID
  2
GENIUS_GENOREF_13
 70
     0
  0
APPID
  2
GENIUS_GENOBJ-N-CRS_13
 70
     0
  0
APPID
  2
GENIUS_GENOBJ-N-FIL_13
 70
     0
  0
APPID
  2
GENIUS_GENOBJ-N-REC_13
 70
     0
  0
APPID
  2
GENIUS_GENFIL_13
 70
     0
  0
APPID
  2
GENIUS_GENOBJ-N-CHA_13
 70
     0
  0
APPID
  2
ASM_BASE
 70
     0
  0
APPID
  2
_PHO
 70
     0
  0
APPID
  2
_CLP
 70
     0
  0
APPID
  2
MOJIGUMI_PARTS
 70
     0
  0
APPID
  2
_DBL
 70
     0
  0
APPID
  2
_PWH
 70
     0
  0
APPID
  2
_G9P
 70
     0
  0
APPID
  2
AME_SOL
 70
     0
  0
APPID
  2
HAKO_DEF
 70
     0
  0
APPID
  2
HAKO_TXT
 70
     0
  0
APPID
  2
HAKO_OVR
 70
     0
  0
APPID
  2
ASM_EXPLO_VER_2_00
 70
     0
  0
APPID
  2
ASM_CADM_VER_12_00
 70
     0
  0
APPID
  2
ASM_BASEFORO
 70
     0
  0
APPID
  2
ASM_BASETRAVI
 70
     0
  0
APPID
  2
ASM_BASETRAVI1
 70
     0
  0
APPID
  2
ASM_GRUPPI
 70
     0
  0
APPID
  2
ASM_CADM_ALBERO
 70
     0
  0
APPID
  2
ASM_GOLE
 70
     0
  0
APPID
  2
GENIUS_GENCFG_13
 70
     0
  0
APPID
  2
GENIUS_GENCFG0_13
 70
     0
  0
APPID
  2
GENIUS_GENCFG1_13
 70
     0
  0
APPID
  2
GENIUS_GENCFG2_13
 70
     0
  0
APPID
  2
GENIUS_GENCFG3_13
 70
     0
  0
APPID
  2
GENIUS_GENCFG4_13
 70
     0
  0
APPID
  2
GENIUS_GEVCFG0_13
 70
     0
  0
APPID
  2
GENIUS_GENHATCH_13
 70
     0
  0
APPID
  2
GENIUS_GEFCFG0_13
 70
     0
  0
APPID
  2
GENIUS_GENOBJ-N-HTC_13
 70
     0
  0
APPID
  2
DCO15
 70
     0
  0
APPID
  2
AVE_RENDER
 70
     0
  0
APPID
  2
AVE_ENTITY_MATERIAL
 70
     0
  0
APPID
  2
AVE_FINISH
 70
     0
  0
APPID
  2
AVE_MATERIAL
 70
     0
  0
APPID
  2
AVE_GLOBAL
 70
     0
  0
APPID
  2
_NUM
 70
     0
  0
APPID
  2
HAKO_FNM
 70
     0
  0
APPID
  2
_CALL_MAC$
 70
     0
  0
APPID
  2
ACA_CADIMENU
 70
     0
  0
APPID
  2
AUTOCAD_POSTSCRIPT_FIGURE
 70
     0
  0
APPID
  2
GEV_VCCNULL_SWITCH_OFF
 70
     0
  0
APPID
  2
GENIUS_GENDTOL_13
 70
     0
  0
APPID
  2
GENIUS_GEFWELD_13
 70
     0
  0
APPID
  2
GENIUS_GENOBJ-F-WELS_13
 70
     0
  0
APPID
  2
GEVID961514679
 70
     0
  0
APPID
  2
GEVDC
 70
     0
  0
APPID
  2
GEVPT
 70
     0
  0
APPID
  2
GEVIT
 70
     0
  0
APPID
  2
VCC
 70
     0
  0
APPID
  2
GENBH
 70
     0
  0
APPID
  2
GEVMK
 70
     0
  0
APPID
  2
GENIUS_GENBH_13
 70
     0
  0
APPID
  2
GENIUS_GENOBJ-NBEHI-BHF_13
 70
     0
  0
APPID
  2
GENIUS_GENOBJ-NBEHI-BHB_13
 70
     0
  0
APPID
  2
GENIUS_GENOBJ-F-DESC_13
 70
     0
  0
APPID
  2
GENIUS_GEFDESC_14
 70
     0
  0
APPID
  2
GENIUS_GENOBJ-F-PART_13
 70
     0
  0
APPID
  2
GENIUS_GEFSTDP_13
 70
     0
  0
APPID
  2
GENIUS_GEFPARTINS_13
 70
     0
  0
APPID
  2
GEVID961514680
 70
     0
  0
APPID
  2
GENIUS_GENTRA_14
 70
     0
  0
APPID
  2
GENIUS_GENINF13_13
 70
     0
  0
APPID
  2
GENIUS_GENOBJ-N-INFOPT_13
 70
     0
  0
APPID
  2
GENIUS_GENOBJ-N-RSSYM_13
 70
     0
  0
APPID
  2
GENIUS_GENSYMENT_13
 70
     0
  0
APPID
  2
GENIUS_GENSCSYM_13
 70
     0
  0
APPID
  2
GENIUS_GEFINFNAM_13
 70
     0
  0
APPID
  2
GENIUS_GENREC_14
 70
     0
  0
APPID
  2
GEVID962097543
 70
     0
  0
APPID
  2
GEVID962097544
 70
     0
  0
APPID
  2
GEVID962097545
 70
     0
  0
APPID
  2
GENIUS_DUMCFG0_13
 70
     0
  0
APPID
  2
GEVID962352965
 70
     0
  0
APPID
  2
GEVID962352966
 70
     0
  0
APPID
  2
GEVID962352968
 70
     0
  0
APPID
  2
GEVRADREF
 70
     0
  0
APPID
  2
GEVID963230099
 70
     0
  0
APPID
  2
GENIUS_GENOBJ-F-FEAT_13
 70
     0
  0
APPID
  2
GENIUS_GEFFEAT_14
 70
     0
  0
APPID
  2
GEVID963230100
 70
     0
  0
APPID
  2
GEVID963230101
 70
     0
  0
APPID
  2
GENIUS_GENHINW_13
 70
     0
  0
APPID
  2
GENIUS_FIRSTVISTXT_14
 70
     0
  0
APPID
  2
GENIUS_GENOBJ-N-LEADER_13
 70
     0
  0
APPID
  2
GEVID971698136
 70
     0
  0
APPID
  2
GEVID972029070
 70
     0
  0
APPID
  2
MCAD_NO_VIS
 70
     0
  0
APPID
  2
ACAD_TEMP_GRAPHIC
 70
     0
  0
APPID
  2
ACATTRIBSERVICES
 70
     0
  0
APPID
  2
GENIUS_GENDIMSH_14
 70
     0
  0
APPID
  2
CONTENTTABDATA
 70
     0
  0
APPID
  2
CONTENTCURRENTTAB
 70
     0
  0
APPID
  2
GENIUS_GENBLKED_14
 70
     0
  0
APPID
  2
GENIUS_GENOBJ_13
 70
     0
  0
APPID
  2
GENIUS_GENOBJ-N-TIT_13
 70
     0
  0
APPID
  2
GENIUS_GENTITLE_13
 70
     0
  0
APPID
  2
GENIUS_GENZVEED_13
 70
     0
  0
APPID
  2
GENIUS_GEFINERT_13
 70
     0
  0
APPID
  2
GENIUS_GENOBJ-F-INER_13
 70
     0
  0
APPID
  2
GENIUS_GENOBJ-N-ZOO_13
 70
     0
  0
APPID
  2
GENIUS_GENZOO_13
 70
     0
  0
APPID
  2
GENIUS_GENOBJ-F-TOL_13
 70
     0
  0
APPID
  2
GENIUS_GENOBJ-N-REV_13
 70
     0
  0
APPID
  2
GENIUS_GENREC_13
 70
     0
  0
APPID
  2
_KTH
 70
     0
  0
APPID
  2
GENIUS_GENOBJ-N-SEC_13
 70
     0
  0
APPID
  2
ACAD_EXEMPT_FROM_CAD_STANDARDS
 70
     0
  0
APPID
  2
ACAD_MLEADERVER
 70
     0
  0
APPID
  2
ACAD_NAV_VCDISPLAY
 70
     0
  0
APPID
  2
ACAD_PSEXT
 70
     0
  0
APPID
  2
ACAD_DSTYLE_DIMJAG
 70
     0
  0
APPID
  2
ACAD_DSTYLE_DIMTALN
 70
     0
  0
APPID
  2
ACAD_DSTYLE_DIMBREAK
 70
     0
  0
APPID
  2
ACAECLAYERSTANDARD
 70
     0
  0
APPID
  2
ACCMTRANSPARENCY
 70
     0
  0
APPID
  2
ACAD_DSTYLE_DIM_LINETYPE
 70
     0
  0
APPID
  2
GRADIENTCOLOR1ACI
 70
     0
  0
APPID
  2
GRADIENTCOLOR2ACI
 70
     0
  0
APPID
  2
ACAD_DSTYLE_DIMRADIAL_EXTENSION
 70
     0
  0
APPID
  2
ACAD_TC
 70
     0
  0
ENDTAB
  0
TABLE
  2
DIMSTYLE
 70
     3
  0
DIMSTYLE
  2
STANDARD
 70
     0
  3

  4

  5

  6

  7

 40
1.0
 41
0.18
 42
0.0625
 43
0.38
 44
0.18
 45
0.0
 46
0.0
 47
0.0
 48
0.0
140
0.18
141
0.09
142
0.0
143
25.3999999999999986
144
1.0
145
0.0
146
1.0
147
0.09
 71
     0
 72
     0
 73
     1
 74
     1
 75
     0
 76
     0
 77
     0
 78
     0
170
     0
171
     2
172
     0
173
     0
174
     0
175
     0
176
     0
177
     0
178
     0
  0
DIMSTYLE
  2
ANNOTATIVE
 70
     0
  3

  4

  5

  6

  7

 40
1.0
 41
0.18
 42
0.0625
 43
0.38
 44
0.18
 45
0.0
 46
0.0
 47
0.0
 48
0.0
140
0.18
141
0.09
142
0.0
143
25.3999999999999986
144
1.0
145
0.0
146
1.0
147
0.09
 71
     0
 72
     0
 73
     1
 74
     1
 75
     0
 76
     0
 77
     0
 78
     0
170
     0
171
     2
172
     0
173
     0
174
     0
175
     0
176
     0
177
     0
178
     0
  0
DIMSTYLE
  2
ISO-25
 70
     0
  3

  4

  5

  6

  7

 40
1.0
 41
2.5
 42
0.625
 43
3.75
 44
1.25
 45
0.0
 46
0.0
 47
0.0
 48
0.0
140
2.5
141
2.5
142
0.0
143
0.03937007874016
144
1.0
145
0.0
146
1.0
147
0.625
 71
     0
 72
     0
 73
     0
 74
     0
 75
     0
 76
     0
 77
     1
 78
     8
170
     0
171
     3
172
     1
173
     0
174
     0
175
     0
176
     0
177
     0
178
     0
  0
ENDTAB
  0
ENDSEC
  0
SECTION
  2
BLOCKS
  0
BLOCK
  8
0
  2
$MODEL_SPACE
 70
     0
 10
0.0
 20
0.0
 30
0.0
  3
$MODEL_SPACE
  1

  0
ENDBLK
  5
18EEA
  8
0
  0
BLOCK
 67
     1
  8
0
  2
$PAPER_SPACE
 70
     0
 10
0.0
 20
0.0
 30
0.0
  3
$PAPER_SPACE
  1

  0
ENDBLK
  5
18EE6
 67
     1
  8
0
  0
ENDSEC
  0
SECTION
  2
ENTITIES
  0
TEXT
  5
1562C
  8
0
 62
     3
 10
0.0
 20
0.0000000000000568
 30
0.0
 40
10.0
  1
IMR-TA-FS
  7
STANDARD1
  0
LINE
  5
18559
  8
0
 10
122.5
 20
126.4999999999999005
 30
0.0
 11
124.0
 21
124.999999999999801
 31
0.0
  0
LINE
  5
1855A
  8
0
 10
176.0
 20
124.999999999999801
 30
0.0
 11
177.5
 21
126.4999999999999005
 31
0.0
  0
LINE
  5
1855B
  8
0
 10
155.499999999999801
 20
119.9999999999999005
 30
0.0
 11
155.499999999999801
 21
125.0
 31
0.0
  0
LINE
  5
1855C
  8
0
 10
152.499999999999801
 20
125.0
 30
0.0
 11
152.499999999999801
 21
119.9999999999999005
 31
0.0
  0
LINE
  5
1855D
  8
0
 10
170.0
 20
118.0000000000000995
 30
0.0
 11
170.0
 21
125.0
 31
0.0
  0
LINE
  5
1855E
  8
0
 10
165.0
 20
125.0
 30
0.0
 11
165.0
 21
118.0000000000000995
 31
0.0
  0
LINE
  5
1855F
  8
0
 10
135.0
 20
118.0000000000000995
 30
0.0
 11
135.0
 21
125.0
 31
0.0
  0
LINE
  5
18560
  8
0
 10
130.0
 20
125.0
 30
0.0
 11
130.0
 21
118.0000000000000995
 31
0.0
  0
CIRCLE
  5
18561
  8
0
 10
162.0
 20
130.25
 30
0.0
 40
2.0
  0
ARC
  5
18562
  8
0
 10
163.0
 20
130.25
 30
0.0
 40
3.9000000000000892
 50
270.0
 51
90.0
  0
LINE
  5
18563
  8
0
 10
163.0
 20
126.3499999999999943
 30
0.0
 11
161.0
 21
126.3499999999999943
 31
0.0
  0
ARC
  5
18564
  8
0
 10
161.0
 20
130.25
 30
0.0
 40
3.9000000000000892
 50
90.0
 51
270.0
  0
LINE
  5
18565
  8
0
 10
161.0
 20
134.1500000000000909
 30
0.0
 11
163.0
 21
134.1500000000000909
 31
0.0
  0
CIRCLE
  5
18566
  8
0
 10
138.0
 20
130.25
 30
0.0
 40
2.0
  0
ARC
  5
18567
  8
0
 10
137.0
 20
130.25
 30
0.0
 40
3.9000000000002042
 50
90.0
 51
270.0
  0
LINE
  5
18568
  8
0
 10
137.0
 20
134.1500000000002046
 30
0.0
 11
139.0
 21
134.1500000000000909
 31
0.0
  0
ARC
  5
18569
  8
0
 10
139.0
 20
130.25
 30
0.0
 40
3.9000000000000892
 50
270.0
 51
90.0
  0
LINE
  5
1856A
  8
0
 10
139.0
 20
126.3499999999999943
 30
0.0
 11
137.0
 21
126.3499999999999943
 31
0.0
  0
ARC
  5
1856B
  8
0
 10
162.0
 20
130.25
 30
0.0
 40
3.9999999999999831
 50
257.1614318590188759
 51
282.8385681409876042
  0
ARC
  5
1856C
  8
0
 10
162.0
 20
130.25
 30
0.0
 40
4.0000000000000417
 50
77.1614318590188901
 51
102.8385681409810957
  0
ARC
  5
1856D
  8
0
 10
138.0
 20
130.25
 30
0.0
 40
3.9999999999999831
 50
257.1614318590188759
 51
282.8385681409876042
  0
ARC
  5
1856E
  8
0
 10
138.0
 20
130.25
 30
0.0
 40
4.000000000000127
 50
77.1614318590188901
 51
102.8385681409810957
  0
LINE
  5
1857A
  8
0
 10
120.0
 20
126.5
 30
0.0
 11
180.0
 21
126.5
 31
0.0
  0
LINE
  5
1858A
  8
0
 10
120.0
 20
136.999999999999801
 30
0.0
 11
120.0
 21
126.5
 31
0.0
  0
LINE
  5
1858B
  8
0
 10
180.0
 20
126.5
 30
0.0
 11
180.0
 21
136.999999999999801
 31
0.0
  0
LINE
  5
1858F
  8
0
 10
124.0
 20
124.999999999999801
 30
0.0
 11
176.0
 21
124.999999999999801
 31
0.0
  0
LINE
  5
18590
  8
0
 10
155.499999999999801
 20
119.9999999999999005
 30
0.0
 11
152.499999999999801
 21
119.9999999999999005
 31
0.0
  0
LINE
  5
18591
  8
0
 10
167.499999999999801
 20
118.0000000000000995
 30
0.0
 11
170.0
 21
118.0000000000000995
 31
0.0
  0
LINE
  5
18592
  8
0
 10
165.0
 20
118.0000000000000995
 30
0.0
 11
167.499999999999801
 21
118.0000000000000995
 31
0.0
  0
LINE
  5
18593
  8
0
 10
132.5
 20
118.0000000000000995
 30
0.0
 11
135.0
 21
118.0000000000000995
 31
0.0
  0
LINE
  5
18594
  8
0
 10
130.0
 20
118.0000000000000995
 30
0.0
 11
132.5
 21
118.0000000000000995
 31
0.0
  0
CIRCLE
  5
18595
  8
0
 10
138.0
 20
130.25
 30
0.0
 40
2.600000000000021
  0
CIRCLE
  5
18596
  8
0
 10
162.0
 20
130.25
 30
0.0
 40
2.600000000000021
  0
CIRCLE
  5
18597
  8
0
 10
138.0
 20
130.25
 30
0.0
 40
3.8000000000131422
  0
CIRCLE
  5
18598
  8
0
 10
162.0
 20
130.25
 30
0.0
 40
3.8000000000140499
  0
ARC
  5
18599
  8
0
 10
162.0
 20
130.25
 30
0.0
 40
4.0
 50
282.8385681409876042
 51
0.0
  0
ARC
  5
1859A
  8
0
 10
162.0
 20
130.25
 30
0.0
 40
4.0000000000000417
 50
102.8385681409810957
 51
257.1614318590188759
  0
ARC
  5
1859B
  8
0
 10
162.0
 20
130.25
 30
0.0
 40
4.0000000000000169
 50
0.0
 51
77.1614318590188901
  0
ARC
  5
1859C
  8
0
 10
138.0
 20
130.25
 30
0.0
 40
4.0
 50
282.8385681409876042
 51
0.0
  0
ARC
  5
1859D
  8
0
 10
138.0
 20
130.25
 30
0.0
 40
4.000000000000127
 50
102.8385681409810957
 51
257.1614318590188759
  0
ARC
  5
1859E
  8
0
 10
138.0
 20
130.25
 30
0.0
 40
4.000000000000127
 50
0.0
 51
77.1614318590188901
  0
CIRCLE
  5
1859F
  8
0
 10
138.0
 20
130.25
 30
0.0
 40
3.8999999999999759
  0
CIRCLE
  5
185A0
  8
0
 10
162.0
 20
130.25
 30
0.0
 40
3.8999999999999759
  0
LINE
  5
185A1
  8
0
 10
159.9287857357186908
 20
126.5
 30
0.0
 11
160.9287857357184066
 21
126.5
 31
0.0
  0
LINE
  5
185A2
  8
2
 10
152.5000000000817977
 20
130.9999999999346869
 30
0.0
 11
155.4999999999180034
 21
130.9999999999346869
 31
0.0
  0
LINE
  5
185A3
  8
2
 10
152.6433726928534043
 20
129.9999999999583906
 30
0.0
 11
155.3566273071465957
 21
129.9999999999583906
 31
0.0
  0
LINE
  5
185A4
  8
2
 10
153.5
 20
126.0999999999998948
 30
0.0
 11
146.5
 21
126.0999999999998948
 31
0.0
  0
LINE
  5
185A5
  8
2
 10
151.75
 20
129.499999999999801
 30
0.0
 11
148.25
 21
129.499999999999801
 31
0.0
  0
LINE
  5
185A6
  8
2
 10
127.2499999999999005
 20
133.9999999999006093
 30
0.0
 11
137.75
 21
133.999999999999801
 31
0.0
  0
LINE
  5
185A7
  8
2
 10
127.500000000009905
 20
133.7499999999265015
 30
0.0
 11
137.4999999999899956
 21
133.7499999999265015
 31
0.0
  0
LINE
  5
185A8
  8
2
 10
162.4999999999957083
 20
133.7499999999834017
 30
0.0
 11
172.5000000000042917
 21
133.7499999999834017
 31
0.0
  0
LINE
  5
185A9
  8
2
 10
164.999999999971692
 20
131.1999999999414115
 30
0.0
 11
170.0
 21
131.1999999999414115
 31
0.0
  0
LINE
  5
185AA
  8
2
 10
129.9999999999716067
 20
131.2499999999018883
 30
0.0
 11
135.0
 21
131.2499999999018883
 31
0.0
  0
LINE
  5
185AB
  8
2
 10
174.0
 20
128.999999999999801
 30
0.0
 11
176.0
 21
128.999999999999801
 31
0.0
  0
LINE
  5
185AC
  8
2
 10
172.0
 20
128.999999999999801
 30
0.0
 11
174.0
 21
128.999999999999801
 31
0.0
  0
LINE
  5
185AD
  8
2
 10
126.0
 20
128.999999999999801
 30
0.0
 11
128.0
 21
128.999999999999801
 31
0.0
  0
LINE
  5
185AE
  8
2
 10
124.0
 20
128.999999999999801
 30
0.0
 11
126.0
 21
128.999999999999801
 31
0.0
  0
LINE
  5
185AF
  8
2
 10
124.7499999999058957
 20
128.5493545357408891
 30
0.0
 11
127.2499999999999005
 21
128.5493545357072946
 31
0.0
  0
LINE
  5
185B0
  8
2
 10
172.75
 20
128.5493545357072946
 30
0.0
 11
175.2500000000941043
 21
128.5493545357408891
 31
0.0
  0
LINE
  5
185B1
  8
2
 10
152.6433726928534043
 20
129.999999999999801
 30
0.0
 11
152.499999999999801
 21
129.999999999999801
 31
0.0
  0
LINE
  5
185B2
  8
2
 10
155.499999999999801
 20
129.999999999999801
 30
0.0
 11
155.3566273071465957
 21
129.999999999999801
 31
0.0
  0
LINE
  5
185B3
  8
0
 10
138.0
 20
131.6933756729737865
 30
0.0
 11
139.249999999999801
 21
130.9716878364866943
 31
0.0
  0
LINE
  5
185B4
  8
0
 10
162.0
 20
131.6933756729737865
 30
0.0
 11
163.25
 21
130.9716878364866943
 31
0.0
  0
LINE
  5
185B5
  8
0
 10
139.249999999999801
 20
130.9716878364866943
 30
0.0
 11
139.249999999999801
 21
129.5283121635127088
 31
0.0
  0
LINE
  5
185B6
  8
0
 10
136.75
 20
129.5283121635127088
 30
0.0
 11
136.75
 21
130.9716878364866943
 31
0.0
  0
LINE
  5
185B7
  8
0
 10
138.0
 20
128.8066243270255882
 30
0.0
 11
136.75
 21
129.5283121635127088
 31
0.0
  0
LINE
  5
185B8
  8
0
 10
138.0
 20
131.6933756729737865
 30
0.0
 11
136.75
 21
130.9716878364866943
 31
0.0
  0
LINE
  5
185B9
  8
0
 10
138.0
 20
128.8066243270255882
 30
0.0
 11
139.249999999999801
 21
129.5283121635127088
 31
0.0
  0
LINE
  5
185BA
  8
0
 10
162.0
 20
131.6933756729737865
 30
0.0
 11
160.75
 21
130.9716878364866943
 31
0.0
  0
LINE
  5
185BB
  8
0
 10
163.25
 20
130.9716878364866943
 30
0.0
 11
163.25
 21
129.5283121635127088
 31
0.0
  0
LINE
  5
185BC
  8
0
 10
160.75
 20
129.5283121635127088
 30
0.0
 11
160.75
 21
130.9716878364866943
 31
0.0
  0
LINE
  5
185BD
  8
0
 10
162.0
 20
128.8066243270255882
 30
0.0
 11
163.25
 21
129.5283121635127088
 31
0.0
  0
LINE
  5
185BE
  8
0
 10
162.0
 20
128.8066243270255882
 30
0.0
 11
160.75
 21
129.5283121635127088
 31
0.0
  0
CIRCLE
  5
185BF
  8
0
 10
138.0
 20
130.2499999999996874
 30
0.0
 40
3.600000000000021
  0
CIRCLE
  5
185C0
  8
0
 10
162.0
 20
130.2499999999996874
 30
0.0
 40
3.600000000000021
  0
LINE
  5
185C1
  8
0
 10
176.75
 20
126.5
 30
0.0
 11
176.75
 21
136.999999999999801
 31
0.0
  0
LINE
  5
185C2
  8
0
 10
171.25
 20
136.999999999999801
 30
0.0
 11
171.25
 21
126.5
 31
0.0
  0
LINE
  5
185C3
  8
0
 10
128.75
 20
126.5
 30
0.0
 11
128.75
 21
136.999999999999801
 31
0.0
  0
LINE
  5
185C4
  8
0
 10
123.2499999999999005
 20
136.999999999999801
 30
0.0
 11
123.2499999999999005
 21
126.5
 31
0.0
  0
LINE
  5
185C5
  8
0
 10
165.499999999999801
 20
136.999999999999801
 30
0.0
 11
165.499999999999801
 21
126.5
 31
0.0
  0
LINE
  5
185C6
  8
0
 10
170.499999999999801
 20
126.5
 30
0.0
 11
170.499999999999801
 21
136.999999999999801
 31
0.0
  0
LINE
  5
185C7
  8
0
 10
129.5
 20
136.999999999999801
 30
0.0
 11
129.5
 21
126.5
 31
0.0
  0
LINE
  5
185C8
  8
0
 10
134.5
 20
126.5
 30
0.0
 11
134.5
 21
136.999999999999801
 31
0.0
  0
LINE
  5
185C9
  8
2
 10
155.499999999999801
 20
125.0
 30
0.0
 11
155.499999999999801
 21
130.9999999999346869
 31
0.0
  0
LINE
  5
185CA
  8
2
 10
152.499999999999801
 20
130.9999999999346869
 30
0.0
 11
152.499999999999801
 21
125.0
 31
0.0
  0
LINE
  5
185CB
  8
2
 10
153.5
 20
125.0
 30
0.0
 11
153.5
 21
126.0999999999998948
 31
0.0
  0
LINE
  5
185CC
  8
2
 10
146.5
 20
126.0999999999998948
 30
0.0
 11
146.5
 21
125.0
 31
0.0
  0
ARC
  5
185CD
  8
2
 10
147.1499999999998067
 20
125.5499999999997982
 30
0.0
 40
0.5500000000000114
 50
90.0
 51
270.0
  0
ARC
  5
185CE
  8
2
 10
152.8499999999999943
 20
125.5499999999997982
 30
0.0
 40
0.5500000000000114
 50
270.0
 51
90.0
  0
ARC
  5
185CF
  8
2
 10
147.75
 20
125.5499999999997982
 30
0.0
 40
0.5500000000000114
 50
270.0
 51
90.0
  0
ARC
  5
185D0
  8
2
 10
152.25
 20
125.5499999999997982
 30
0.0
 40
0.5500000000000114
 50
90.0
 51
270.0
  0
LINE
  5
185D1
  8
2
 10
151.75
 20
126.0999999999998948
 30
0.0
 11
151.75
 21
129.499999999999801
 31
0.0
  0
LINE
  5
185D2
  8
2
 10
148.25
 20
129.499999999999801
 30
0.0
 11
148.25
 21
126.0999999999998948
 31
0.0
  0
LINE
  5
185D3
  8
2
 10
127.2499999999999005
 20
136.999999999999801
 30
0.0
 11
127.2499999999999005
 21
133.999999999999801
 31
0.0
  0
LINE
  5
185D4
  8
2
 10
137.75
 20
133.999999999999801
 30
0.0
 11
137.75
 21
136.999999999999801
 31
0.0
  0
LINE
  5
185D5
  8
2
 10
127.2499999999999005
 20
133.9999999999006093
 30
0.0
 11
130.0
 21
131.2499999999016893
 31
0.0
  0
LINE
  5
185D6
  8
2
 10
135.0
 20
131.2499999999018883
 30
0.0
 11
137.75
 21
133.9999999999006093
 31
0.0
  0
LINE
  5
185D7
  8
2
 10
162.25
 20
136.999999999999801
 30
0.0
 11
162.25
 21
133.999999999999801
 31
0.0
  0
LINE
  5
185D8
  8
2
 10
172.75
 20
133.999999999999801
 30
0.0
 11
172.75
 21
136.999999999999801
 31
0.0
  0
LINE
  5
185D9
  8
2
 10
162.25
 20
133.9999999999575095
 30
0.0
 11
165.0
 21
131.2499999999575095
 31
0.0
  0
LINE
  5
185DA
  8
2
 10
170.0
 20
131.2499999999575095
 30
0.0
 11
172.75
 21
133.9999999999575095
 31
0.0
  0
LINE
  5
185DB
  8
2
 10
172.499999999999801
 20
133.7499999999550084
 30
0.0
 11
172.499999999999801
 21
134.0
 31
0.0
  0
LINE
  5
185DC
  8
2
 10
162.499999999999801
 20
134.0
 30
0.0
 11
162.499999999999801
 21
133.7499999999550084
 31
0.0
  0
LINE
  5
185DD
  8
2
 10
137.5
 20
133.7499999998981082
 30
0.0
 11
137.5
 21
134.0
 31
0.0
  0
LINE
  5
185DE
  8
2
 10
127.5
 20
134.0
 30
0.0
 11
127.5
 21
133.7499999998981082
 31
0.0
  0
LINE
  5
185DF
  8
2
 10
129.75
 20
131.4500000000001023
 30
0.0
 11
129.75
 21
125.0
 31
0.0
  0
LINE
  5
185E0
  8
2
 10
135.249999999999801
 20
125.0
 30
0.0
 11
135.249999999999801
 21
131.4500000000001023
 31
0.0
  0
LINE
  5
185E1
  8
2
 10
164.75
 20
131.4500000000001023
 30
0.0
 11
164.75
 21
125.0
 31
0.0
  0
LINE
  5
185E2
  8
2
 10
170.25
 20
125.0
 30
0.0
 11
170.25
 21
131.4500000000001023
 31
0.0
  0
LINE
  5
185E3
  8
2
 10
170.0
 20
125.0
 30
0.0
 11
170.0
 21
131.2499999999575095
 31
0.0
  0
LINE
  5
185E4
  8
2
 10
165.0
 20
131.2499999999575095
 30
0.0
 11
165.0
 21
125.0
 31
0.0
  0
LINE
  5
185E5
  8
2
 10
135.0
 20
125.0
 30
0.0
 11
135.0
 21
131.2499999999018883
 31
0.0
  0
LINE
  5
185E6
  8
2
 10
130.0
 20
131.2499999999016893
 30
0.0
 11
130.0
 21
125.0
 31
0.0
  0
LINE
  5
185E7
  8
2
 10
172.0
 20
136.999999999999801
 30
0.0
 11
172.0
 21
128.999999999999801
 31
0.0
  0
LINE
  5
185E8
  8
2
 10
176.0
 20
128.999999999999801
 30
0.0
 11
176.0
 21
136.999999999999801
 31
0.0
  0
LINE
  5
185E9
  8
2
 10
124.0
 20
128.9999999999475051
 30
0.0
 11
124.7499999999058957
 21
128.5493545357639107
 31
0.0
  0
LINE
  5
185EA
  8
2
 10
127.2500000000940048
 20
128.5493545357639107
 30
0.0
 11
128.0
 21
128.9999999999475051
 31
0.0
  0
LINE
  5
185EB
  8
2
 10
124.0
 20
136.999999999999801
 30
0.0
 11
124.0
 21
128.999999999999801
 31
0.0
  0
LINE
  5
185EC
  8
2
 10
128.0
 20
128.999999999999801
 30
0.0
 11
128.0
 21
136.999999999999801
 31
0.0
  0
LINE
  5
185ED
  8
2
 10
172.0
 20
128.9999999999475051
 30
0.0
 11
172.7499999999058957
 21
128.5493545357639107
 31
0.0
  0
LINE
  5
185EE
  8
2
 10
175.2500000000941043
 20
128.5493545357639107
 30
0.0
 11
176.0
 21
128.9999999999475051
 31
0.0
  0
LINE
  5
185EF
  8
2
 10
172.75
 20
128.5493545357408891
 30
0.0
 11
172.75
 21
124.999999999999801
 31
0.0
  0
LINE
  5
185F0
  8
2
 10
175.25
 20
124.999999999999801
 30
0.0
 11
175.25
 21
128.5493545357408891
 31
0.0
  0
LINE
  5
185F1
  8
2
 10
124.75
 20
128.5493545357408891
 30
0.0
 11
124.75
 21
124.999999999999801
 31
0.0
  0
LINE
  5
185F2
  8
2
 10
127.2499999999999005
 20
124.999999999999801
 30
0.0
 11
127.2499999999999005
 21
128.5493545357408891
 31
0.0
  0
LINE
  5
185F3
  8
0
 10
222.5
 20
126.5
 30
0.0
 11
224.0
 21
124.9999999999999005
 31
0.0
  0
LINE
  5
185F4
  8
0
 10
276.0
 20
124.999999999999801
 30
0.0
 11
277.5
 21
126.499999999999801
 31
0.0
  0
LINE
  5
185F5
  8
0
 10
243.7500000000001137
 20
118.0000000000000995
 30
0.0
 11
243.75
 21
124.9999999999999005
 31
0.0
  0
LINE
  5
185F6
  8
0
 10
238.7500000000001137
 20
124.9999999999999005
 30
0.0
 11
238.7500000000001137
 21
118.0000000000000995
 31
0.0
  0
LINE
  5
185F7
  8
0
 10
261.2500000000002842
 20
118.000000000000199
 30
0.0
 11
261.2500000000002842
 21
124.999999999999801
 31
0.0
  0
LINE
  5
185F8
  8
0
 10
256.2500000000002842
 20
124.999999999999801
 30
0.0
 11
256.2500000000002842
 21
118.000000000000199
 31
0.0
  0
LINE
  5
185F9
  8
0
 10
219.3000000000222087
 20
126.2499999998971987
 30
0.0
 11
219.4999999999990905
 21
126.4499999999306965
 31
0.0
  0
LINE
  5
185FA
  8
0
 10
219.4999999999992042
 20
134.0500000000693035
 30
0.0
 11
219.3000000000224929
 21
134.2500000001028866
 31
0.0
  0
LINE
  5
185FB
  8
0
 10
219.3000000000224929
 20
134.25
 30
0.0
 11
209.7381197846437999
 21
134.25
 31
0.0
  0
LINE
  5
185FC
  8
0
 10
209.7381197846437999
 20
126.25
 30
0.0
 11
219.3000000000222087
 21
126.25
 31
0.0
  0
LINE
  5
185FD
  8
0
 10
280.8333333333335986
 20
126.249999999999801
 30
0.0
 11
282.5
 21
126.249999999999801
 31
0.0
  0
LINE
  5
185FE
  8
0
 10
282.5
 20
134.2499999999996021
 30
0.0
 11
280.8333333333335986
 21
134.249999999999801
 31
0.0
  0
LINE
  5
185FF
  8
0
 10
280.0
 20
126.249999999999801
 30
0.0
 11
280.6833333333336782
 21
126.249999999999801
 31
0.0
  0
LINE
  5
18600
  8
0
 10
280.6833333333336782
 20
134.249999999999801
 30
0.0
 11
280.0
 21
134.249999999999801
 31
0.0
  0
LINE
  5
18601
  8
0
 10
209.738119784611996
 20
134.25
 30
0.0
 11
209.6999999998502062
 21
134.1839745960392065
 31
0.0
  0
LINE
  5
18602
  8
0
 10
209.6999999998502062
 20
126.3160254039607935
 30
0.0
 11
209.738119784611996
 21
126.25
 31
0.0
  0
LINE
  5
18603
  8
0
 10
209.6999999998743078
 20
134.1839745962361121
 30
0.0
 11
209.1999999999430031
 21
134.0500000000139948
 31
0.0
  0
LINE
  5
18604
  8
0
 10
209.1999999999428042
 20
126.4499999999860052
 30
0.0
 11
209.6999999998741941
 21
126.3160254037639021
 31
0.0
  0
LINE
  5
18605
  8
0
 10
220.0
 20
134.1500000000000909
 30
0.0
 11
219.5
 21
134.1500000000000909
 31
0.0
  0
LINE
  5
18606
  8
0
 10
219.499999999999801
 20
126.3499999999999943
 30
0.0
 11
220.0
 21
126.3499999999999943
 31
0.0
  0
LINE
  5
18607
  8
0
 10
280.6833333333336782
 20
126.649999999999693
 30
0.0
 11
280.8333333333335986
 21
126.649999999999693
 31
0.0
  0
LINE
  5
18608
  8
0
 10
280.8333333333335986
 20
133.8499999999997101
 30
0.0
 11
280.6833333333336782
 21
133.8499999999997101
 31
0.0
  0
LINE
  5
18609
  8
0
 10
208.5999999999999943
 20
127.6500000000000057
 30
0.0
 11
209.1999999999999886
 21
127.6500000000000057
 31
0.0
  0
LINE
  5
1860A
  8
0
 10
209.1999999999999886
 20
132.8499999999999943
 30
0.0
 11
208.5999999999999943
 21
132.8499999999999943
 31
0.0
  0
LINE
  5
1860B
  8
0
 10
273.9999999999998863
 20
119.999999999999801
 30
0.0
 11
274.0
 21
124.9999999999999005
 31
0.0
  0
LINE
  5
1860C
  8
0
 10
271.0
 20
124.9999999999999005
 30
0.0
 11
270.9999999999998863
 21
119.999999999999801
 31
0.0
  0
LINE
  5
1860D
  8
0
 10
229.0
 20
119.9999999999999005
 30
0.0
 11
229.0
 21
124.9999999999999005
 31
0.0
  0
LINE
  5
1860E
  8
0
 10
226.0
 20
124.9999999999999005
 30
0.0
 11
226.0
 21
120.0
 31
0.0
  0
LINE
  5
1860F
  8
0
 10
280.0
 20
126.499999999999801
 30
0.0
 11
280.0
 21
136.999999999999801
 31
0.0
  0
LINE
  5
18610
  8
0
 10
220.0
 20
126.499999999999801
 30
0.0
 11
280.0
 21
126.499999999999801
 31
0.0
  0
LINE
  5
18611
  8
0
 10
220.0
 20
126.5
 30
0.0
 11
220.0
 21
136.999999999999801
 31
0.0
  0
LINE
  5
18612
  8
0
 10
224.0
 20
124.9999999999999005
 30
0.0
 11
276.0
 21
124.999999999999801
 31
0.0
  0
LINE
  5
18613
  8
0
 10
238.7500000000001137
 20
118.0000000000000995
 30
0.0
 11
243.7500000000001137
 21
118.0000000000000995
 31
0.0
  0
LINE
  5
18614
  8
0
 10
256.2500000000002842
 20
118.000000000000199
 30
0.0
 11
261.2500000000002842
 21
118.000000000000199
 31
0.0
  0
LINE
  5
18615
  8
0
 10
208.5999999999999943
 20
126.3499999999999943
 30
0.0
 11
207.4000000000000909
 21
126.3499999999999943
 31
0.0
  0
LINE
  5
18616
  8
0
 10
207.4000000000000909
 20
134.1500000000000909
 30
0.0
 11
207.4000000000000909
 21
126.3499999999999943
 31
0.0
  0
LINE
  5
18617
  8
0
 10
208.5999999999999943
 20
134.1500000000000909
 30
0.0
 11
207.4000000000000909
 21
134.1500000000000909
 31
0.0
  0
LINE
  5
18618
  8
0
 10
208.5999999999999943
 20
134.1500000000000909
 30
0.0
 11
208.5999999999999943
 21
126.3499999999999943
 31
0.0
  0
LINE
  5
18619
  8
0
 10
219.3000000000224929
 20
134.2500000001028866
 30
0.0
 11
219.3000000000222087
 21
126.2499999998971987
 31
0.0
  0
LINE
  5
1861A
  8
0
 10
209.7381197846437999
 20
130.25
 30
0.0
 11
209.7381197846437999
 21
126.25
 31
0.0
  0
LINE
  5
1861B
  8
0
 10
209.7381197846437999
 20
134.25
 30
0.0
 11
209.7381197846437999
 21
130.25
 31
0.0
  0
LINE
  5
1861C
  8
0
 10
282.5
 20
126.249999999999801
 30
0.0
 11
282.5
 21
134.2499999999996021
 31
0.0
  0
LINE
  5
1861D
  8
0
 10
280.8333333333335986
 20
134.2499999999996021
 30
0.0
 11
280.8333333333335986
 21
126.249999999999801
 31
0.0
  0
LINE
  5
1861E
  8
0
 10
280.6833333333336782
 20
126.249999999999801
 30
0.0
 11
280.6833333333336782
 21
134.2499999999996021
 31
0.0
  0
LINE
  5
1861F
  8
0
 10
280.0
 20
126.499999999999801
 30
0.0
 11
280.0
 21
126.2499999999997016
 31
0.0
  0
LINE
  5
18620
  8
0
 10
209.6999999998743078
 20
130.25
 30
0.0
 11
209.6999999998741941
 21
126.3160254039607935
 31
0.0
  0
LINE
  5
18621
  8
0
 10
209.6999999998743078
 20
134.1839745960392065
 30
0.0
 11
209.6999999998743078
 21
130.25
 31
0.0
  0
LINE
  5
18622
  8
0
 10
209.1999999999428042
 20
130.25
 30
0.0
 11
209.1999999999428042
 21
126.4499999999860052
 31
0.0
  0
LINE
  5
18623
  8
0
 10
209.1999999999430031
 20
134.0500000000139948
 30
0.0
 11
209.1999999999428042
 21
130.25
 31
0.0
  0
LINE
  5
18624
  8
0
 10
219.5
 20
130.25
 30
0.0
 11
219.499999999999801
 21
126.3499999999999943
 31
0.0
  0
LINE
  5
18625
  8
0
 10
219.5
 20
134.1500000000000909
 30
0.0
 11
219.5
 21
130.25
 31
0.0
  0
LINE
  5
18626
  8
0
 10
220.0
 20
126.3499999999999943
 30
0.0
 11
220.0
 21
126.5
 31
0.0
  0
LINE
  5
18627
  8
0
 10
274.0
 20
119.999999999999801
 30
0.0
 11
271.0
 21
119.999999999999801
 31
0.0
  0
LINE
  5
18628
  8
0
 10
229.0
 20
119.9999999999999005
 30
0.0
 11
226.0
 21
120.0
 31
0.0
  0
LINE
  5
18629
  8
0
 10
22.4999999999998899
 20
126.4999999999999005
 30
0.0
 11
23.9999999999998899
 21
125.0
 31
0.0
  0
LINE
  5
1862A
  8
0
 10
75.9999999999998721
 20
125.0000000000000995
 30
0.0
 11
77.4999999999998721
 21
126.500000000000199
 31
0.0
  0
LINE
  5
1862B
  8
0
 10
61.2499999999996518
 20
118.0000000000002984
 30
0.0
 11
61.2499999999996518
 21
125.0000000000000995
 31
0.0
  0
LINE
  5
1862C
  8
0
 10
56.2499999999996518
 20
125.0000000000000995
 30
0.0
 11
56.2499999999996518
 21
118.0000000000002984
 31
0.0
  0
LINE
  5
1862D
  8
0
 10
43.7499999999998792
 20
118.0000000000000995
 30
0.0
 11
43.7499999999998792
 21
125.0
 31
0.0
  0
LINE
  5
1862E
  8
0
 10
38.7499999999998934
 20
125.0
 30
0.0
 11
38.7499999999998934
 21
118.0000000000000995
 31
0.0
  0
LINE
  5
1862F
  8
0
 10
19.1666666666662806
 20
134.249999999999801
 30
0.0
 11
17.4999999999998792
 21
134.249999999999801
 31
0.0
  0
LINE
  5
18630
  8
0
 10
17.4999999999998792
 20
126.2499999999999005
 30
0.0
 11
19.1666666666662806
 21
126.2499999999999005
 31
0.0
  0
LINE
  5
18631
  8
0
 10
19.9999999999998792
 20
134.249999999999801
 30
0.0
 11
19.3166666666661513
 21
134.249999999999801
 31
0.0
  0
LINE
  5
18632
  8
0
 10
19.3166666666661513
 20
126.2499999999999005
 30
0.0
 11
19.9999999999998792
 21
126.2499999999999005
 31
0.0
  0
LINE
  5
18633
  8
0
 10
80.6999999999775355
 20
126.250000000000199
 30
0.0
 11
90.2618802153561859
 21
126.250000000000199
 31
0.0
  0
LINE
  5
18634
  8
0
 10
90.2618802153561859
 20
134.250000000000199
 30
0.0
 11
80.6999999999774218
 21
134.250000000000199
 31
0.0
  0
LINE
  5
18635
  8
0
 10
90.2618802153962037
 20
126.250000000000199
 30
0.0
 11
90.3000000000688345
 21
126.3160254038482009
 31
0.0
  0
LINE
  5
18636
  8
0
 10
90.3000000000687209
 20
134.1839745961520975
 30
0.0
 11
90.2618802153960758
 21
134.250000000000199
 31
0.0
  0
LINE
  5
18637
  8
0
 10
80.6999999999774218
 20
134.2499999999901092
 30
0.0
 11
80.5000000001135589
 21
134.0500000000695024
 31
0.0
  0
LINE
  5
18638
  8
0
 10
80.5000000001135589
 20
126.449999999930796
 30
0.0
 11
80.6999999999775355
 21
126.2500000000102034
 31
0.0
  0
LINE
  5
18639
  8
0
 10
90.3000000000687209
 20
126.3160254037779993
 30
0.0
 11
90.8000000000570253
 21
126.4499999999870994
 31
0.0
  0
LINE
  5
1863A
  8
0
 10
90.8000000000569543
 20
134.0500000000133127
 30
0.0
 11
90.3000000000687209
 21
134.1839745962221002
 31
0.0
  0
LINE
  5
1863B
  8
0
 10
79.9999999999998721
 20
126.3500000000001933
 30
0.0
 11
80.5
 21
126.3500000000001933
 31
0.0
  0
LINE
  5
1863C
  8
0
 10
80.4999999999998863
 20
134.1500000000002046
 30
0.0
 11
79.9999999999998721
 21
134.1500000000002046
 31
0.0
  0
LINE
  5
1863D
  8
0
 10
19.3166666666661513
 20
133.8499999999997954
 30
0.0
 11
19.1666666666662806
 21
133.8499999999997954
 31
0.0
  0
LINE
  5
1863E
  8
0
 10
19.1666666666662806
 20
126.6499999999999062
 30
0.0
 11
19.3166666666661513
 21
126.6499999999999062
 31
0.0
  0
LINE
  5
1863F
  8
0
 10
91.3999999999998636
 20
132.8500000000001933
 30
0.0
 11
90.7999999999999545
 21
132.8500000000001933
 31
0.0
  0
LINE
  5
18640
  8
0
 10
90.7999999999999545
 20
127.6500000000001052
 30
0.0
 11
91.3999999999998636
 21
127.6500000000001052
 31
0.0
  0
LINE
  5
18641
  8
0
 10
29.0
 20
120.0
 30
0.0
 11
28.9999999999998899
 21
125.0000000000000995
 31
0.0
  0
LINE
  5
18642
  8
0
 10
25.9999999999998899
 20
125.0000000000000995
 30
0.0
 11
26.0
 21
119.9999999999999005
 31
0.0
  0
LINE
  5
18643
  8
0
 10
73.9999999999998721
 20
120.000000000000199
 30
0.0
 11
73.9999999999998721
 21
125.0000000000000995
 31
0.0
  0
LINE
  5
18644
  8
0
 10
70.9999999999998863
 20
125.0000000000000995
 30
0.0
 11
70.9999999999998863
 21
120.0000000000000995
 31
0.0
  0
LINE
  5
18645
  8
0
 10
19.9999999999998792
 20
137.0
 30
0.0
 11
19.9999999999998792
 21
126.2499999999999005
 31
0.0
  0
LINE
  5
18646
  8
0
 10
79.9999999999998721
 20
126.500000000000199
 30
0.0
 11
19.9999999999998792
 21
126.500000000000199
 31
0.0
  0
LINE
  5
18647
  8
0
 10
79.9999999999998721
 20
137.0
 30
0.0
 11
19.9999999999998792
 21
137.0
 31
0.0
  0
LINE
  5
18648
  8
0
 10
79.9999999999998721
 20
126.3500000000001933
 30
0.0
 11
79.9999999999998721
 21
137.0
 31
0.0
  0
LINE
  5
18649
  8
0
 10
23.9999999999998899
 20
125.0
 30
0.0
 11
75.9999999999998721
 21
125.0000000000000995
 31
0.0
  0
LINE
  5
1864A
  8
0
 10
56.2499999999996518
 20
118.0000000000002984
 30
0.0
 11
61.2499999999996518
 21
118.0000000000002984
 31
0.0
  0
LINE
  5
1864B
  8
0
 10
38.7499999999998934
 20
118.0000000000000995
 30
0.0
 11
43.7499999999998792
 21
118.0000000000000995
 31
0.0
  0
LINE
  5
1864C
  8
0
 10
92.5999999999998664
 20
126.3500000000001933
 30
0.0
 11
91.3999999999998636
 21
126.3500000000001933
 31
0.0
  0
LINE
  5
1864D
  8
0
 10
91.3999999999998636
 20
134.1500000000002046
 30
0.0
 11
92.5999999999998664
 21
134.1500000000002899
 31
0.0
  0
LINE
  5
1864E
  8
0
 10
92.5999999999998664
 20
126.3500000000001933
 30
0.0
 11
92.5999999999998664
 21
134.1500000000002899
 31
0.0
  0
LINE
  5
1864F
  8
0
 10
91.3999999999998636
 20
126.3500000000001933
 30
0.0
 11
91.3999999999998636
 21
134.1500000000002046
 31
0.0
  0
LINE
  5
18650
  8
0
 10
19.1666666666662806
 20
126.2499999999999005
 30
0.0
 11
19.1666666666662806
 21
134.249999999999801
 31
0.0
  0
LINE
  5
18651
  8
0
 10
17.4999999999998792
 20
134.249999999999801
 30
0.0
 11
17.4999999999998792
 21
126.2499999999999005
 31
0.0
  0
LINE
  5
18652
  8
0
 10
19.3166666666661513
 20
134.249999999999801
 30
0.0
 11
19.3166666666661513
 21
126.2499999999999005
 31
0.0
  0
LINE
  5
18653
  8
0
 10
80.6999999999875541
 20
126.250000000000199
 30
0.0
 11
80.6999999999774218
 21
134.2499999999901092
 31
0.0
  0
LINE
  5
18654
  8
0
 10
90.2618802153561859
 20
126.250000000000199
 30
0.0
 11
90.2618802153561859
 21
134.250000000000199
 31
0.0
  0
LINE
  5
18655
  8
0
 10
90.3000000000687209
 20
126.3160254038482009
 30
0.0
 11
90.3000000000687209
 21
134.1839745961520975
 31
0.0
  0
LINE
  5
18656
  8
0
 10
90.8000000000570253
 20
126.4499999999870994
 30
0.0
 11
90.8000000000569543
 21
134.0500000000133127
 31
0.0
  0
LINE
  5
18657
  8
0
 10
80.5
 20
126.3500000000001933
 30
0.0
 11
80.4999999999998863
 21
134.1500000000002046
 31
0.0
  0
LINE
  5
18658
  8
0
 10
28.9999999999998899
 20
120.0
 30
0.0
 11
25.9999999999998899
 21
119.9999999999999005
 31
0.0
  0
LINE
  5
18659
  8
0
 10
73.9999999999998721
 20
120.000000000000199
 30
0.0
 11
70.9999999999998863
 21
120.0000000000000995
 31
0.0
  0
LINE
  5
1865A
  8
0
 10
157.999999999999801
 20
169.3000000000216119
 30
0.0
 11
157.999999999999801
 21
159.7381197846428051
 31
0.0
  0
LINE
  5
1865B
  8
0
 10
165.999999999999801
 20
159.7381197846428051
 30
0.0
 11
165.999999999999801
 21
169.3000000000216119
 31
0.0
  0
LINE
  5
1865C
  8
0
 10
166.0000000001026024
 20
169.3000000000216119
 30
0.0
 11
165.8000000000691045
 21
169.4999999999982094
 31
0.0
  0
LINE
  5
1865D
  8
0
 10
158.1999999999306112
 20
169.4999999999982094
 30
0.0
 11
157.9999999998971134
 21
169.3000000000216119
 31
0.0
  0
LINE
  5
1865E
  8
0
 10
133.999999999999801
 20
169.3000000000216119
 30
0.0
 11
133.999999999999801
 21
159.7381197846428051
 31
0.0
  0
LINE
  5
1865F
  8
0
 10
141.999999999999801
 20
159.7381197846428051
 30
0.0
 11
141.999999999999801
 21
169.3000000000216119
 31
0.0
  0
LINE
  5
18660
  8
0
 10
133.999999999999801
 20
159.7381197846029011
 30
0.0
 11
134.0660254038479025
 21
159.6999999999302986
 31
0.0
  0
LINE
  5
18661
  8
0
 10
141.9339745961518133
 20
159.6999999999302133
 30
0.0
 11
141.999999999999801
 21
159.7381197846027874
 31
0.0
  0
LINE
  5
18662
  8
0
 10
157.999999999999801
 20
159.7381197846110013
 30
0.0
 11
158.0660254039607082
 21
159.6999999998494104
 31
0.0
  0
LINE
  5
18663
  8
0
 10
165.9339745960390076
 20
159.6999999998492967
 30
0.0
 11
165.999999999999801
 21
159.7381197846110013
 31
0.0
  0
LINE
  5
18664
  8
0
 10
141.999999999999801
 20
229.9999999999990905
 30
0.0
 11
141.999999999999801
 21
230.6833333333329108
 31
0.0
  0
LINE
  5
18665
  8
0
 10
133.999999999999801
 20
230.6833333333329108
 30
0.0
 11
133.999999999999801
 21
229.9999999999990905
 31
0.0
  0
LINE
  5
18666
  8
0
 10
165.999999999999801
 20
229.9999999999990905
 30
0.0
 11
165.999999999999801
 21
230.6833333333329108
 31
0.0
  0
LINE
  5
18667
  8
0
 10
157.999999999999801
 20
230.6833333333329108
 30
0.0
 11
157.999999999999801
 21
229.9999999999990905
 31
0.0
  0
LINE
  5
18668
  8
0
 10
165.999999999999801
 20
230.8333333333326891
 30
0.0
 11
165.999999999999801
 21
232.4999999999992042
 31
0.0
  0
LINE
  5
18669
  8
0
 10
157.999999999999801
 20
232.4999999999992042
 30
0.0
 11
157.999999999999801
 21
230.8333333333326891
 31
0.0
  0
LINE
  5
1866A
  8
0
 10
141.999999999999801
 20
230.8333333333326891
 30
0.0
 11
141.999999999999801
 21
232.4999999999992042
 31
0.0
  0
LINE
  5
1866B
  8
0
 10
133.999999999999801
 20
232.4999999999992042
 30
0.0
 11
133.999999999999801
 21
230.8333333333326891
 31
0.0
  0
LINE
  5
1866C
  8
0
 10
141.9999999999899103
 20
169.3000000000216119
 30
0.0
 11
141.8000000000691898
 21
169.4999999998854037
 31
0.0
  0
LINE
  5
1866D
  8
0
 10
134.1999999999304123
 20
169.4999999998854037
 30
0.0
 11
134.0000000000098908
 21
169.3000000000216119
 31
0.0
  0
LINE
  5
1866E
  8
0
 10
134.0660254037780135
 20
159.6999999999302986
 30
0.0
 11
134.1999999999866873
 21
159.1999999999420936
 31
0.0
  0
LINE
  5
1866F
  8
0
 10
141.8000000000130001
 20
159.1999999999420083
 30
0.0
 11
141.9339745962219013
 21
159.6999999999302986
 31
0.0
  0
LINE
  5
18670
  8
0
 10
158.0660254037636889
 20
159.6999999998733983
 30
0.0
 11
158.1999999999858062
 21
159.1999999999420936
 31
0.0
  0
LINE
  5
18671
  8
0
 10
165.8000000000139096
 20
159.1999999999420083
 30
0.0
 11
165.9339745962359984
 21
159.6999999998733983
 31
0.0
  0
LINE
  5
18672
  8
0
 10
133.0999999999997954
 20
158.5999999999991132
 30
0.0
 11
133.0999999999997954
 21
157.3999999999992099
 31
0.0
  0
LINE
  5
18673
  8
0
 10
157.0999999999999091
 20
158.5999999999991132
 30
0.0
 11
157.0999999999999091
 21
157.3999999999992099
 31
0.0
  0
LINE
  5
18674
  8
0
 10
142.8999999999998067
 20
157.3999999999990109
 30
0.0
 11
142.8999999999998067
 21
158.5999999999991132
 31
0.0
  0
LINE
  5
18675
  8
0
 10
166.8999999999998067
 20
157.3999999999990109
 30
0.0
 11
166.8999999999998067
 21
158.5999999999991132
 31
0.0
  0
LINE
  5
18676
  8
0
 10
158.0999999999999091
 20
169.9999999999990905
 30
0.0
 11
158.0999999999999091
 21
169.4999999999990905
 31
0.0
  0
LINE
  5
18677
  8
0
 10
165.8999999999998067
 20
169.4999999999990905
 30
0.0
 11
165.8999999999998067
 21
169.9999999999990905
 31
0.0
  0
LINE
  5
18678
  8
0
 10
134.0999999999997954
 20
169.9999999999990905
 30
0.0
 11
134.0999999999997954
 21
169.4999999999990905
 31
0.0
  0
LINE
  5
18679
  8
0
 10
141.8999999999998067
 20
169.4999999999990905
 30
0.0
 11
141.8999999999998067
 21
169.9999999999990905
 31
0.0
  0
LINE
  5
1867A
  8
0
 10
165.5999999999997954
 20
230.6833333333329108
 30
0.0
 11
165.5999999999997954
 21
230.8333333333326891
 31
0.0
  0
LINE
  5
1867B
  8
0
 10
158.3999999999998067
 20
230.8333333333326891
 30
0.0
 11
158.3999999999998067
 21
230.6833333333329108
 31
0.0
  0
LINE
  5
1867C
  8
0
 10
141.5999999999999091
 20
230.6833333333329108
 30
0.0
 11
141.5999999999999091
 21
230.8333333333326891
 31
0.0
  0
LINE
  5
1867D
  8
0
 10
134.3999999999998067
 20
230.8333333333326891
 30
0.0
 11
134.3999999999998067
 21
230.6833333333329108
 31
0.0
  0
LINE
  5
1867E
  8
0
 10
140.5999999999999091
 20
158.5999999999991132
 30
0.0
 11
140.5999999999999091
 21
159.1999999999989939
 31
0.0
  0
LINE
  5
1867F
  8
0
 10
135.3999999999998067
 20
159.1999999999989939
 30
0.0
 11
135.399999999999693
 21
158.5999999999991132
 31
0.0
  0
LINE
  5
18680
  8
0
 10
164.5999999999997954
 20
158.5999999999991132
 30
0.0
 11
164.5999999999997954
 21
159.1999999999989939
 31
0.0
  0
LINE
  5
18681
  8
0
 10
159.3999999999998067
 20
159.1999999999989939
 30
0.0
 11
159.3999999999998067
 21
158.5999999999991132
 31
0.0
  0
CIRCLE
  5
18682
  8
0
 10
132.499999999999801
 20
191.2499999999990905
 30
0.0
 40
5.25
  0
CIRCLE
  5
18683
  8
0
 10
167.499999999999801
 20
191.2499999999990905
 30
0.0
 40
5.25
  0
CIRCLE
  5
18684
  8
0
 10
167.499999999999801
 20
208.7499999999990905
 30
0.0
 40
5.25
  0
CIRCLE
  5
18685
  8
0
 10
132.499999999999801
 20
208.7499999999990905
 30
0.0
 40
5.25
  0
CIRCLE
  5
18686
  8
0
 10
173.999999999999801
 20
175.9999999999990905
 30
0.0
 40
2.75
  0
CIRCLE
  5
18687
  8
0
 10
173.999999999999801
 20
223.9999999999990905
 30
0.0
 40
2.75
  0
CIRCLE
  5
18688
  8
0
 10
125.9999999999999005
 20
223.9999999999990905
 30
0.0
 40
2.75
  0
CIRCLE
  5
18689
  8
0
 10
125.9999999999999005
 20
175.9999999999990905
 30
0.0
 40
2.75
  0
CIRCLE
  5
1868A
  8
0
 10
173.999999999999801
 20
199.9999999999990905
 30
0.0
 40
2.0
  0
CIRCLE
  5
1868B
  8
0
 10
125.9999999999999005
 20
199.9999999999990905
 30
0.0
 40
2.0
  0
ARC
  5
1868C
  8
0
 10
174.999999999999801
 20
224.9999999999992042
 30
0.0
 40
5.0
 50
0.0
 51
90.0
  0
LINE
  5
1868D
  8
0
 10
179.999999999999801
 20
224.9999999999992042
 30
0.0
 11
179.999999999999801
 21
174.9999999999990905
 31
0.0
  0
ARC
  5
1868E
  8
0
 10
174.999999999999801
 20
174.9999999999990905
 30
0.0
 40
5.0
 50
270.0
 51
0.0
  0
LINE
  5
1868F
  8
0
 10
174.999999999999801
 20
169.9999999999990905
 30
0.0
 11
124.9999999999999005
 21
169.9999999999990905
 31
0.0
  0
ARC
  5
18690
  8
0
 10
124.9999999999999005
 20
174.9999999999990905
 30
0.0
 40
5.0
 50
180.0
 51
270.0
  0
LINE
  5
18691
  8
0
 10
119.9999999999999005
 20
174.9999999999990905
 30
0.0
 11
119.9999999999999005
 21
224.9999999999992042
 31
0.0
  0
ARC
  5
18692
  8
0
 10
124.9999999999999005
 20
224.9999999999992042
 30
0.0
 40
5.0
 50
90.0
 51
180.0
  0
LINE
  5
18693
  8
0
 10
124.9999999999999005
 20
229.9999999999990905
 30
0.0
 11
174.999999999999801
 21
229.9999999999990905
 31
0.0
  0
CIRCLE
  5
18694
  8
3
 10
167.999999999999801
 20
175.9999999999990905
 30
0.0
 40
2.499999999999885
  0
CIRCLE
  5
18695
  8
3
 10
131.999999999999801
 20
175.9999999999990905
 30
0.0
 40
2.5
  0
CIRCLE
  5
18696
  8
3
 10
131.999999999999801
 20
223.9999999999990905
 30
0.0
 40
2.5
  0
CIRCLE
  5
18697
  8
3
 10
167.999999999999801
 20
223.9999999999990905
 30
0.0
 40
2.499999999999885
  0
LINE
  5
18698
  8
0
 10
157.9999999998971134
 20
169.3000000000216119
 30
0.0
 11
166.0000000001026024
 21
169.3000000000216119
 31
0.0
  0
LINE
  5
18699
  8
0
 10
157.999999999999801
 20
159.7381197846428051
 30
0.0
 11
165.999999999999801
 21
159.7381197846428051
 31
0.0
  0
LINE
  5
1869A
  8
0
 10
134.0000000000098908
 20
169.3000000000216119
 30
0.0
 11
141.9999999999899103
 21
169.3000000000216119
 31
0.0
  0
LINE
  5
1869B
  8
0
 10
133.999999999999801
 20
159.7381197846428051
 30
0.0
 11
141.999999999999801
 21
159.7381197846428051
 31
0.0
  0
LINE
  5
1869C
  8
0
 10
134.0660254038479025
 20
159.6999999999302986
 30
0.0
 11
141.9339745961518133
 21
159.6999999999302986
 31
0.0
  0
LINE
  5
1869D
  8
0
 10
158.0660254039607082
 20
159.6999999998733983
 30
0.0
 11
165.9339745960390076
 21
159.6999999998733983
 31
0.0
  0
LINE
  5
1869E
  8
0
 10
141.999999999999801
 20
230.6833333333329108
 30
0.0
 11
133.999999999999801
 21
230.6833333333329108
 31
0.0
  0
LINE
  5
1869F
  8
0
 10
165.999999999999801
 20
230.6833333333329108
 30
0.0
 11
157.999999999999801
 21
230.6833333333329108
 31
0.0
  0
LINE
  5
186A0
  8
0
 10
157.999999999999801
 20
230.8333333333326891
 30
0.0
 11
165.999999999999801
 21
230.8333333333326891
 31
0.0
  0
LINE
  5
186A1
  8
0
 10
165.999999999999801
 20
232.4999999999992042
 30
0.0
 11
157.999999999999801
 21
232.4999999999992042
 31
0.0
  0
LINE
  5
186A2
  8
0
 10
133.999999999999801
 20
230.8333333333326891
 30
0.0
 11
141.999999999999801
 21
230.8333333333326891
 31
0.0
  0
LINE
  5
186A3
  8
0
 10
141.999999999999801
 20
232.4999999999992042
 30
0.0
 11
133.999999999999801
 21
232.4999999999992042
 31
0.0
  0
LINE
  5
186A4
  8
0
 10
134.1999999999866873
 20
159.1999999999420936
 30
0.0
 11
141.8000000000130001
 21
159.1999999999420083
 31
0.0
  0
LINE
  5
186A5
  8
0
 10
158.1999999999858062
 20
159.1999999999420936
 30
0.0
 11
165.8000000000139096
 21
159.1999999999420083
 31
0.0
  0
LINE
  5
186A6
  8
0
 10
133.0999999999997954
 20
158.5999999999991132
 30
0.0
 11
136.999999999999801
 21
158.5999999999991132
 31
0.0
  0
LINE
  5
186A7
  8
0
 10
136.999999999999801
 20
158.5999999999991132
 30
0.0
 11
136.999999999999801
 21
157.3999999999992099
 31
0.0
  0
LINE
  5
186A8
  8
0
 10
133.0999999999997954
 20
157.3999999999992099
 30
0.0
 11
136.999999999999801
 21
157.3999999999992099
 31
0.0
  0
LINE
  5
186A9
  8
0
 10
136.999999999999801
 20
158.5999999999991132
 30
0.0
 11
138.999999999999801
 21
158.5999999999991132
 31
0.0
  0
LINE
  5
186AA
  8
0
 10
138.999999999999801
 20
158.5999999999991132
 30
0.0
 11
138.999999999999801
 21
157.3999999999992099
 31
0.0
  0
LINE
  5
186AB
  8
0
 10
136.999999999999801
 20
157.3999999999992099
 30
0.0
 11
138.999999999999801
 21
157.3999999999992099
 31
0.0
  0
LINE
  5
186AC
  8
0
 10
162.999999999999801
 20
158.5999999999991132
 30
0.0
 11
162.999999999999801
 21
157.3999999999992099
 31
0.0
  0
LINE
  5
186AD
  8
0
 10
160.999999999999801
 20
157.3999999999992099
 30
0.0
 11
162.999999999999801
 21
157.3999999999992099
 31
0.0
  0
LINE
  5
186AE
  8
0
 10
160.999999999999801
 20
158.5999999999991132
 30
0.0
 11
160.999999999999801
 21
157.3999999999992099
 31
0.0
  0
LINE
  5
186AF
  8
0
 10
160.999999999999801
 20
158.5999999999991132
 30
0.0
 11
162.999999999999801
 21
158.5999999999991132
 31
0.0
  0
LINE
  5
186B0
  8
0
 10
157.0999999999999091
 20
157.3999999999992099
 30
0.0
 11
160.999999999999801
 21
157.3999999999992099
 31
0.0
  0
LINE
  5
186B1
  8
0
 10
157.0999999999999091
 20
158.5999999999991132
 30
0.0
 11
160.999999999999801
 21
158.5999999999991132
 31
0.0
  0
LINE
  5
186B2
  8
0
 10
138.999999999999801
 20
158.5999999999991132
 30
0.0
 11
142.8999999999998067
 21
158.5999999999991132
 31
0.0
  0
LINE
  5
186B3
  8
0
 10
138.999999999999801
 20
157.3999999999992099
 30
0.0
 11
142.8999999999998067
 21
157.3999999999992099
 31
0.0
  0
LINE
  5
186B4
  8
0
 10
162.999999999999801
 20
157.3999999999992099
 30
0.0
 11
166.8999999999998067
 21
157.3999999999992099
 31
0.0
  0
LINE
  5
186B5
  8
0
 10
162.999999999999801
 20
158.5999999999991132
 30
0.0
 11
166.8999999999998067
 21
158.5999999999991132
 31
0.0
  0
LINE
  5
186B6
  8
0
 10
158.0999999999999091
 20
169.4999999999990905
 30
0.0
 11
165.8999999999998067
 21
169.4999999999990905
 31
0.0
  0
LINE
  5
186B7
  8
0
 10
134.0999999999997954
 20
169.4999999999990905
 30
0.0
 11
141.8999999999998067
 21
169.4999999999990905
 31
0.0
  0
CIRCLE
  5
186B8
  8
0
 10
167.499999999999801
 20
208.7499999999992895
 30
0.0
 40
5.0
  0
LINE
  5
186B9
  8
0
 10
168.3660254037843913
 20
207.2499999999992895
 30
0.0
 11
169.232050807568811
 21
208.7499999999992895
 31
0.0
  0
LINE
  5
186BA
  8
0
 10
168.3660254037843913
 20
210.2499999999992042
 30
0.0
 11
169.232050807568811
 21
208.7499999999992895
 31
0.0
  0
LINE
  5
186BB
  8
0
 10
168.3660254037843913
 20
210.2499999999992042
 30
0.0
 11
166.6339745962154097
 21
210.2499999999992042
 31
0.0
  0
LINE
  5
186BC
  8
0
 10
165.76794919243099
 20
208.7499999999992895
 30
0.0
 11
166.6339745962154097
 21
210.2499999999992042
 31
0.0
  0
LINE
  5
186BD
  8
0
 10
166.6339745962154097
 20
207.2499999999992895
 30
0.0
 11
168.3660254037843913
 21
207.2499999999992895
 31
0.0
  0
LINE
  5
186BE
  8
0
 10
166.6339745962152961
 20
207.2499999999996021
 30
0.0
 11
165.76794919243099
 21
208.7499999999992895
 31
0.0
  0
CIRCLE
  5
186BF
  8
0
 10
167.499999999999801
 20
191.2499999999994031
 30
0.0
 40
5.0
  0
LINE
  5
186C0
  8
0
 10
168.366025403784306
 20
189.7499999999992042
 30
0.0
 11
169.2320508075686121
 21
191.2499999999994031
 31
0.0
  0
LINE
  5
186C1
  8
0
 10
168.366025403784306
 20
192.7499999999992042
 30
0.0
 11
169.2320508075686121
 21
191.2499999999992042
 31
0.0
  0
LINE
  5
186C2
  8
0
 10
168.366025403784306
 20
192.7499999999992042
 30
0.0
 11
166.6339745962154097
 21
192.7499999999992042
 31
0.0
  0
LINE
  5
186C3
  8
0
 10
165.76794919243099
 20
191.2499999999994031
 30
0.0
 11
166.6339745962154097
 21
192.7499999999992042
 31
0.0
  0
LINE
  5
186C4
  8
0
 10
166.6339745962152108
 20
189.7499999999994884
 30
0.0
 11
165.76794919243099
 21
191.2499999999992042
 31
0.0
  0
LINE
  5
186C5
  8
0
 10
166.6339745962154097
 20
189.7499999999992042
 30
0.0
 11
168.366025403784306
 21
189.7499999999992042
 31
0.0
  0
CIRCLE
  5
186C6
  8
0
 10
132.499999999999801
 20
191.2499999999994031
 30
0.0
 40
5.0
  0
LINE
  5
186C7
  8
0
 10
133.366025403784306
 20
189.7499999999992042
 30
0.0
 11
134.232050807568811
 21
191.2499999999994031
 31
0.0
  0
LINE
  5
186C8
  8
0
 10
133.366025403784306
 20
192.7499999999992042
 30
0.0
 11
134.232050807568811
 21
191.2499999999994031
 31
0.0
  0
LINE
  5
186C9
  8
0
 10
133.366025403784306
 20
192.7499999999992042
 30
0.0
 11
131.6339745962154097
 21
192.7499999999992042
 31
0.0
  0
LINE
  5
186CA
  8
0
 10
130.76794919243099
 20
191.2499999999994031
 30
0.0
 11
131.6339745962154097
 21
192.7499999999992042
 31
0.0
  0
LINE
  5
186CB
  8
0
 10
131.6339745962154097
 20
189.7499999999992042
 30
0.0
 11
133.366025403784306
 21
189.7499999999992042
 31
0.0
  0
LINE
  5
186CC
  8
0
 10
131.6339745962152108
 20
189.7499999999996021
 30
0.0
 11
130.76794919243099
 21
191.2499999999994031
 31
0.0
  0
CIRCLE
  5
186CD
  8
0
 10
132.499999999999801
 20
208.7499999999990905
 30
0.0
 40
5.0
  0
LINE
  5
186CE
  8
0
 10
132.7529165777390006
 20
207.0365143114960915
 30
0.0
 11
134.1103804241342061
 21
208.1122893371081943
 31
0.0
  0
LINE
  5
186CF
  8
0
 10
133.8574638463948077
 20
209.825775025611108
 30
0.0
 11
134.1103804241342061
 21
208.1122893371081943
 31
0.0
  0
LINE
  5
186D0
  8
0
 10
133.8574638463948077
 20
209.825775025611108
 30
0.0
 11
132.2470834222604879
 21
210.4634856885020895
 31
0.0
  0
LINE
  5
186D1
  8
0
 10
130.8896195758655097
 20
209.3877106628901004
 30
0.0
 11
132.2470834222604879
 21
210.4634856885020895
 31
0.0
  0
LINE
  5
186D2
  8
0
 10
131.1425361536047092
 20
207.674224974387414
 30
0.0
 11
130.8896195758655097
 21
209.3877106628901004
 31
0.0
  0
LINE
  5
186D3
  8
0
 10
131.1425361536047944
 20
207.6742249743871866
 30
0.0
 11
132.7529165777390006
 21
207.0365143114960915
 31
0.0
  0
CIRCLE
  5
186D4
  8
0
 10
173.999999999999801
 20
199.9999999999990905
 30
0.0
 40
1.250000000094132
  0
CIRCLE
  5
186D5
  8
0
 10
125.9999999999999005
 20
199.9999999999990905
 30
0.0
 40
1.250000000094132
  0
CIRCLE
  5
186D6
  8
0
 10
150.0
 20
37.0000000000000071
 30
0.0
 40
3.4000000000000341
  0
CIRCLE
  5
186D7
  8
0
 10
150.0
 20
62.9999999999999503
 30
0.0
 40
3.3999999999999759
  0
CIRCLE
  5
186D8
  8
0
 10
150.0
 20
62.9999999999999503
 30
0.0
 40
1.700000000000045
  0
CIRCLE
  5
186D9
  8
0
 10
150.0
 20
37.0000000000000071
 30
0.0
 40
1.699999999999988
  0
LINE
  5
186DA
  8
0
 10
157.9999999998971987
 20
80.6999999999775355
 30
0.0
 11
158.1999999999306112
 21
80.5000000000008669
 31
0.0
  0
LINE
  5
186DB
  8
0
 10
165.8000000000693035
 20
80.5000000000008669
 30
0.0
 11
166.0000000001026876
 21
80.6999999999775355
 31
0.0
  0
LINE
  5
186DC
  8
0
 10
166.0
 20
80.6999999999775355
 30
0.0
 11
166.0
 21
90.2618802153561859
 31
0.0
  0
LINE
  5
186DD
  8
0
 10
158.0
 20
90.2618802153561859
 30
0.0
 11
158.0
 21
80.6999999999775355
 31
0.0
  0
LINE
  5
186DE
  8
0
 10
158.0
 20
19.1666666666663517
 30
0.0
 11
158.0
 21
17.5000000000000107
 31
0.0
  0
LINE
  5
186DF
  8
0
 10
166.0
 20
17.5000000000000107
 30
0.0
 11
166.0
 21
19.1666666666663517
 31
0.0
  0
LINE
  5
186E0
  8
0
 10
134.0
 20
19.1666666666663517
 30
0.0
 11
134.0
 21
17.5000000000000107
 31
0.0
  0
LINE
  5
186E1
  8
0
 10
142.0
 20
17.5000000000000107
 30
0.0
 11
142.0
 21
19.1666666666663517
 31
0.0
  0
LINE
  5
186E2
  8
0
 10
158.0
 20
20.0000000000000107
 30
0.0
 11
158.0
 21
19.3166666666662685
 31
0.0
  0
LINE
  5
186E3
  8
0
 10
166.0
 20
19.3166666666662685
 30
0.0
 11
166.0
 21
20.0000000000000107
 31
0.0
  0
LINE
  5
186E4
  8
0
 10
134.0
 20
20.0000000000000107
 30
0.0
 11
134.0
 21
19.3166666666662685
 31
0.0
  0
LINE
  5
186E5
  8
0
 10
142.0
 20
19.3166666666662685
 30
0.0
 11
142.0
 21
20.0000000000000107
 31
0.0
  0
LINE
  5
186E6
  8
0
 10
142.0
 20
80.6999999999775355
 30
0.0
 11
142.0
 21
90.2618802153561859
 31
0.0
  0
LINE
  5
186E7
  8
0
 10
134.0
 20
90.2618802153561859
 30
0.0
 11
134.0
 21
80.6999999999775355
 31
0.0
  0
LINE
  5
186E8
  8
0
 10
142.0
 20
90.2618802153962037
 30
0.0
 11
141.9339745961520123
 21
90.3000000000688345
 31
0.0
  0
LINE
  5
186E9
  8
0
 10
134.0660254038479877
 20
90.3000000000688345
 30
0.0
 11
134.0
 21
90.2618802153962037
 31
0.0
  0
LINE
  5
186EA
  8
0
 10
166.0
 20
90.2618802153879614
 30
0.0
 11
165.9339745960392065
 21
90.3000000001496801
 31
0.0
  0
LINE
  5
186EB
  8
0
 10
158.0660254039607935
 20
90.3000000001496801
 30
0.0
 11
158.0
 21
90.2618802153879614
 31
0.0
  0
LINE
  5
186EC
  8
0
 10
134.0000000000100044
 20
80.6999999999775355
 30
0.0
 11
134.1999999999306112
 21
80.5000000001136442
 31
0.0
  0
LINE
  5
186ED
  8
0
 10
141.8000000000693035
 20
80.5000000001137153
 30
0.0
 11
141.9999999999899956
 21
80.6999999999775355
 31
0.0
  0
LINE
  5
186EE
  8
0
 10
141.9339745962219865
 20
90.3000000000688345
 30
0.0
 11
141.8000000000131138
 21
90.8000000000570253
 31
0.0
  0
LINE
  5
186EF
  8
0
 10
134.199999999986801
 20
90.8000000000570253
 30
0.0
 11
134.0660254037780135
 21
90.3000000000688061
 31
0.0
  0
LINE
  5
186F0
  8
0
 10
165.9339745962361121
 20
90.300000000125678
 30
0.0
 11
165.8000000000139948
 21
90.8000000000570253
 31
0.0
  0
LINE
  5
186F1
  8
0
 10
158.1999999999858915
 20
90.8000000000570253
 30
0.0
 11
158.0660254037638026
 21
90.300000000125678
 31
0.0
  0
LINE
  5
186F2
  8
0
 10
165.8999999999998067
 20
80.0000000000000142
 30
0.0
 11
165.8999999999998067
 21
80.5000000000000142
 31
0.0
  0
LINE
  5
186F3
  8
0
 10
158.0999999999999943
 20
80.5000000000000142
 30
0.0
 11
158.0999999999999943
 21
80.0000000000000142
 31
0.0
  0
LINE
  5
186F4
  8
0
 10
141.9000000000000057
 20
80.0000000000000142
 30
0.0
 11
141.9000000000000057
 21
80.5000000000000142
 31
0.0
  0
LINE
  5
186F5
  8
0
 10
134.0999999999999091
 20
80.5000000000000142
 30
0.0
 11
134.0999999999999091
 21
80.0000000000000142
 31
0.0
  0
LINE
  5
186F6
  8
0
 10
166.9000000000000057
 20
91.3999999999999773
 30
0.0
 11
166.9000000000000057
 21
92.5999999999999801
 31
0.0
  0
LINE
  5
186F7
  8
0
 10
142.9000000000000057
 20
91.3999999999999773
 30
0.0
 11
142.9000000000000057
 21
92.5999999999999801
 31
0.0
  0
LINE
  5
186F8
  8
0
 10
157.0999999999999943
 20
92.5999999999999233
 30
0.0
 11
157.0999999999999943
 21
91.3999999999999062
 31
0.0
  0
LINE
  5
186F9
  8
0
 10
133.0999999999999091
 20
92.5999999999999233
 30
0.0
 11
133.0999999999999091
 21
91.3999999999999062
 31
0.0
  0
LINE
  5
186FA
  8
0
 10
158.4000000000000057
 20
19.3166666666662685
 30
0.0
 11
158.4000000000000057
 21
19.1666666666663517
 31
0.0
  0
LINE
  5
186FB
  8
0
 10
165.5999999999999091
 20
19.1666666666663517
 30
0.0
 11
165.5999999999999091
 21
19.3166666666662685
 31
0.0
  0
LINE
  5
186FC
  8
0
 10
134.4000000000000057
 20
19.3166666666662685
 30
0.0
 11
134.4000000000000057
 21
19.1666666666663517
 31
0.0
  0
LINE
  5
186FD
  8
0
 10
141.5999999999999943
 20
19.1666666666663517
 30
0.0
 11
141.5999999999999943
 21
19.3166666666662685
 31
0.0
  0
LINE
  5
186FE
  8
0
 10
159.4000000000000057
 20
91.3999999999999062
 30
0.0
 11
159.4000000000000057
 21
90.7999999999999545
 31
0.0
  0
LINE
  5
186FF
  8
0
 10
164.5999999999999091
 20
90.8000000000000114
 30
0.0
 11
164.5999999999999091
 21
91.3999999999999773
 31
0.0
  0
LINE
  5
18700
  8
0
 10
135.3999999999998067
 20
91.3999999999999062
 30
0.0
 11
135.4000000000000057
 21
90.7999999999999545
 31
0.0
  0
LINE
  5
18701
  8
0
 10
140.5999999999999943
 20
90.8000000000000114
 30
0.0
 11
140.5999999999999943
 21
91.3999999999999773
 31
0.0
  0
CIRCLE
  5
18702
  8
0
 10
132.5
 20
41.25
 30
0.0
 40
2.5
  0
CIRCLE
  5
18703
  8
0
 10
167.499999999999801
 20
41.2499999999997726
 30
0.0
 40
2.5
  0
CIRCLE
  5
18704
  8
0
 10
167.499999999999801
 20
58.7499999999997726
 30
0.0
 40
2.5
  0
CIRCLE
  5
18705
  8
0
 10
132.5
 20
58.7499999999997087
 30
0.0
 40
2.5
  0
CIRCLE
  5
18706
  8
0
 10
154.0
 20
27.5000000000000107
 30
0.0
 40
1.5
  0
CIRCLE
  5
18707
  8
0
 10
154.0
 20
72.5000000000000142
 30
0.0
 40
1.5
  0
CIRCLE
  5
18710
  8
0
 10
150.0
 20
62.9999999999999503
 30
0.0
 40
3.5
  0
CIRCLE
  5
18711
  8
0
 10
150.0
 20
37.0000000000000071
 30
0.0
 40
3.5
  0
CIRCLE
  5
18712
  8
0
 10
132.5
 20
58.75
 30
0.0
 40
2.7499999999999432
  0
CIRCLE
  5
18713
  8
0
 10
167.499999999999801
 20
58.75
 30
0.0
 40
2.7499999999999432
  0
CIRCLE
  5
18714
  8
0
 10
167.499999999999801
 20
41.25
 30
0.0
 40
2.7499999999999432
  0
CIRCLE
  5
18715
  8
0
 10
132.5
 20
41.25
 30
0.0
 40
2.7499999999999432
  0
CIRCLE
  5
18716
  8
0
 10
126.0
 20
49.9999999999999503
 30
0.0
 40
1.2500000000000551
  0
CIRCLE
  5
18717
  8
0
 10
174.0
 20
49.9999999999999503
 30
0.0
 40
1.2500000000000551
  0
CIRCLE
  5
18718
  8
0
 10
150.0
 20
49.9999999999999503
 30
0.0
 40
26.0000000000000604
  0
ARC
  5
18719
  8
0
 10
150.0
 20
49.9999999999999503
 30
0.0
 40
27.4999999999999609
 50
233.1301023541543884
 51
306.8698976458455263
  0
ARC
  5
1871A
  8
0
 10
150.0
 20
49.9999999999999503
 30
0.0
 40
27.5000000000000497
 50
126.8698976458455974
 51
233.1301023541543884
  0
ARC
  5
1871B
  8
0
 10
150.0
 20
49.9999999999999503
 30
0.0
 40
27.5000000000000497
 50
53.1301023541544666
 51
126.8698976458455974
  0
ARC
  5
1871C
  8
0
 10
150.0
 20
49.9999999999999503
 30
0.0
 40
27.4999999999999787
 50
306.8698976458455263
 51
53.1301023541544666
  0
LINE
  5
1871D
  8
0
 10
166.0000000001026876
 20
80.6999999999775355
 30
0.0
 11
157.9999999998971987
 21
80.6999999999775355
 31
0.0
  0
LINE
  5
1871E
  8
0
 10
166.0
 20
90.2618802153561859
 30
0.0
 11
158.0
 21
90.2618802153561859
 31
0.0
  0
LINE
  5
1871F
  8
0
 10
162.0
 20
17.5000000000000107
 30
0.0
 11
166.0
 21
17.5000000000000107
 31
0.0
  0
LINE
  5
18720
  8
0
 10
158.0
 20
17.5000000000000107
 30
0.0
 11
162.0
 21
17.5000000000000107
 31
0.0
  0
LINE
  5
18721
  8
0
 10
162.0
 20
19.1666666666663517
 30
0.0
 11
158.0
 21
19.1666666666663517
 31
0.0
  0
LINE
  5
18722
  8
0
 10
166.0
 20
19.1666666666663517
 30
0.0
 11
162.0
 21
19.1666666666663517
 31
0.0
  0
LINE
  5
18723
  8
0
 10
138.0
 20
17.5000000000000107
 30
0.0
 11
142.0
 21
17.5000000000000107
 31
0.0
  0
LINE
  5
18724
  8
0
 10
134.0
 20
17.5000000000000107
 30
0.0
 11
138.0
 21
17.5000000000000107
 31
0.0
  0
LINE
  5
18725
  8
0
 10
138.0
 20
19.1666666666663517
 30
0.0
 11
134.0
 21
19.1666666666663517
 31
0.0
  0
LINE
  5
18726
  8
0
 10
142.0
 20
19.1666666666663517
 30
0.0
 11
138.0
 21
19.1666666666663517
 31
0.0
  0
LINE
  5
18727
  8
0
 10
162.0
 20
19.3166666666662685
 30
0.0
 11
166.0
 21
19.3166666666662685
 31
0.0
  0
LINE
  5
18728
  8
0
 10
158.0
 20
19.3166666666662685
 30
0.0
 11
162.0
 21
19.3166666666662685
 31
0.0
  0
LINE
  5
18729
  8
0
 10
163.3919410907076042
 20
20.0000000000000107
 30
0.0
 11
160.6080589092925095
 21
20.0000000000000107
 31
0.0
  0
LINE
  5
1872A
  8
0
 10
139.3919410907076042
 20
20.0000000000000107
 30
0.0
 11
136.6080589092925095
 21
20.0000000000000107
 31
0.0
  0
LINE
  5
1872B
  8
0
 10
138.0
 20
19.3166666666662685
 30
0.0
 11
142.0
 21
19.3166666666662685
 31
0.0
  0
LINE
  5
1872C
  8
0
 10
134.0
 20
19.3166666666662685
 30
0.0
 11
138.0
 21
19.3166666666662685
 31
0.0
  0
LINE
  5
1872D
  8
0
 10
141.9999999999899956
 20
80.6999999999775355
 30
0.0
 11
134.0000000000100044
 21
80.6999999999775355
 31
0.0
  0
LINE
  5
1872E
  8
0
 10
142.0
 20
90.2618802153561859
 30
0.0
 11
134.0
 21
90.2618802153561859
 31
0.0
  0
LINE
  5
1872F
  8
0
 10
141.9339745961520123
 20
90.3000000000688345
 30
0.0
 11
134.0660254038479877
 21
90.3000000000688061
 31
0.0
  0
LINE
  5
18730
  8
0
 10
165.9339745960392065
 20
90.300000000125678
 30
0.0
 11
158.0660254039607935
 21
90.300000000125678
 31
0.0
  0
LINE
  5
18731
  8
0
 10
141.8000000000131138
 20
90.8000000000570253
 30
0.0
 11
134.199999999986801
 21
90.8000000000570253
 31
0.0
  0
LINE
  5
18732
  8
0
 10
165.8000000000139948
 20
90.8000000000570253
 30
0.0
 11
158.1999999999858915
 21
90.8000000000570253
 31
0.0
  0
LINE
  5
18733
  8
0
 10
165.8999999999998067
 20
80.5000000000000142
 30
0.0
 11
158.0999999999999943
 21
80.5000000000000142
 31
0.0
  0
LINE
  5
18734
  8
0
 10
160.9287857357184066
 20
80.0000000000000142
 30
0.0
 11
163.0712142642815081
 21
80.0000000000000142
 31
0.0
  0
LINE
  5
18735
  8
0
 10
141.9000000000000057
 20
80.5000000000000142
 30
0.0
 11
134.0999999999999091
 21
80.5000000000000142
 31
0.0
  0
LINE
  5
18736
  8
0
 10
136.9287857357186056
 20
80.0000000000000142
 30
0.0
 11
139.0712142642815081
 21
80.0000000000000142
 31
0.0
  0
LINE
  5
18737
  8
0
 10
166.9000000000000057
 20
91.3999999999999773
 30
0.0
 11
163.0
 21
91.3999999999999062
 31
0.0
  0
LINE
  5
18738
  8
0
 10
163.0
 20
91.3999999999999062
 30
0.0
 11
163.0
 21
92.5999999999999801
 31
0.0
  0
LINE
  5
18739
  8
0
 10
166.9000000000000057
 20
92.5999999999999801
 30
0.0
 11
163.0
 21
92.5999999999999801
 31
0.0
  0
LINE
  5
1873A
  8
0
 10
142.9000000000000057
 20
91.3999999999999773
 30
0.0
 11
139.0
 21
91.3999999999999062
 31
0.0
  0
LINE
  5
1873B
  8
0
 10
139.0
 20
91.3999999999999062
 30
0.0
 11
139.0
 21
92.5999999999999801
 31
0.0
  0
LINE
  5
1873C
  8
0
 10
142.9000000000000057
 20
92.5999999999999801
 30
0.0
 11
139.0
 21
92.5999999999999801
 31
0.0
  0
LINE
  5
1873D
  8
0
 10
161.0
 20
92.5999999999999801
 30
0.0
 11
161.0
 21
91.3999999999999062
 31
0.0
  0
LINE
  5
1873E
  8
0
 10
161.0
 20
91.3999999999999062
 30
0.0
 11
157.0999999999999943
 21
91.3999999999999062
 31
0.0
  0
LINE
  5
1873F
  8
0
 10
161.0
 20
92.5999999999999801
 30
0.0
 11
157.0999999999999943
 21
92.5999999999999801
 31
0.0
  0
LINE
  5
18740
  8
0
 10
139.0
 20
91.3999999999999062
 30
0.0
 11
137.0
 21
91.3999999999999062
 31
0.0
  0
LINE
  5
18741
  8
0
 10
137.0
 20
92.5999999999999801
 30
0.0
 11
137.0
 21
91.3999999999999062
 31
0.0
  0
LINE
  5
18742
  8
0
 10
139.0
 20
92.5999999999999801
 30
0.0
 11
137.0
 21
92.5999999999999801
 31
0.0
  0
LINE
  5
18743
  8
0
 10
163.0
 20
92.5999999999999801
 30
0.0
 11
161.0
 21
92.5999999999999801
 31
0.0
  0
LINE
  5
18744
  8
0
 10
163.0
 20
91.3999999999999062
 30
0.0
 11
161.0
 21
91.3999999999999062
 31
0.0
  0
LINE
  5
18745
  8
0
 10
137.0
 20
92.5999999999999801
 30
0.0
 11
133.0999999999999091
 21
92.5999999999999801
 31
0.0
  0
LINE
  5
18746
  8
0
 10
137.0
 20
91.3999999999999062
 30
0.0
 11
133.0999999999999091
 21
91.3999999999999062
 31
0.0
  0
CIRCLE
  5
18747
  8
3
 10
168.0
 20
74.0000000000000142
 30
0.0
 40
2.5000000000000671
  0
CIRCLE
  5
18748
  8
3
 10
132.0
 20
74.0000000000000142
 30
0.0
 40
2.5
  0
CIRCLE
  5
18749
  8
3
 10
132.0
 20
26.0000000000000107
 30
0.0
 40
2.5
  0
CIRCLE
  5
1874A
  8
3
 10
168.0
 20
26.0000000000000107
 30
0.0
 40
2.5000000000000671
  0
ARC
  5
1874B
  8
0
 10
175.0
 20
75.0000000000000142
 30
0.0
 40
5.0
 50
0.0
 51
90.0
  0
LINE
  5
1874C
  8
0
 10
180.0
 20
75.0000000000000142
 30
0.0
 11
180.0
 21
25.0000000000000107
 31
0.0
  0
LINE
  5
1874D
  8
0
 10
120.0
 20
75.0000000000000142
 30
0.0
 11
120.0
 21
25.0000000000000107
 31
0.0
  0
ARC
  5
1874E
  8
0
 10
125.0
 20
75.0000000000000142
 30
0.0
 40
5.0
 50
90.0
 51
180.0
  0
LINE
  5
1874F
  8
0
 10
125.0
 20
80.0000000000000142
 30
0.0
 11
136.9287857357186056
 21
80.0000000000000142
 31
0.0
  0
LINE
  5
18750
  8
0
 10
139.0712142642815081
 20
80.0000000000000142
 30
0.0
 11
160.9287857357184066
 21
80.0000000000000142
 31
0.0
  0
LINE
  5
18751
  8
0
 10
163.0712142642815081
 20
80.0000000000000142
 30
0.0
 11
175.0
 21
80.0000000000000142
 31
0.0
  0
CIRCLE
  5
18752
  8
0
 10
126.0
 20
26.0000000000000107
 30
0.0
 40
2.7500000000000551
  0
CIRCLE
  5
18753
  8
0
 10
174.0
 20
26.0000000000000107
 30
0.0
 40
2.7500000000000551
  0
CIRCLE
  5
18754
  8
0
 10
174.0
 20
74.0000000000000142
 30
0.0
 40
2.75
  0
CIRCLE
  5
18755
  8
0
 10
126.0
 20
74.0000000000000142
 30
0.0
 40
2.75
  0
ARC
  5
18756
  8
0
 10
125.0
 20
25.0000000000000107
 30
0.0
 40
5.0
 50
180.0
 51
270.0
  0
LINE
  5
18757
  8
0
 10
163.3919410907076042
 20
20.0000000000000107
 30
0.0
 11
175.0
 21
20.0000000000000107
 31
0.0
  0
LINE
  5
18758
  8
0
 10
125.0
 20
20.0000000000000107
 30
0.0
 11
136.6080589092925095
 21
20.0000000000000107
 31
0.0
  0
LINE
  5
18759
  8
0
 10
139.3919410907076042
 20
20.0000000000000107
 30
0.0
 11
160.6080589092925095
 21
20.0000000000000107
 31
0.0
  0
ARC
  5
1875A
  8
0
 10
175.0
 20
25.0000000000000107
 30
0.0
 40
5.0
 50
270.0
 51
0.0
  0
LINE
  5
1875B
  8
1
 10
150.0000000000007105
 20
164.9999999999990905
 30
0.0
 11
149.999999999999801
 21
234.9999999999992042
 31
0.0
  0
LINE
  5
1875C
  8
1
 10
115.0000000000002984
 20
199.9999999999988063
 30
0.0
 11
185.0000000000003126
 21
199.9999999999996021
 31
0.0
  0
LINE
  5
1875D
  8
1
 10
138.0000000000007958
 20
154.3999999999994088
 30
0.0
 11
138.0000000000005116
 21
172.9999999999990052
 31
0.0
  0
LINE
  5
1875E
  8
1
 10
162.0000000000007958
 20
154.399999999999693
 30
0.0
 11
162.0000000000005116
 21
172.9999999999994031
 31
0.0
  0
CIRCLE
  5
1875F
  8
0
 10
132.0000000000005116
 20
175.9999999999988063
 30
0.0
 40
2.066999999999998
  0
CIRCLE
  5
18760
  8
0
 10
131.999999999999801
 20
223.9999999999988916
 30
0.0
 40
2.066999999999998
  0
CIRCLE
  5
18761
  8
0
 10
168.0000000000005116
 20
175.9999999999994031
 30
0.0
 40
2.066999999999998
  0
CIRCLE
  5
18762
  8
0
 10
167.999999999999801
 20
223.9999999999994031
 30
0.0
 40
2.066999999999998
  0
LINE
  5
18763
  8
1
 10
137.4999999999996021
 20
223.9999999999990052
 30
0.0
 11
120.2499999999999005
 21
223.9999999999990052
 31
0.0
  0
LINE
  5
18764
  8
1
 10
125.9999999999999005
 20
229.7499999999988916
 30
0.0
 11
125.9999999999999005
 21
218.2499999999988916
 31
0.0
  0
LINE
  5
18765
  8
1
 10
131.999999999999801
 20
229.4999999999988916
 30
0.0
 11
131.999999999999801
 21
218.4999999999992042
 31
0.0
  0
LINE
  5
18766
  8
1
 10
132.5000000000001137
 20
216.9999999999990905
 30
0.0
 11
132.5000000000001137
 21
200.4999999999990905
 31
0.0
  0
LINE
  5
18767
  8
1
 10
140.7500000000001137
 20
208.7499999999990905
 30
0.0
 11
124.2500000000000995
 21
208.7499999999990905
 31
0.0
  0
LINE
  5
18768
  8
1
 10
126.0000000000000995
 20
204.9999999999990052
 30
0.0
 11
126.0000000000000995
 21
194.9999999999988063
 31
0.0
  0
LINE
  5
18769
  8
1
 10
124.2500000000000995
 20
191.2499999999990052
 30
0.0
 11
140.7500000000001137
 21
191.2499999999990052
 31
0.0
  0
LINE
  5
1876A
  8
1
 10
132.5000000000001137
 20
199.4999999999990052
 30
0.0
 11
132.5000000000001137
 21
182.9999999999990052
 31
0.0
  0
LINE
  5
1876B
  8
1
 10
137.5000000000003126
 20
175.9999999999990052
 30
0.0
 11
120.2500000000004974
 21
175.9999999999990052
 31
0.0
  0
LINE
  5
1876C
  8
1
 10
126.0000000000005969
 20
181.7499999999988063
 30
0.0
 11
126.0000000000005969
 21
170.2499999999988063
 31
0.0
  0
LINE
  5
1876D
  8
1
 10
132.0000000000005116
 20
181.4999999999988063
 30
0.0
 11
132.0000000000005116
 21
170.4999999999990905
 31
0.0
  0
LINE
  5
1876E
  8
1
 10
162.5000000000001137
 20
223.9999999999994031
 30
0.0
 11
179.75
 21
223.9999999999996874
 31
0.0
  0
LINE
  5
1876F
  8
1
 10
173.999999999999801
 20
229.7499999999994884
 30
0.0
 11
174.0000000000001137
 21
218.2499999999994884
 31
0.0
  0
LINE
  5
18770
  8
1
 10
167.999999999999801
 20
229.4999999999994031
 30
0.0
 11
168.0000000000001137
 21
218.4999999999996021
 31
0.0
  0
LINE
  5
18771
  8
1
 10
167.499999999999801
 20
216.9999999999994884
 30
0.0
 11
167.500000000000199
 21
200.4999999999994884
 31
0.0
  0
LINE
  5
18772
  8
1
 10
159.25
 20
208.7499999999992895
 30
0.0
 11
175.75
 21
208.7499999999996874
 31
0.0
  0
LINE
  5
18773
  8
1
 10
174.0000000000001137
 20
204.9999999999996021
 30
0.0
 11
174.0000000000003126
 21
194.9999999999994884
 31
0.0
  0
LINE
  5
18774
  8
1
 10
175.7500000000003979
 20
191.2499999999996874
 30
0.0
 11
159.2500000000003979
 21
191.2499999999992042
 31
0.0
  0
LINE
  5
18775
  8
1
 10
167.500000000000199
 20
199.4999999999994884
 30
0.0
 11
167.5000000000007105
 21
182.9999999999994884
 31
0.0
  0
LINE
  5
18776
  8
1
 10
174.0000000000003126
 20
181.7499999999996021
 30
0.0
 11
174.0000000000007105
 21
170.2499999999996021
 31
0.0
  0
LINE
  5
18777
  8
1
 10
168.0000000000003126
 20
181.4999999999992895
 30
0.0
 11
168.0000000000005969
 21
170.4999999999996021
 31
0.0
  0
LINE
  5
18778
  8
1
 10
162.5000000000007105
 20
175.9999999999994031
 30
0.0
 11
179.7500000000005116
 21
175.9999999999996874
 31
0.0
  0
LINE
  5
18779
  8
1
 10
149.9999999999994884
 20
84.9999999999999432
 30
0.0
 11
150.0000000000003979
 21
14.9999999999999503
 31
0.0
  0
LINE
  5
1877A
  8
1
 10
184.999999999999801
 20
50.0000000000002913
 30
0.0
 11
114.9999999999997016
 21
49.9999999999995026
 31
0.0
  0
LINE
  5
1877B
  8
1
 10
161.9999999999992895
 20
95.599999999999639
 30
0.0
 11
161.9999999999994884
 21
76.9999999999999289
 31
0.0
  0
LINE
  5
1877C
  8
1
 10
137.9999999999992895
 20
95.5999999999992838
 30
0.0
 11
137.9999999999996021
 21
76.99999999999973
 31
0.0
  0
CIRCLE
  5
1877D
  8
0
 10
168.000000000000199
 20
26.0000000000001812
 30
0.0
 40
2.066999999999998
  0
CIRCLE
  5
1877E
  8
0
 10
132.000000000000199
 20
25.9999999999997193
 30
0.0
 40
2.066999999999998
  0
LINE
  5
1877F
  8
1
 10
162.5000000000003979
 20
26.0000000000000711
 30
0.0
 11
179.7500000000003126
 21
26.0000000000001812
 31
0.0
  0
LINE
  5
18780
  8
1
 10
174.0000000000003126
 20
20.2500000000001812
 30
0.0
 11
174.0000000000003126
 21
31.7500000000001812
 31
0.0
  0
LINE
  5
18781
  8
1
 10
168.0000000000003126
 20
20.5000000000001812
 30
0.0
 11
168.0000000000003126
 21
31.4999999999999503
 31
0.0
  0
LINE
  5
18782
  8
1
 10
167.4999999999990905
 20
35.7499999999993818
 30
0.0
 11
167.499999999999801
 21
46.7499999999993676
 31
0.0
  0
LINE
  5
18783
  8
1
 10
161.9999999999990905
 20
41.2499999999999503
 30
0.0
 11
172.9999999999990905
 21
41.2499999999993676
 31
0.0
  0
LINE
  5
18784
  8
1
 10
174.0
 20
45.0000000000000568
 30
0.0
 11
174.0
 21
55.0000000000001634
 31
0.0
  0
LINE
  5
18785
  8
1
 10
172.9999999999990905
 20
58.7500000000000711
 30
0.0
 11
161.9999999999990905
 21
58.7499999999993676
 31
0.0
  0
LINE
  5
18786
  8
1
 10
167.5
 20
53.2499999999993818
 30
0.0
 11
167.4999999999990905
 21
64.2499999999993889
 31
0.0
  0
LINE
  5
18787
  8
1
 10
162.499999999999801
 20
74.0000000000000711
 30
0.0
 11
179.7499999999996021
 21
74.0000000000000711
 31
0.0
  0
LINE
  5
18788
  8
1
 10
173.9999999999996021
 20
68.2500000000000711
 30
0.0
 11
173.9999999999996021
 21
79.7500000000000711
 31
0.0
  0
LINE
  5
18789
  8
1
 10
167.9999999999996021
 20
68.5000000000001847
 30
0.0
 11
167.9999999999996021
 21
79.4999999999999289
 31
0.0
  0
LINE
  5
1878A
  8
1
 10
137.5000000000001137
 20
25.9999999999997193
 30
0.0
 11
120.250000000000199
 21
25.9999999999993712
 31
0.0
  0
LINE
  5
1878B
  8
1
 10
126.0000000000002984
 20
20.2499999999994991
 30
0.0
 11
126.0
 21
31.7499999999994991
 31
0.0
  0
LINE
  5
1878C
  8
1
 10
132.0000000000003126
 20
20.4999999999997193
 30
0.0
 11
132.0
 21
31.4999999999994991
 31
0.0
  0
LINE
  5
1878D
  8
1
 10
132.5000000000003126
 20
35.7500000000000568
 30
0.0
 11
132.5
 21
46.7500000000000568
 31
0.0
  0
LINE
  5
1878E
  8
1
 10
137.9999999999990052
 20
41.2500000000000568
 30
0.0
 11
126.9999999999991047
 21
41.2500000000000568
 31
0.0
  0
LINE
  5
1878F
  8
1
 10
126.0
 20
44.9999999999993676
 30
0.0
 11
125.999999999999801
 21
54.9999999999995026
 31
0.0
  0
LINE
  5
18790
  8
1
 10
126.9999999999991047
 20
58.7499999999993676
 30
0.0
 11
137.9999999999990905
 21
58.7499999999999503
 31
0.0
  0
LINE
  5
18791
  8
1
 10
132.4999999999990905
 20
53.2499999999999503
 30
0.0
 11
132.4999999999990905
 21
64.2499999999999574
 31
0.0
  0
LINE
  5
18792
  8
1
 10
125.999999999999801
 20
68.2499999999995026
 30
0.0
 11
125.9999999999995026
 21
79.7499999999995026
 31
0.0
  0
LINE
  5
18793
  8
1
 10
131.999999999999801
 20
68.4999999999997158
 30
0.0
 11
131.9999999999994884
 21
79.4999999999995026
 31
0.0
  0
LINE
  5
18794
  8
1
 10
137.4999999999994884
 20
73.99999999999973
 30
0.0
 11
120.2499999999996021
 21
73.9999999999993889
 31
0.0
  0
LINE
  5
18795
  8
1
 10
158.4999999999992895
 20
72.4999999999999432
 30
0.0
 11
149.4999999999992895
 21
72.4999999999999432
 31
0.0
  0
LINE
  5
18796
  8
1
 10
149.4999999999986073
 20
27.4999999999999503
 30
0.0
 11
158.4999999999984936
 21
27.4999999999999503
 31
0.0
  0
LINE
  5
18797
  8
1
 10
153.9999999999986073
 20
31.9999999999999503
 30
0.0
 11
153.9999999999986073
 21
22.9999999999999503
 31
0.0
  0
LINE
  5
18798
  8
1
 10
156.4999999999986926
 20
36.9999999999999503
 30
0.0
 11
143.4999999999988063
 21
36.9999999999999503
 31
0.0
  0
LINE
  5
18799
  8
1
 10
143.4999999999992895
 20
62.9999999999999503
 30
0.0
 11
156.4999999999992895
 21
62.9999999999999503
 31
0.0
  0
LINE
  5
1879A
  8
1
 10
153.9999999999992895
 20
76.9999999999999289
 30
0.0
 11
153.9999999999992895
 21
67.9999999999999574
 31
0.0
  0
CIRCLE
  5
1879B
  8
0
 10
167.999999999999801
 20
74.0000000000001137
 30
0.0
 40
2.066999999999998
  0
CIRCLE
  5
1879C
  8
0
 10
131.999999999999801
 20
73.9999999999996732
 30
0.0
 40
2.066999999999998
  0
CIRCLE
  5
1879D
  8
3
 10
132.5
 20
58.75
 30
0.0
 40
2.066999999999998
  0
CIRCLE
  5
1879E
  8
3
 10
167.5000000000003979
 20
58.7499999999997087
 30
0.0
 40
2.066999999999998
  0
CIRCLE
  5
1879F
  8
3
 10
167.5000000000007958
 20
41.2500000000001208
 30
0.0
 40
2.066999999999998
  0
CIRCLE
  5
187A0
  8
3
 10
132.5
 20
41.2500000000003908
 30
0.0
 40
2.066999999999998
  0
LINE
  5
187A1
  8
1
 10
137.9999999999996874
 20
235.4999999999990905
 30
0.0
 11
137.999999999999801
 21
226.9999999999988063
 31
0.0
  0
LINE
  5
187A2
  8
1
 10
161.9999999999996874
 20
235.4999999999990905
 30
0.0
 11
161.999999999999801
 21
226.9999999999992042
 31
0.0
  0
LINE
  5
187A3
  8
0
 10
120.0
 20
136.999999999999801
 30
0.0
 11
180.0
 21
136.999999999999801
 31
0.0
  0
LINE
  5
187A4
  8
2
 10
162.25
 20
133.9999999999575095
 30
0.0
 11
172.75
 21
133.999999999999801
 31
0.0
  0
LINE
  5
187A5
  8
1
 10
41.2499999999998792
 20
137.0
 30
0.0
 11
41.2499999999998792
 21
115.0000000000000995
 31
0.0
  0
LINE
  5
187A6
  8
3
 10
39.1829999999999927
 20
125.0
 30
0.0
 11
39.182999999999879
 21
118.0000000000000995
 31
0.0
  0
LINE
  5
187A7
  8
3
 10
43.3169999999998865
 20
125.0
 30
0.0
 11
43.3169999999998865
 21
118.0000000000000995
 31
0.0
  0
LINE
  5
187A8
  8
1
 10
58.7499999999996518
 20
137.000000000000199
 30
0.0
 11
58.7499999999996518
 21
115.0000000000002984
 31
0.0
  0
LINE
  5
187A9
  8
3
 10
56.6829999999997725
 20
125.000000000000199
 30
0.0
 11
56.6829999999996375
 21
118.0000000000002984
 31
0.0
  0
LINE
  5
187AA
  8
3
 10
60.816999999999652
 20
125.000000000000199
 30
0.0
 11
60.816999999999652
 21
118.0000000000002984
 31
0.0
  0
LINE
  5
187AB
  8
1
 10
132.5
 20
137.0000000000001137
 30
0.0
 11
132.5
 21
115.0000000000000995
 31
0.0
  0
LINE
  5
187AC
  8
3
 10
130.4329999999999927
 20
125.0000000000000995
 30
0.0
 11
130.4329999999999927
 21
118.0000000000000995
 31
0.0
  0
LINE
  5
187AD
  8
3
 10
134.5670000000000073
 20
125.0000000000000995
 30
0.0
 11
134.5670000000000073
 21
118.0000000000000995
 31
0.0
  0
LINE
  5
187AE
  8
1
 10
167.499999999999801
 20
137.0000000000001137
 30
0.0
 11
167.499999999999801
 21
115.0000000000000995
 31
0.0
  0
LINE
  5
187AF
  8
3
 10
165.4329999999999927
 20
125.0000000000000995
 30
0.0
 11
165.4329999999997938
 21
118.0000000000000995
 31
0.0
  0
LINE
  5
187B0
  8
3
 10
169.5669999999998083
 20
125.0000000000000995
 30
0.0
 11
169.5669999999998083
 21
118.0000000000000995
 31
0.0
  0
LINE
  5
187B1
  8
1
 10
241.2500000000001137
 20
137.0000000000001137
 30
0.0
 11
241.2500000000001137
 21
115.0000000000000995
 31
0.0
  0
LINE
  5
187B2
  8
3
 10
239.1830000000001917
 20
125.0
 30
0.0
 11
239.1830000000001917
 21
118.0000000000000995
 31
0.0
  0
LINE
  5
187B3
  8
3
 10
243.3170000000002062
 20
125.0
 30
0.0
 11
243.3170000000002062
 21
118.0000000000000995
 31
0.0
  0
LINE
  5
187B4
  8
1
 10
258.7500000000002842
 20
137.0000000000001137
 30
0.0
 11
258.7500000000002842
 21
115.000000000000199
 31
0.0
  0
LINE
  5
187B5
  8
3
 10
256.6830000000002769
 20
125.0000000000000995
 30
0.0
 11
256.6830000000002769
 21
118.000000000000199
 31
0.0
  0
LINE
  5
187B6
  8
3
 10
260.8170000000001778
 20
125.0000000000000995
 30
0.0
 11
260.8170000000001778
 21
118.000000000000199
 31
0.0
  0
LINE
  5
187B7
  8
1
 10
27.4999999999998899
 20
116.9999999999999005
 30
0.0
 11
27.4999999999998899
 21
132.999999999999801
 31
0.0
  0
LINE
  5
187B8
  8
1
 10
72.4999999999998721
 20
117.000000000000199
 30
0.0
 11
72.4999999999998721
 21
133.0000000000001137
 31
0.0
  0
LINE
  5
187B9
  8
1
 10
153.999999999999801
 20
116.9999999999999005
 30
0.0
 11
153.999999999999801
 21
132.999999999999801
 31
0.0
  0
LINE
  5
187BA
  8
1
 10
227.5
 20
117.0
 30
0.0
 11
227.5
 21
133.0
 31
0.0
  0
LINE
  5
187BB
  8
1
 10
272.5
 20
116.999999999999801
 30
0.0
 11
272.5
 21
132.999999999999801
 31
0.0
  0
LINE
  5
187BC
  8
1
 10
95.5999999999999233
 20
130.2500000000003126
 30
0.0
 11
77.0
 21
130.2500000000003126
 31
0.0
  0
LINE
  5
187BD
  8
1
 10
145.9000000000000057
 20
130.25
 30
0.0
 11
130.0999999999997954
 21
130.25
 31
0.0
  0
LINE
  5
187BE
  8
1
 10
138.0
 20
123.3499999999999943
 30
0.0
 11
138.000000000000199
 21
137.1500000000002046
 31
0.0
  0
LINE
  5
187BF
  8
1
 10
49.9999999999998934
 20
142.0
 30
0.0
 11
50.0
 21
120.0000000000000995
 31
0.0
  0
LINE
  5
187C0
  8
1
 10
150.0
 20
141.999999999999801
 30
0.0
 11
150.0000000000001137
 21
119.9999999999999005
 31
0.0
  0
LINE
  5
187C1
  8
1
 10
250.0
 20
141.999999999999801
 30
0.0
 11
250.0
 21
119.9999999999999005
 31
0.0
  0
LINE
  5
187C2
  8
1
 10
154.0999999999999943
 20
130.2500000000001137
 30
0.0
 11
169.9000000000002899
 21
130.2500000000003126
 31
0.0
  0
LINE
  5
187C3
  8
1
 10
162.000000000000199
 20
123.3500000000001933
 30
0.0
 11
161.9999999999996874
 21
137.1500000000004036
 31
0.0
  0
LINE
  5
187C4
  8
1
 10
223.0
 20
130.2500000000001137
 30
0.0
 11
204.4000000000002046
 21
130.2500000000001137
 31
0.0
  0
LINE
  5
187C5
  8
1
 10
285.5
 20
130.2500000000001137
 30
0.0
 11
277.0
 21
130.2500000000001137
 31
0.0
  0
LINE
  5
187C6
  8
0
 10
220.0
 20
136.999999999999801
 30
0.0
 11
280.0
 21
136.999999999999801
 31
0.0
  0
POLYLINE
  5
189E8
  8
0
 66
     1
 10
0.0
 20
0.0
 30
0.0
  0
VERTEX
  5
18FA0
  8
0
 10
150.0
 20
60.7500000000000071
 30
0.0
  0
VERTEX
  5
18FA1
  8
0
 10
149.9441327946603053
 20
60.7506929333242525
 30
0.0
  0
VERTEX
  5
18FA2
  8
0
 10
149.8884315978118025
 20
60.7527653630875619
 30
0.0
  0
VERTEX
  5
18FA3
  8
0
 10
149.8329194780239106
 20
60.7562077339758773
 30
0.0
  0
VERTEX
  5
18FA4
  8
0
 10
149.7776195038649973
 20
60.7610104906751403
 30
0.0
  0
VERTEX
  5
18FA5
  8
0
 10
149.7225547439039133
 20
60.767164077871243
 30
0.0
  0
VERTEX
  5
18FA6
  8
0
 10
149.6677482667097934
 20
60.7746589402500987
 30
0.0
  0
VERTEX
  5
18FA7
  8
0
 10
149.6132231408512041
 20
60.7834855224976494
 30
0.0
  0
VERTEX
  5
18FA8
  8
0
 10
149.5590024348971099
 20
60.7936342692998295
 30
0.0
  0
VERTEX
  5
18FA9
  8
0
 10
149.5051092174163045
 20
60.8050956253425312
 30
0.0
  0
VERTEX
  5
18FAA
  8
0
 10
149.4515665569776957
 20
60.8178600353116821
 30
0.0
  0
VERTEX
  5
18FAB
  8
0
 10
149.3983975221501055
 20
60.8319179438932096
 30
0.0
  0
VERTEX
  5
18FAC
  8
0
 10
149.3456251815024132
 20
60.8472597957730272
 30
0.0
  0
VERTEX
  5
18FAD
  8
0
 10
149.2932726036032136
 20
60.8638760356370696
 30
0.0
  0
VERTEX
  5
18FAE
  8
0
 10
149.2413628570216986
 20
60.8817571081712501
 30
0.0
  0
VERTEX
  5
18FAF
  8
0
 10
149.1899190103264061
 20
60.900893458061482
 30
0.0
  0
VERTEX
  5
18FB0
  8
0
 10
149.1389641320866133
 20
60.9212755299937001
 30
0.0
  0
VERTEX
  5
18FB1
  8
0
 10
149.0885212908706023
 20
60.942893768653839
 30
0.0
  0
VERTEX
  5
18FB2
  8
0
 10
149.0386135552475935
 20
60.9657386187277623
 30
0.0
  0
VERTEX
  5
18FB3
  8
0
 10
148.98926399378621
 20
60.9898005249014474
 30
0.0
  0
VERTEX
  5
18FB4
  8
0
 10
148.9404956750555016
 20
61.0150699318608076
 30
0.0
  0
VERTEX
  5
18FB5
  8
0
 10
148.8923316676242052
 20
61.0415372842917421
 30
0.0
  0
VERTEX
  5
18FB6
  8
0
 10
148.8447950400613138
 20
61.0691930268801926
 30
0.0
  0
VERTEX
  5
18FB7
  8
0
 10
148.7979088609353084
 20
61.0980276043120725
 30
0.0
  0
VERTEX
  5
18FB8
  8
0
 10
148.7516961988152104
 20
61.1280314612733022
 30
0.0
  0
VERTEX
  5
18FB9
  8
0
 10
148.7061801222700979
 20
61.1591950424498023
 30
0.0
  0
VERTEX
  5
18FBA
  8
0
 10
148.6613836998683951
 20
61.1915087925275003
 30
0.0
  0
VERTEX
  5
18FBB
  8
0
 10
148.6173300001792086
 20
61.2249631561923096
 30
0.0
  0
VERTEX
  5
18FBC
  8
0
 10
148.5740420917715028
 20
61.2595485781301221
 30
0.0
  0
VERTEX
  5
18FBD
  8
0
 10
148.5315430432137873
 20
61.2952555030269295
 30
0.0
  0
VERTEX
  5
18FBE
  8
0
 10
148.4898559230751971
 20
61.3320743755686024
 30
0.0
  0
VERTEX
  5
18FBF
  8
0
 10
148.4490037999244123
 20
61.3699956404410614
 30
0.0
  0
VERTEX
  5
18FC0
  8
0
 10
148.4090097423301984
 20
61.4090097423302623
 30
0.0
  0
VERTEX
  5
18FC1
  8
0
 10
148.3699956404408908
 20
61.4490037999243981
 30
0.0
  0
VERTEX
  5
18FC2
  8
0
 10
148.33207437556851
 20
61.4898559230752113
 30
0.0
  0
VERTEX
  5
18FC3
  8
0
 10
148.2952555030267945
 20
61.5315430432138868
 30
0.0
  0
VERTEX
  5
18FC4
  8
0
 10
148.2595485781301079
 20
61.5740420917715312
 30
0.0
  0
VERTEX
  5
18FC5
  8
0
 10
148.2249631561921888
 20
61.6173300001793365
 30
0.0
  0
VERTEX
  5
18FC6
  8
0
 10
148.1915087925274008
 20
61.661383699868459
 30
0.0
  0
VERTEX
  5
18FC7
  8
0
 10
148.1591950424497099
 20
61.7061801222700623
 30
0.0
  0
VERTEX
  5
18FC8
  8
0
 10
148.1280314612731956
 20
61.7516961988152602
 30
0.0
  0
VERTEX
  5
18FC9
  8
0
 10
148.098027604311909
 20
61.79790886093528
 30
0.0
  0
VERTEX
  5
18FCA
  8
0
 10
148.0691930268801002
 20
61.8447950400612001
 30
0.0
  0
VERTEX
  5
18FCB
  8
0
 10
148.0415372842915929
 20
61.8923316676242408
 30
0.0
  0
VERTEX
  5
18FCC
  8
0
 10
148.0150699318606939
 20
61.9404956750555584
 30
0.0
  0
VERTEX
  5
18FCD
  8
0
 10
147.9898005249013977
 20
61.989263993786281
 30
0.0
  0
VERTEX
  5
18FCE
  8
0
 10
147.9657386187276131
 20
62.0386135552475722
 30
0.0
  0
VERTEX
  5
18FCF
  8
0
 10
147.9428937686537893
 20
62.0885212908706308
 30
0.0
  0
VERTEX
  5
18FD0
  8
0
 10
147.9212755299936077
 20
62.1389641320865493
 30
0.0
  0
VERTEX
  5
18FD1
  8
0
 10
147.9008934580614039
 20
62.1899190103265411
 30
0.0
  0
VERTEX
  5
18FD2
  8
0
 10
147.8817571081712003
 20
62.2413628570217199
 30
0.0
  0
VERTEX
  5
18FD3
  8
0
 10
147.8638760356369062
 20
62.2932726036032776
 30
0.0
  0
VERTEX
  5
18FD4
  8
0
 10
147.8472597957729988
 20
62.3456251815023634
 30
0.0
  0
VERTEX
  5
18FD5
  8
0
 10
147.831917943893103
 20
62.3983975221501481
 30
0.0
  0
VERTEX
  5
18FD6
  8
0
 10
147.817860035311611
 20
62.4515665569777525
 30
0.0
  0
VERTEX
  5
18FD7
  8
0
 10
147.8050956253424033
 20
62.5051092174163685
 30
0.0
  0
VERTEX
  5
18FD8
  8
0
 10
147.7936342692997016
 20
62.5590024348971383
 30
0.0
  0
VERTEX
  5
18FD9
  8
0
 10
147.7834855224975001
 20
62.6132231408512325
 30
0.0
  0
VERTEX
  5
18FDA
  8
0
 10
147.7746589402501058
 20
62.6677482667097721
 30
0.0
  0
VERTEX
  5
18FDB
  8
0
 10
147.7671640778712003
 20
62.7225547439039772
 30
0.0
  0
VERTEX
  5
18FDC
  8
0
 10
147.7610104906750053
 20
62.7776195038649831
 30
0.0
  0
VERTEX
  5
18FDD
  8
0
 10
147.7562077339759128
 20
62.8329194780239106
 30
0.0
  0
VERTEX
  5
18FDE
  8
0
 10
147.7527653630874909
 20
62.8884315978119517
 30
0.0
  0
VERTEX
  5
18FDF
  8
0
 10
147.7506929333241885
 20
62.9441327946602627
 30
0.0
  0
VERTEX
  5
18FE0
  8
0
 10
147.75
 20
63.0
 30
0.0
  0
VERTEX
  5
18FE1
  8
0
 10
147.7506929333241885
 20
63.0558672053397231
 30
0.0
  0
VERTEX
  5
18FE2
  8
0
 10
147.7527653630874909
 20
63.1115684021880483
 30
0.0
  0
VERTEX
  5
18FE3
  8
0
 10
147.7562077339757138
 20
63.1670805219760894
 30
0.0
  0
VERTEX
  5
18FE4
  8
0
 10
147.7610104906750053
 20
63.2223804961350311
 30
0.0
  0
VERTEX
  5
18FE5
  8
0
 10
147.7671640778710866
 20
63.2774452560960228
 30
0.0
  0
VERTEX
  5
18FE6
  8
0
 10
147.7746589402499922
 20
63.3322517332902066
 30
0.0
  0
VERTEX
  5
18FE7
  8
0
 10
147.7834855224975001
 20
63.3867768591487675
 30
0.0
  0
VERTEX
  5
18FE8
  8
0
 10
147.7936342692997016
 20
63.4409975651028617
 30
0.0
  0
VERTEX
  5
18FE9
  8
0
 10
147.8050956253424033
 20
63.4948907825836315
 30
0.0
  0
VERTEX
  5
18FEA
  8
0
 10
147.817860035311611
 20
63.5484334430222333
 30
0.0
  0
VERTEX
  5
18FEB
  8
0
 10
147.831917943893103
 20
63.6016024778498519
 30
0.0
  0
VERTEX
  5
18FEC
  8
0
 10
147.8472597957729988
 20
63.6543748184976081
 30
0.0
  0
VERTEX
  5
18FED
  8
0
 10
147.8638760356369062
 20
63.7067273963967011
 30
0.0
  0
VERTEX
  5
18FEE
  8
0
 10
147.8817571081712003
 20
63.7586371429782517
 30
0.0
  0
VERTEX
  5
18FEF
  8
0
 10
147.9008934580614039
 20
63.8100809896734376
 30
0.0
  0
VERTEX
  5
18FF0
  8
0
 10
147.9212755299936077
 20
63.8610358679134222
 30
0.0
  0
VERTEX
  5
18FF1
  8
0
 10
147.9428937686537893
 20
63.9114787091293479
 30
0.0
  0
VERTEX
  5
18FF2
  8
0
 10
147.9657386187276984
 20
63.9613864447523923
 30
0.0
  0
VERTEX
  5
18FF3
  8
0
 10
147.9898005249013977
 20
64.0107360062136763
 30
0.0
  0
VERTEX
  5
18FF4
  8
0
 10
148.0150699318606939
 20
64.0595043249444132
 30
0.0
  0
VERTEX
  5
18FF5
  8
0
 10
148.0415372842917066
 20
64.1076683323757237
 30
0.0
  0
VERTEX
  5
18FF6
  8
0
 10
148.0691930268801002
 20
64.1552049599387715
 30
0.0
  0
VERTEX
  5
18FF7
  8
0
 10
148.0980276043119943
 20
64.20209113906472
 30
0.0
  0
VERTEX
  5
18FF8
  8
0
 10
148.1280314612733093
 20
64.2483038011847043
 30
0.0
  0
VERTEX
  5
18FF9
  8
0
 10
148.1591950424497099
 20
64.2938198777299306
 30
0.0
  0
VERTEX
  5
18FFA
  8
0
 10
148.1915087925274008
 20
64.3386163001315197
 30
0.0
  0
VERTEX
  5
18FFB
  8
0
 10
148.2249631561921888
 20
64.3826699998206493
 30
0.0
  0
VERTEX
  5
18FFC
  8
0
 10
148.2595485781301079
 20
64.4259579082284404
 30
0.0
  0
VERTEX
  5
18FFD
  8
0
 10
148.2952555030267945
 20
64.468456956786099
 30
0.0
  0
VERTEX
  5
18FFE
  8
0
 10
148.3320743755685953
 20
64.5101440769247603
 30
0.0
  0
VERTEX
  5
18FFF
  8
0
 10
148.3699956404408908
 20
64.5509962000755735
 30
0.0
  0
VERTEX
  5
19000
  8
0
 10
148.4090097423301984
 20
64.5909902576697306
 30
0.0
  0
VERTEX
  5
19001
  8
0
 10
148.4490037999244123
 20
64.6300043595589102
 30
0.0
  0
VERTEX
  5
19002
  8
0
 10
148.4898559230753108
 20
64.6679256244313905
 30
0.0
  0
VERTEX
  5
19003
  8
0
 10
148.5315430432139863
 20
64.7047444969730492
 30
0.0
  0
VERTEX
  5
19004
  8
0
 10
148.574042091771588
 20
64.7404514218698495
 30
0.0
  0
VERTEX
  5
19005
  8
0
 10
148.6173300001794075
 20
64.7750368438076976
 30
0.0
  0
VERTEX
  5
19006
  8
0
 10
148.6613836998685088
 20
64.8084912074725139
 30
0.0
  0
VERTEX
  5
19007
  8
0
 10
148.7061801222702115
 20
64.8408049575502048
 30
0.0
  0
VERTEX
  5
19008
  8
0
 10
148.7516961988152957
 20
64.8719685387267049
 30
0.0
  0
VERTEX
  5
19009
  8
0
 10
148.7979088609353937
 20
64.9019723956879346
 30
0.0
  0
VERTEX
  5
1900A
  8
0
 10
148.8447950400613138
 20
64.9308069731198145
 30
0.0
  0
VERTEX
  5
1900B
  8
0
 10
148.8923316676244042
 20
64.9584627157082508
 30
0.0
  0
VERTEX
  5
1900C
  8
0
 10
148.9404956750555868
 20
64.9849300681391924
 30
0.0
  0
VERTEX
  5
1900D
  8
0
 10
148.98926399378621
 20
65.0101994750985455
 30
0.0
  0
VERTEX
  5
1900E
  8
0
 10
149.0386135552477072
 20
65.0342613812722448
 30
0.0
  0
VERTEX
  5
1900F
  8
0
 10
149.0885212908706876
 20
65.0571062313461823
 30
0.0
  0
VERTEX
  5
19010
  8
0
 10
149.1389641320866133
 20
65.078724470006307
 30
0.0
  0
VERTEX
  5
19011
  8
0
 10
149.1899190103266051
 20
65.0991065419385393
 30
0.0
  0
VERTEX
  5
19012
  8
0
 10
149.2413628570218123
 20
65.118242891828757
 30
0.0
  0
VERTEX
  5
19013
  8
0
 10
149.2932726036034126
 20
65.1361239643629517
 30
0.0
  0
VERTEX
  5
19014
  8
0
 10
149.3456251815024132
 20
65.152740204226987
 30
0.0
  0
VERTEX
  5
19015
  8
0
 10
149.3983975221501908
 20
65.1680820561067833
 30
0.0
  0
VERTEX
  5
19016
  8
0
 10
149.4515665569778946
 20
65.1821399646883322
 30
0.0
  0
VERTEX
  5
19017
  8
0
 10
149.5051092174165035
 20
65.1949043746574972
 30
0.0
  0
VERTEX
  5
19018
  8
0
 10
149.5590024348971951
 20
65.2063657307001705
 30
0.0
  0
VERTEX
  5
19019
  8
0
 10
149.6132231408512041
 20
65.2165144775023577
 30
0.0
  0
VERTEX
  5
1901A
  8
0
 10
149.6677482667099071
 20
65.2253410597498942
 30
0.0
  0
VERTEX
  5
1901B
  8
0
 10
149.7225547439041122
 20
65.2328359221287997
 30
0.0
  0
VERTEX
  5
1901C
  8
0
 10
149.7776195038649973
 20
65.2389895093248811
 30
0.0
  0
VERTEX
  5
1901D
  8
0
 10
149.8329194780239959
 20
65.2437922660241156
 30
0.0
  0
VERTEX
  5
1901E
  8
0
 10
149.8884315978120867
 20
65.2472346369124523
 30
0.0
  0
VERTEX
  5
1901F
  8
0
 10
149.9441327946603906
 20
65.2493070666757689
 30
0.0
  0
VERTEX
  5
19020
  8
0
 10
150.0
 20
65.2500000000000142
 30
0.0
  0
SEQEND
  5
19021
  8
0
  0
POLYLINE
  5
189E9
  8
0
 66
     1
 10
0.0
 20
0.0
 30
0.0
  0
VERTEX
  5
19022
  8
0
 10
150.0
 20
65.2500000000000142
 30
0.0
  0
VERTEX
  5
19023
  8
0
 10
150.0580357248385894
 20
65.2492645334547916
 30
0.0
  0
VERTEX
  5
19024
  8
0
 10
150.1157115078923141
 20
65.2470699528755773
 30
0.0
  0
VERTEX
  5
19025
  8
0
 10
150.1730096205766074
 20
65.2434339868470232
 30
0.0
  0
VERTEX
  5
19026
  8
0
 10
150.2299123343065901
 20
65.2383743639538096
 30
0.0
  0
VERTEX
  5
19027
  8
0
 10
150.2864019204980082
 20
65.2319088127805742
 30
0.0
  0
VERTEX
  5
19028
  8
0
 10
150.3424606505658119
 20
65.2240550619120114
 30
0.0
  0
VERTEX
  5
19029
  8
0
 10
150.3980707959254914
 20
65.214830839932759
 30
0.0
  0
VERTEX
  5
1902A
  8
0
 10
150.4532146279923097
 20
65.2042538754274972
 30
0.0
  0
VERTEX
  5
1902B
  8
0
 10
150.5078744181815864
 20
65.1923418969808779
 30
0.0
  0
VERTEX
  5
1902C
  8
0
 10
150.5620324379086981
 20
65.179112633177553
 30
0.0
  0
VERTEX
  5
1902D
  8
0
 10
150.6156709585891065
 20
65.1645838126022596
 30
0.0
  0
VERTEX
  5
1902E
  8
0
 10
150.668772251637904
 20
65.1487731638395644
 30
0.0
  0
VERTEX
  5
1902F
  8
0
 10
150.7213185884706945
 20
65.131698415474176
 30
0.0
  0
VERTEX
  5
19030
  8
0
 10
150.7732922405025136
 20
65.1133772960907606
 30
0.0
  0
VERTEX
  5
19031
  8
0
 10
150.8246754791489934
 20
65.0938275342739843
 30
0.0
  0
VERTEX
  5
19032
  8
0
 10
150.875450575825397
 20
65.0730668586084988
 30
0.0
  0
VERTEX
  5
19033
  8
0
 10
150.9255998019469871
 20
65.0511129976789562
 30
0.0
  0
VERTEX
  5
19034
  8
0
 10
150.9751054289289129
 20
65.027983680070065
 30
0.0
  0
VERTEX
  5
19035
  8
0
 10
151.0239497281868921
 20
65.0036966343664488
 30
0.0
  0
VERTEX
  5
19036
  8
0
 10
151.0721149711361022
 20
64.9782695891527879
 30
0.0
  0
VERTEX
  5
19037
  8
0
 10
151.1195834291916924
 20
64.9517202730137342
 30
0.0
  0
VERTEX
  5
19038
  8
0
 10
151.166337373769295
 20
64.9240664145339537
 30
0.0
  0
VERTEX
  5
19039
  8
0
 10
151.2123590762840877
 20
64.8953257422981409
 30
0.0
  0
VERTEX
  5
1903A
  8
0
 10
151.2576308081515037
 20
64.8655159848909193
 30
0.0
  0
VERTEX
  5
1903B
  8
0
 10
151.3021348407866924
 20
64.8346548708969692
 30
0.0
  0
VERTEX
  5
1903C
  8
0
 10
151.345853445605087
 20
64.8027601289009425
 30
0.0
  0
VERTEX
  5
1903D
  8
0
 10
151.3887688940220926
 20
64.7698494874875195
 30
0.0
  0
VERTEX
  5
1903E
  8
0
 10
151.4308634574531141
 20
64.7359406752413662
 30
0.0
  0
VERTEX
  5
1903F
  8
0
 10
151.4721194073133006
 20
64.7010514207471346
 30
0.0
  0
VERTEX
  5
19040
  8
0
 10
151.5125190150178867
 20
64.6651994525894906
 30
0.0
  0
VERTEX
  5
19041
  8
0
 10
151.5520445519827035
 20
64.6284024993531006
 30
0.0
  0
VERTEX
  5
19042
  8
0
 10
151.5906782896225877
 20
64.5906782896226304
 30
0.0
  0
VERTEX
  5
19043
  8
0
 10
151.6284024993530863
 20
64.5520445519827319
 30
0.0
  0
VERTEX
  5
19044
  8
0
 10
151.6651994525894054
 20
64.5125190150180856
 30
0.0
  0
VERTEX
  5
19045
  8
0
 10
151.7010514207470067
 20
64.4721194073133432
 30
0.0
  0
VERTEX
  5
19046
  8
0
 10
151.7359406752412099
 20
64.4308634574531993
 30
0.0
  0
VERTEX
  5
19047
  8
0
 10
151.7698494874875053
 20
64.3887688940222489
 30
0.0
  0
VERTEX
  5
19048
  8
0
 10
151.8027601289007862
 20
64.3458534456052291
 30
0.0
  0
VERTEX
  5
19049
  8
0
 10
151.8346548708969124
 20
64.302134840786735
 30
0.0
  0
VERTEX
  5
1904A
  8
0
 10
151.8655159848908056
 20
64.2576308081515037
 30
0.0
  0
VERTEX
  5
1904B
  8
0
 10
151.895325742298013
 20
64.2123590762841587
 30
0.0
  0
VERTEX
  5
1904C
  8
0
 10
151.924066414533911
 20
64.1663373737693661
 30
0.0
  0
VERTEX
  5
1904D
  8
0
 10
151.9517202730137058
 20
64.1195834291917919
 30
0.0
  0
VERTEX
  5
1904E
  8
0
 10
151.9782695891526032
 20
64.0721149711361022
 30
0.0
  0
VERTEX
  5
1904F
  8
0
 10
152.0036966343664062
 20
64.0239497281869632
 30
0.0
  0
VERTEX
  5
19050
  8
0
 10
152.0279836800700082
 20
63.9751054289290124
 30
0.0
  0
VERTEX
  5
19051
  8
0
 10
152.0511129976788993
 20
63.9255998019469729
 30
0.0
  0
VERTEX
  5
19052
  8
0
 10
152.0730668586083141
 20
63.8754505758254467
 30
0.0
  0
VERTEX
  5
19053
  8
0
 10
152.0938275342739132
 20
63.8246754791491284
 30
0.0
  0
VERTEX
  5
19054
  8
0
 10
152.1133772960905901
 20
63.7732922405026699
 30
0.0
  0
VERTEX
  5
19055
  8
0
 10
152.1316984154740055
 20
63.7213185884707585
 30
0.0
  0
VERTEX
  5
19056
  8
0
 10
152.1487731638393939
 20
63.6687722516380106
 30
0.0
  0
VERTEX
  5
19057
  8
0
 10
152.1645838126021033
 20
63.6156709585891491
 30
0.0
  0
VERTEX
  5
19058
  8
0
 10
152.1791126331775104
 20
63.5620324379087904
 30
0.0
  0
VERTEX
  5
19059
  8
0
 10
152.1923418969807926
 20
63.5078744181816219
 30
0.0
  0
VERTEX
  5
1905A
  8
0
 10
152.2042538754274119
 20
63.4532146279923097
 30
0.0
  0
VERTEX
  5
1905B
  8
0
 10
152.2148308399326027
 20
63.3980707959254914
 30
0.0
  0
VERTEX
  5
1905C
  8
0
 10
152.2240550619119119
 20
63.3424606505658616
 30
0.0
  0
VERTEX
  5
1905D
  8
0
 10
152.2319088127804889
 20
63.2864019204980792
 30
0.0
  0
VERTEX
  5
1905E
  8
0
 10
152.2383743639537101
 20
63.2299123343068104
 30
0.0
  0
VERTEX
  5
1905F
  8
0
 10
152.243433986847009
 20
63.1730096205766927
 30
0.0
  0
VERTEX
  5
19060
  8
0
 10
152.2470699528755063
 20
63.1157115078924065
 30
0.0
  0
VERTEX
  5
19061
  8
0
 10
152.2492645334546921
 20
63.0580357248386179
 30
0.0
  0
VERTEX
  5
19062
  8
0
 10
152.25
 20
62.9999999999999716
 30
0.0
  0
VERTEX
  5
19063
  8
0
 10
152.2492645334548058
 20
62.9419642751613324
 30
0.0
  0
VERTEX
  5
19064
  8
0
 10
152.2470699528755063
 20
62.884288492107558
 30
0.0
  0
VERTEX
  5
19065
  8
0
 10
152.243433986847009
 20
62.8269903794232931
 30
0.0
  0
VERTEX
  5
19066
  8
0
 10
152.2383743639537101
 20
62.7700876656931612
 30
0.0
  0
VERTEX
  5
19067
  8
0
 10
152.2319088127806026
 20
62.713598079501871
 30
0.0
  0
VERTEX
  5
19068
  8
0
 10
152.2240550619119972
 20
62.6575393494340886
 30
0.0
  0
VERTEX
  5
19069
  8
0
 10
152.2148308399328016
 20
62.6019292040744588
 30
0.0
  0
VERTEX
  5
1906A
  8
0
 10
152.2042538754274119
 20
62.5467853720076477
 30
0.0
  0
VERTEX
  5
1906B
  8
0
 10
152.1923418969809063
 20
62.4921255818183425
 30
0.0
  0
VERTEX
  5
1906C
  8
0
 10
152.1791126331775104
 20
62.4379675620911883
 30
0.0
  0
VERTEX
  5
1906D
  8
0
 10
152.1645838126021033
 20
62.3843290414108083
 30
0.0
  0
VERTEX
  5
1906E
  8
0
 10
152.1487731638393939
 20
62.3312277483619468
 30
0.0
  0
VERTEX
  5
1906F
  8
0
 10
152.1316984154740055
 20
62.2786814115292131
 30
0.0
  0
VERTEX
  5
19070
  8
0
 10
152.1133772960907891
 20
62.2267077594973017
 30
0.0
  0
VERTEX
  5
19071
  8
0
 10
152.0938275342739132
 20
62.1753245208508432
 30
0.0
  0
VERTEX
  5
19072
  8
0
 10
152.073066858608513
 20
62.1245494241745106
 30
0.0
  0
VERTEX
  5
19073
  8
0
 10
152.0511129976788993
 20
62.0744001980529987
 30
0.0
  0
VERTEX
  5
19074
  8
0
 10
152.0279836800700082
 20
62.0248945710709521
 30
0.0
  0
VERTEX
  5
19075
  8
0
 10
152.0036966343664062
 20
61.9760502718130013
 30
0.0
  0
VERTEX
  5
19076
  8
0
 10
151.9782695891526032
 20
61.9278850288638623
 30
0.0
  0
VERTEX
  5
19077
  8
0
 10
151.9517202730137058
 20
61.8804165708081797
 30
0.0
  0
VERTEX
  5
19078
  8
0
 10
151.924066414533911
 20
61.8336626262305984
 30
0.0
  0
VERTEX
  5
19079
  8
0
 10
151.8953257422980982
 20
61.7876409237158128
 30
0.0
  0
VERTEX
  5
1907A
  8
0
 10
151.8655159848908056
 20
61.7423691918484607
 30
0.0
  0
VERTEX
  5
1907B
  8
0
 10
151.8346548708969124
 20
61.6978651592132223
 30
0.0
  0
VERTEX
  5
1907C
  8
0
 10
151.8027601289007862
 20
61.6541465543947709
 30
0.0
  0
VERTEX
  5
1907D
  8
0
 10
151.7698494874875053
 20
61.6112311059777369
 30
0.0
  0
VERTEX
  5
1907E
  8
0
 10
151.7359406752412099
 20
61.5691365425468007
 30
0.0
  0
VERTEX
  5
1907F
  8
0
 10
151.7010514207470067
 20
61.5278805926866283
 30
0.0
  0
VERTEX
  5
19080
  8
0
 10
151.6651994525894054
 20
61.4874809849819002
 30
0.0
  0
VERTEX
  5
19081
  8
0
 10
151.6284024993530863
 20
61.4479554480172467
 30
0.0
  0
VERTEX
  5
19082
  8
0
 10
151.5906782896225877
 20
61.4093217103773625
 30
0.0
  0
VERTEX
  5
19083
  8
0
 10
151.5520445519827035
 20
61.3715975006468923
 30
0.0
  0
VERTEX
  5
19084
  8
0
 10
151.5125190150178867
 20
61.334800547410488
 30
0.0
  0
VERTEX
  5
19085
  8
0
 10
151.4721194073133006
 20
61.2989485792528512
 30
0.0
  0
VERTEX
  5
19086
  8
0
 10
151.4308634574531141
 20
61.2640593247586125
 30
0.0
  0
VERTEX
  5
19087
  8
0
 10
151.3887688940220926
 20
61.2301505125124734
 30
0.0
  0
VERTEX
  5
19088
  8
0
 10
151.345853445605087
 20
61.1972398710990433
 30
0.0
  0
VERTEX
  5
19089
  8
0
 10
151.3021348407866924
 20
61.1653451291030379
 30
0.0
  0
VERTEX
  5
1908A
  8
0
 10
151.2576308081515037
 20
61.1344840151090807
 30
0.0
  0
VERTEX
  5
1908B
  8
0
 10
151.2123590762840877
 20
61.1046742577018591
 30
0.0
  0
VERTEX
  5
1908C
  8
0
 10
151.166337373769295
 20
61.0759335854660321
 30
0.0
  0
VERTEX
  5
1908D
  8
0
 10
151.1195834291916924
 20
61.0482797269862516
 30
0.0
  0
VERTEX
  5
1908E
  8
0
 10
151.0721149711361022
 20
61.0217304108472121
 30
0.0
  0
VERTEX
  5
1908F
  8
0
 10
151.0239497281868921
 20
60.9963033656335583
 30
0.0
  0
VERTEX
  5
19090
  8
0
 10
150.9751054289289129
 20
60.9720163199299421
 30
0.0
  0
VERTEX
  5
19091
  8
0
 10
150.9255998019469018
 20
60.9488870023210367
 30
0.0
  0
VERTEX
  5
19092
  8
0
 10
150.875450575825397
 20
60.9269331413915083
 30
0.0
  0
VERTEX
  5
19093
  8
0
 10
150.8246754791489934
 20
60.9061724657260299
 30
0.0
  0
VERTEX
  5
19094
  8
0
 10
150.7732922405025136
 20
60.8866227039092465
 30
0.0
  0
VERTEX
  5
19095
  8
0
 10
150.7213185884706945
 20
60.8683015845258382
 30
0.0
  0
VERTEX
  5
19096
  8
0
 10
150.668772251637904
 20
60.8512268361604498
 30
0.0
  0
VERTEX
  5
19097
  8
0
 10
150.6156709585891065
 20
60.8354161873977688
 30
0.0
  0
VERTEX
  5
19098
  8
0
 10
150.5620324379086981
 20
60.8208873668224399
 30
0.0
  0
VERTEX
  5
19099
  8
0
 10
150.5078744181815864
 20
60.8076581030191292
 30
0.0
  0
VERTEX
  5
1909A
  8
0
 10
150.4532146279923097
 20
60.795746124572517
 30
0.0
  0
VERTEX
  5
1909B
  8
0
 10
150.3980707959254914
 20
60.7851691600672623
 30
0.0
  0
VERTEX
  5
1909C
  8
0
 10
150.3424606505658119
 20
60.7759449380880312
 30
0.0
  0
VERTEX
  5
1909D
  8
0
 10
150.2864019204980082
 20
60.76809118721944
 30
0.0
  0
VERTEX
  5
1909E
  8
0
 10
150.2299123343067038
 20
60.7616256360461975
 30
0.0
  0
VERTEX
  5
1909F
  8
0
 10
150.1730096205766074
 20
60.756566013152991
 30
0.0
  0
VERTEX
  5
190A0
  8
0
 10
150.1157115078923994
 20
60.7529300471244369
 30
0.0
  0
VERTEX
  5
190A1
  8
0
 10
150.0580357248385894
 20
60.7507354665452226
 30
0.0
  0
VERTEX
  5
190A2
  8
0
 10
150.0
 20
60.7500000000000071
 30
0.0
  0
SEQEND
  5
190A3
  8
0
  0
POLYLINE
  5
189EA
  8
0
 66
     1
 10
0.0
 20
0.0
 30
0.0
  0
VERTEX
  5
190A4
  8
0
 10
150.0
 20
65.8499999999999801
 30
0.0
  0
VERTEX
  5
190A5
  8
0
 10
149.9292348732363109
 20
65.8491222844559303
 30
0.0
  0
VERTEX
  5
190A6
  8
0
 10
149.85868002389509
 20
65.8464972067557426
 30
0.0
  0
VERTEX
  5
190A7
  8
0
 10
149.7883646721635102
 20
65.8421368702972103
 30
0.0
  0
VERTEX
  5
190A8
  8
0
 10
149.7183180382288015
 20
65.836053378478141
 30
0.0
  0
VERTEX
  5
190A9
  8
0
 10
149.6485693422783925
 20
65.8282588346964133
 30
0.0
  0
VERTEX
  5
190AA
  8
0
 10
149.5791478044990015
 20
65.8187653423498489
 30
0.0
  0
VERTEX
  5
190AB
  8
0
 10
149.5100826450781994
 20
65.8075850048362696
 30
0.0
  0
VERTEX
  5
190AC
  8
0
 10
149.4414030842029888
 20
65.7947299255535398
 30
0.0
  0
VERTEX
  5
190AD
  8
0
 10
149.3731383420605994
 20
65.7802122078994387
 30
0.0
  0
VERTEX
  5
190AE
  8
0
 10
149.3053176388384031
 20
65.764043955271859
 30
0.0
  0
VERTEX
  5
190AF
  8
0
 10
149.2379701947234878
 20
65.7462372710685941
 30
0.0
  0
VERTEX
  5
190B0
  8
0
 10
149.1711252299029127
 20
65.7268042586874799
 30
0.0
  0
VERTEX
  5
190B1
  8
0
 10
149.1048119645641066
 20
65.7057570215263809
 30
0.0
  0
VERTEX
  5
190B2
  8
0
 10
149.0390596188941004
 20
65.6831076629830761
 30
0.0
  0
VERTEX
  5
190B3
  8
0
 10
148.9738974130802944
 20
65.6588682864554301
 30
0.0
  0
VERTEX
  5
190B4
  8
0
 10
148.909354567309606
 20
65.6330509953412928
 30
0.0
  0
VERTEX
  5
190B5
  8
0
 10
148.8454603017694069
 20
65.605667893038472
 30
0.0
  0
VERTEX
  5
190B6
  8
0
 10
148.7822438366468987
 20
65.5767310829448178
 30
0.0
  0
VERTEX
  5
190B7
  8
0
 10
148.7197343921291974
 20
65.5462526684581377
 30
0.0
  0
VERTEX
  5
190B8
  8
0
 10
148.6579611884035899
 20
65.5142447529762961
 30
0.0
  0
VERTEX
  5
190B9
  8
0
 10
148.5969534456573911
 20
65.4807194398971006
 30
0.0
  0
VERTEX
  5
190BA
  8
0
 10
148.5367403840774045
 20
65.445688832618373
 30
0.0
  0
VERTEX
  5
190BB
  8
0
 10
148.4773512238512012
 20
65.409165034538006
 30
0.0
  0
VERTEX
  5
190BC
  8
0
 10
148.418815185165812
 20
65.3711601490538072
 30
0.0
  0
VERTEX
  5
190BD
  8
0
 10
148.361161488208694
 20
65.3316862795635558
 30
0.0
  0
VERTEX
  5
190BE
  8
0
 10
148.3044193531667077
 20
65.2907555294651445
 30
0.0
  0
VERTEX
  5
190BF
  8
0
 10
148.2486180002271965
 20
65.2483800021564093
 30
0.0
  0
VERTEX
  5
190C0
  8
0
 10
148.1937866495773051
 20
65.2045718010351152
 30
0.0
  0
VERTEX
  5
190C1
  8
0
 10
148.1399545214042064
 20
65.1593430294991833
 30
0.0
  0
VERTEX
  5
190C2
  8
0
 10
148.0871508358951019
 20
65.1127057909464213
 30
0.0
  0
VERTEX
  5
190C3
  8
0
 10
148.0354048132375908
 20
65.0646721887746367
 30
0.0
  0
VERTEX
  5
190C4
  8
0
 10
147.9847456736183062
 20
65.0152543263816511
 30
0.0
  0
VERTEX
  5
190C5
  8
0
 10
147.9353278112253918
 20
64.9645951867624092
 30
0.0
  0
VERTEX
  5
190C6
  8
0
 10
147.8872942090536071
 20
64.912849164104685
 30
0.0
  0
VERTEX
  5
190C7
  8
0
 10
147.840656970500703
 20
64.8600454785957226
 30
0.0
  0
VERTEX
  5
190C8
  8
0
 10
147.7954281989649132
 20
64.8062133504226807
 30
0.0
  0
VERTEX
  5
190C9
  8
0
 10
147.7516199978437044
 20
64.7513819997728035
 30
0.0
  0
VERTEX
  5
190CA
  8
0
 10
147.7092444705349124
 20
64.6955806468332497
 30
0.0
  0
VERTEX
  5
190CB
  8
0
 10
147.6683137204364016
 20
64.6388385117912492
 30
0.0
  0
VERTEX
  5
190CC
  8
0
 10
147.6288398509462922
 20
64.5811848148339749
 30
0.0
  0
VERTEX
  5
190CD
  8
0
 10
147.590834965461994
 20
64.5226487761486283
 30
0.0
  0
VERTEX
  5
190CE
  8
0
 10
147.5543111673817123
 20
64.4632596159224249
 30
0.0
  0
VERTEX
  5
190CF
  8
0
 10
147.5192805601029136
 20
64.4030465543425805
 30
0.0
  0
VERTEX
  5
190D0
  8
0
 10
147.4857552470238033
 20
64.3420388115962538
 30
0.0
  0
VERTEX
  5
190D1
  8
0
 10
147.4537473315419049
 20
64.2802656078706605
 30
0.0
  0
VERTEX
  5
190D2
  8
0
 10
147.4232689170551964
 20
64.2177561633530161
 30
0.0
  0
VERTEX
  5
190D3
  8
0
 10
147.3943321069615138
 20
64.1545396982305078
 30
0.0
  0
VERTEX
  5
190D4
  8
0
 10
147.366949004658693
 20
64.090645432690323
 30
0.0
  0
VERTEX
  5
190D5
  8
0
 10
147.3411317135445984
 20
64.0261025869196772
 30
0.0
  0
VERTEX
  5
190D6
  8
0
 10
147.3168923370168955
 20
63.9609403811057575
 30
0.0
  0
VERTEX
  5
190D7
  8
0
 10
147.2942429784737044
 20
63.8951880354357868
 30
0.0
  0
VERTEX
  5
190D8
  8
0
 10
147.2731957413124917
 20
63.8288747700969523
 30
0.0
  0
VERTEX
  5
190D9
  8
0
 10
147.2537627289312923
 20
63.7620298052764412
 30
0.0
  0
VERTEX
  5
190DA
  8
0
 10
147.2359560447281126
 20
63.6946823611614619
 30
0.0
  0
VERTEX
  5
190DB
  8
0
 10
147.2197877921005045
 20
63.626861657939223
 30
0.0
  0
VERTEX
  5
190DC
  8
0
 10
147.2052700744465028
 20
63.5585969157969117
 30
0.0
  0
VERTEX
  5
190DD
  8
0
 10
147.1924149951636878
 20
63.4899173549217295
 30
0.0
  0
VERTEX
  5
190DE
  8
0
 10
147.181234657650208
 20
63.4208521955008919
 30
0.0
  0
VERTEX
  5
190DF
  8
0
 10
147.1717411653035867
 20
63.351430657721572
 30
0.0
  0
VERTEX
  5
190E0
  8
0
 10
147.1639466215218022
 20
63.2816819617709925
 30
0.0
  0
VERTEX
  5
190E1
  8
0
 10
147.1578631297028039
 20
63.2116353278363405
 30
0.0
  0
VERTEX
  5
190E2
  8
0
 10
147.1535027932440869
 20
63.1413199761048105
 30
0.0
  0
VERTEX
  5
190E3
  8
0
 10
147.1508777155441123
 20
63.070765126763618
 30
0.0
  0
VERTEX
  5
190E4
  8
0
 10
147.1499999999998067
 20
62.9999999999999503
 30
0.0
  0
VERTEX
  5
190E5
  8
0
 10
147.1508777155441123
 20
62.9292348732362683
 30
0.0
  0
VERTEX
  5
190E6
  8
0
 10
147.1535027932440869
 20
62.85868002389509
 30
0.0
  0
VERTEX
  5
190E7
  8
0
 10
147.1578631297028039
 20
62.7883646721635813
 30
0.0
  0
VERTEX
  5
190E8
  8
0
 10
147.1639466215218022
 20
62.7183180382289009
 30
0.0
  0
VERTEX
  5
190E9
  8
0
 10
147.1717411653035867
 20
62.6485693422783214
 30
0.0
  0
VERTEX
  5
190EA
  8
0
 10
147.181234657650208
 20
62.5791478044990228
 30
0.0
  0
VERTEX
  5
190EB
  8
0
 10
147.1924149951636878
 20
62.510082645078171
 30
0.0
  0
VERTEX
  5
190EC
  8
0
 10
147.2052700744465028
 20
62.4414030842029888
 30
0.0
  0
VERTEX
  5
190ED
  8
0
 10
147.2197877921005045
 20
62.3731383420606775
 30
0.0
  0
VERTEX
  5
190EE
  8
0
 10
147.2359560447281126
 20
62.3053176388384529
 30
0.0
  0
VERTEX
  5
190EF
  8
0
 10
147.2537627289312923
 20
62.2379701947234807
 30
0.0
  0
VERTEX
  5
190F0
  8
0
 10
147.2731957413124917
 20
62.1711252299029766
 30
0.0
  0
VERTEX
  5
190F1
  8
0
 10
147.2942429784737044
 20
62.1048119645641492
 30
0.0
  0
VERTEX
  5
190F2
  8
0
 10
147.3168923370168955
 20
62.0390596188941785
 30
0.0
  0
VERTEX
  5
190F3
  8
0
 10
147.3411317135445984
 20
61.9738974130802589
 30
0.0
  0
VERTEX
  5
190F4
  8
0
 10
147.366949004658693
 20
61.9093545673096202
 30
0.0
  0
VERTEX
  5
190F5
  8
0
 10
147.3943321069615138
 20
61.8454603017694566
 30
0.0
  0
VERTEX
  5
190F6
  8
0
 10
147.4232689170551964
 20
61.7822438366469271
 30
0.0
  0
VERTEX
  5
190F7
  8
0
 10
147.4537473315419049
 20
61.7197343921292898
 30
0.0
  0
VERTEX
  5
190F8
  8
0
 10
147.4857552470238033
 20
61.6579611884037178
 30
0.0
  0
VERTEX
  5
190F9
  8
0
 10
147.5192805601029136
 20
61.5969534456573982
 30
0.0
  0
VERTEX
  5
190FA
  8
0
 10
147.5543111673817123
 20
61.5367403840775324
 30
0.0
  0
VERTEX
  5
190FB
  8
0
 10
147.590834965461994
 20
61.4773512238513504
 30
0.0
  0
VERTEX
  5
190FC
  8
0
 10
147.6288398509462922
 20
61.4188151851659967
 30
0.0
  0
VERTEX
  5
190FD
  8
0
 10
147.6683137204364016
 20
61.3611614882087508
 30
0.0
  0
VERTEX
  5
190FE
  8
0
 10
147.7092444705349124
 20
61.3044193531667503
 30
0.0
  0
VERTEX
  5
190FF
  8
0
 10
147.7516199978437044
 20
61.2486180002271894
 30
0.0
  0
VERTEX
  5
19100
  8
0
 10
147.7954281989649132
 20
61.1937866495772909
 30
0.0
  0
VERTEX
  5
19101
  8
0
 10
147.840656970500703
 20
61.1399545214042774
 30
0.0
  0
VERTEX
  5
19102
  8
0
 10
147.8872942090536071
 20
61.0871508358953008
 30
0.0
  0
VERTEX
  5
19103
  8
0
 10
147.9353278112253918
 20
61.0354048132375908
 30
0.0
  0
VERTEX
  5
19104
  8
0
 10
147.9847456736183062
 20
60.9847456736183275
 30
0.0
  0
VERTEX
  5
19105
  8
0
 10
148.0354048132375056
 20
60.9353278112253633
 30
0.0
  0
VERTEX
  5
19106
  8
0
 10
148.0871508358951019
 20
60.8872942090535503
 30
0.0
  0
VERTEX
  5
19107
  8
0
 10
148.1399545214040927
 20
60.8406569705007598
 30
0.0
  0
VERTEX
  5
19108
  8
0
 10
148.1937866495771914
 20
60.795428198964828
 30
0.0
  0
VERTEX
  5
19109
  8
0
 10
148.2486180002271112
 20
60.7516199978435623
 30
0.0
  0
VERTEX
  5
1910A
  8
0
 10
148.304419353166594
 20
60.7092444705348129
 30
0.0
  0
VERTEX
  5
1910B
  8
0
 10
148.3611614882086087
 20
60.6683137204363874
 30
0.0
  0
VERTEX
  5
1910C
  8
0
 10
148.418815185165812
 20
60.6288398509461572
 30
0.0
  0
VERTEX
  5
1910D
  8
0
 10
148.4773512238512012
 20
60.59083496546193
 30
0.0
  0
VERTEX
  5
1910E
  8
0
 10
148.5367403840772909
 20
60.5543111673815488
 30
0.0
  0
VERTEX
  5
1910F
  8
0
 10
148.5969534456573058
 20
60.5192805601028567
 30
0.0
  0
VERTEX
  5
19110
  8
0
 10
148.6579611884035046
 20
60.4857552470236683
 30
0.0
  0
VERTEX
  5
19111
  8
0
 10
148.7197343921291122
 20
60.4537473315418126
 30
0.0
  0
VERTEX
  5
19112
  8
0
 10
148.782243836646586
 20
60.4232689170551325
 30
0.0
  0
VERTEX
  5
19113
  8
0
 10
148.8454603017692079
 20
60.3943321069614925
 30
0.0
  0
VERTEX
  5
19114
  8
0
 10
148.909354567309407
 20
60.3669490046586574
 30
0.0
  0
VERTEX
  5
19115
  8
0
 10
148.9738974130800102
 20
60.3411317135445202
 30
0.0
  0
VERTEX
  5
19116
  8
0
 10
149.0390596188939867
 20
60.3168923370168812
 30
0.0
  0
VERTEX
  5
19117
  8
0
 10
149.1048119645639929
 20
60.2942429784735907
 30
0.0
  0
VERTEX
  5
19118
  8
0
 10
149.1711252299027137
 20
60.2731957413124704
 30
0.0
  0
VERTEX
  5
19119
  8
0
 10
149.2379701947234025
 20
60.2537627289313704
 30
0.0
  0
VERTEX
  5
1911A
  8
0
 10
149.3053176388382042
 20
60.2359560447280913
 30
0.0
  0
VERTEX
  5
1911B
  8
0
 10
149.3731383420605141
 20
60.2197877921004903
 30
0.0
  0
VERTEX
  5
1911C
  8
0
 10
149.4414030842029035
 20
60.2052700744464104
 30
0.0
  0
VERTEX
  5
1911D
  8
0
 10
149.5100826450781142
 20
60.1924149951636593
 30
0.0
  0
VERTEX
  5
1911E
  8
0
 10
149.5791478044988878
 20
60.1812346576500801
 30
0.0
  0
VERTEX
  5
1911F
  8
0
 10
149.6485693422783072
 20
60.1717411653035299
 30
0.0
  0
VERTEX
  5
19120
  8
0
 10
149.7183180382286878
 20
60.1639466215218022
 30
0.0
  0
VERTEX
  5
19121
  8
0
 10
149.7883646721633113
 20
60.1578631297027613
 30
0.0
  0
VERTEX
  5
19122
  8
0
 10
149.8586800238950048
 20
60.1535027932442219
 30
0.0
  0
VERTEX
  5
19123
  8
0
 10
149.929234873236112
 20
60.1508777155440129
 30
0.0
  0
VERTEX
  5
19124
  8
0
 10
150.0
 20
60.1499999999999702
 30
0.0
  0
SEQEND
  5
19125
  8
0
  0
POLYLINE
  5
189EB
  8
0
 66
     1
 10
0.0
 20
0.0
 30
0.0
  0
VERTEX
  5
19126
  8
0
 10
150.0
 20
60.1499999999999702
 30
0.0
  0
VERTEX
  5
19127
  8
0
 10
150.0735119181289008
 20
60.1509315909572706
 30
0.0
  0
VERTEX
  5
19128
  8
0
 10
150.1465679099970885
 20
60.1537113930242668
 30
0.0
  0
VERTEX
  5
19129
  8
0
 10
150.2191455193971024
 20
60.1583169499937469
 30
0.0
  0
VERTEX
  5
1912A
  8
0
 10
150.2912222901219081
 20
60.164725805658513
 30
0.0
  0
VERTEX
  5
1912B
  8
0
 10
150.3627757659643009
 20
60.172915503811268
 30
0.0
  0
VERTEX
  5
1912C
  8
0
 10
150.4337834907167917
 20
60.1828635882447927
 30
0.0
  0
VERTEX
  5
1912D
  8
0
 10
150.5042230081722892
 20
60.1945476027518325
 30
0.0
  0
VERTEX
  5
1912E
  8
0
 10
150.5740718621235033
 20
60.2079450911251683
 30
0.0
  0
VERTEX
  5
1912F
  8
0
 10
150.6433075963633996
 20
60.2230335971575315
 30
0.0
  0
VERTEX
  5
19130
  8
0
 10
150.7119077546844039
 20
60.2397906646417312
 30
0.0
  0
VERTEX
  5
19131
  8
0
 10
150.7798498808795955
 20
60.2581938373704702
 30
0.0
  0
VERTEX
  5
19132
  8
0
 10
150.8471115187415137
 20
60.2782206591365295
 30
0.0
  0
VERTEX
  5
19133
  8
0
 10
150.9136702120628968
 20
60.2998486737326829
 30
0.0
  0
VERTEX
  5
19134
  8
0
 10
150.9795035046367104
 20
60.3230554249516828
 30
0.0
  0
VERTEX
  5
19135
  8
0
 10
151.0445889402556077
 20
60.3478184565862676
 30
0.0
  0
VERTEX
  5
19136
  8
0
 10
151.1089040627122131
 20
60.3741153124292111
 30
0.0
  0
VERTEX
  5
19137
  8
0
 10
151.1724264157994071
 20
60.4019235362732871
 30
0.0
  0
VERTEX
  5
19138
  8
0
 10
151.2351335433100132
 20
60.4312206719112197
 30
0.0
  0
VERTEX
  5
19139
  8
0
 10
151.2970029890367982
 20
60.4619842631358111
 30
0.0
  0
VERTEX
  5
1913A
  8
0
 10
151.3580122967723014
 20
60.4941918537397711
 30
0.0
  0
VERTEX
  5
1913B
  8
0
 10
151.4181390103096021
 20
60.5278209875159234
 30
0.0
  0
VERTEX
  5
1913C
  8
0
 10
151.4773606734412112
 20
60.5628492082569565
 30
0.0
  0
VERTEX
  5
1913D
  8
0
 10
151.5356548299600092
 20
60.5992540597556726
 30
0.0
  0
VERTEX
  5
1913E
  8
0
 10
151.592999023658507
 20
60.63701308580481
 30
0.0
  0
VERTEX
  5
1913F
  8
0
 10
151.6493707983298975
 20
60.6761038301971425
 30
0.0
  0
VERTEX
  5
19140
  8
0
 10
151.7047476977666065
 20
60.716503836725451
 30
0.0
  0
VERTEX
  5
19141
  8
0
 10
151.7591072657614859
 20
60.7581906491824526
 30
0.0
  0
VERTEX
  5
19142
  8
0
 10
151.8124270461073024
 20
60.8011418113609068
 30
0.0
  0
VERTEX
  5
19143
  8
0
 10
151.8646845825967944
 20
60.8453348670535874
 30
0.0
  0
VERTEX
  5
19144
  8
0
 10
151.9158574190228137
 20
60.8907473600532896
 30
0.0
  0
VERTEX
  5
19145
  8
0
 10
151.9659230991780987
 20
60.937356834152709
 30
0.0
  0
VERTEX
  5
19146
  8
0
 10
152.0148591668553024
 20
60.9851408331446621
 30
0.0
  0
VERTEX
  5
19147
  8
0
 10
152.0626431658471915
 20
61.0340769008218516
 30
0.0
  0
VERTEX
  5
19148
  8
0
 10
152.1092526399467033
 20
61.0841425809770726
 30
0.0
  0
VERTEX
  5
19149
  8
0
 10
152.1546651329464055
 20
61.1353154174030706
 30
0.0
  0
VERTEX
  5
1914A
  8
0
 10
152.1988581886390079
 20
61.1875729538926123
 30
0.0
  0
VERTEX
  5
1914B
  8
0
 10
152.2418093508175048
 20
61.2408927342384786
 30
0.0
  0
VERTEX
  5
1914C
  8
0
 10
152.2834961632744921
 20
61.2952523022333722
 30
0.0
  0
VERTEX
  5
1914D
  8
0
 10
152.3238961698029073
 20
61.3506292016700883
 30
0.0
  0
VERTEX
  5
1914E
  8
0
 10
152.3629869141952042
 20
61.4070009763414006
 30
0.0
  0
VERTEX
  5
1914F
  8
0
 10
152.4007459402442066
 20
61.4643451700400618
 30
0.0
  0
VERTEX
  5
19150
  8
0
 10
152.4371507917431074
 20
61.522639326558803
 30
0.0
  0
VERTEX
  5
19151
  8
0
 10
152.4721790124839913
 20
61.5818609896903766
 30
0.0
  0
VERTEX
  5
19152
  8
0
 10
152.5058081462601081
 20
61.6419877032275991
 30
0.0
  0
VERTEX
  5
19153
  8
0
 10
152.5380157368641107
 20
61.7029970109631734
 30
0.0
  0
VERTEX
  5
19154
  8
0
 10
152.5687793280887945
 20
61.7648664566898873
 30
0.0
  0
VERTEX
  5
19155
  8
0
 10
152.5980764637266134
 20
61.8275735842005005
 30
0.0
  0
VERTEX
  5
19156
  8
0
 10
152.6258846875705899
 20
61.8910959372877585
 30
0.0
  0
VERTEX
  5
19157
  8
0
 10
152.6521815434136897
 20
61.9554110597444208
 30
0.0
  0
VERTEX
  5
19158
  8
0
 10
152.6769445750483101
 20
62.0204964953632683
 30
0.0
  0
VERTEX
  5
19159
  8
0
 10
152.7001513262673029
 20
62.0863297879370535
 30
0.0
  0
VERTEX
  5
1915A
  8
0
 10
152.7217793408632929
 20
62.1528884812584934
 30
0.0
  0
VERTEX
  5
1915B
  8
0
 10
152.7418061626295867
 20
62.2201501191204116
 30
0.0
  0
VERTEX
  5
1915C
  8
0
 10
152.760209335358212
 20
62.2880922453155179
 30
0.0
  0
VERTEX
  5
1915D
  8
0
 10
152.7769664028425041
 20
62.3566924036365933
 30
0.0
  0
VERTEX
  5
1915E
  8
0
 10
152.7920549088748885
 20
62.4259281378763973
 30
0.0
  0
VERTEX
  5
1915F
  8
0
 10
152.8054523972481888
 20
62.4957769918276824
 30
0.0
  0
VERTEX
  5
19160
  8
0
 10
152.8171364117552002
 20
62.5662165092832083
 30
0.0
  0
VERTEX
  5
19161
  8
0
 10
152.8270844961886041
 20
62.6372242340357275
 30
0.0
  0
VERTEX
  5
19162
  8
0
 10
152.8352741943415083
 20
62.7087777098780421
 30
0.0
  0
VERTEX
  5
19163
  8
0
 10
152.8416830500063099
 20
62.7808544806028479
 30
0.0
  0
VERTEX
  5
19164
  8
0
 10
152.8462886069758042
 20
62.8534320900029471
 30
0.0
  0
VERTEX
  5
19165
  8
0
 10
152.8490684090427862
 20
62.9264880818710779
 30
0.0
  0
VERTEX
  5
19166
  8
0
 10
152.8499999999999943
 20
63.0000000000000071
 30
0.0
  0
VERTEX
  5
19167
  8
0
 10
152.8490684090425873
 20
63.0735119181289505
 30
0.0
  0
VERTEX
  5
19168
  8
0
 10
152.8462886069756905
 20
63.14656790999706
 30
0.0
  0
VERTEX
  5
19169
  8
0
 10
152.841683050006111
 20
63.2191455193971592
 30
0.0
  0
VERTEX
  5
1916A
  8
0
 10
152.8352741943413946
 20
63.2912222901219721
 30
0.0
  0
VERTEX
  5
1916B
  8
0
 10
152.8270844961886041
 20
63.3627757659642725
 30
0.0
  0
VERTEX
  5
1916C
  8
0
 10
152.8171364117550013
 20
63.4337834907167988
 30
0.0
  0
VERTEX
  5
1916D
  8
0
 10
152.8054523972481036
 20
63.5042230081723176
 30
0.0
  0
VERTEX
  5
1916E
  8
0
 10
152.7920549088746895
 20
63.5740718621236311
 30
0.0
  0
VERTEX
  5
1916F
  8
0
 10
152.7769664028423904
 20
63.6433075963634209
 30
0.0
  0
VERTEX
  5
19170
  8
0
 10
152.760209335358013
 20
63.7119077546844821
 30
0.0
  0
VERTEX
  5
19171
  8
0
 10
152.7418061626293877
 20
63.7798498808796026
 30
0.0
  0
VERTEX
  5
19172
  8
0
 10
152.7217793408632929
 20
63.8471115187414924
 30
0.0
  0
VERTEX
  5
19173
  8
0
 10
152.700151326267104
 20
63.9136702120629607
 30
0.0
  0
VERTEX
  5
19174
  8
0
 10
152.6769445750481964
 20
63.9795035046367175
 30
0.0
  0
VERTEX
  5
19175
  8
0
 10
152.6521815434136045
 20
64.0445889402555792
 30
0.0
  0
VERTEX
  5
19176
  8
0
 10
152.6258846875705899
 20
64.1089040627122415
 30
0.0
  0
VERTEX
  5
19177
  8
0
 10
152.598076463726386
 20
64.1724264157995066
 30
0.0
  0
VERTEX
  5
19178
  8
0
 10
152.5687793280885955
 20
64.2351335433100985
 30
0.0
  0
VERTEX
  5
19179
  8
0
 10
152.5380157368639971
 20
64.2970029890368266
 30
0.0
  0
VERTEX
  5
1917A
  8
0
 10
152.5058081462599944
 20
64.3580122967724009
 30
0.0
  0
VERTEX
  5
1917B
  8
0
 10
152.472179012483906
 20
64.4181390103096163
 30
0.0
  0
VERTEX
  5
1917C
  8
0
 10
152.4371507917429085
 20
64.477360673441197
 30
0.0
  0
VERTEX
  5
1917D
  8
0
 10
152.4007459402440929
 20
64.5356548299599382
 30
0.0
  0
VERTEX
  5
1917E
  8
0
 10
152.3629869141950053
 20
64.592999023658578
 30
0.0
  0
VERTEX
  5
1917F
  8
0
 10
152.3238961698027083
 20
64.6493707983298833
 30
0.0
  0
VERTEX
  5
19180
  8
0
 10
152.2834961632744069
 20
64.7047476977666065
 30
0.0
  0
VERTEX
  5
19181
  8
0
 10
152.2418093508173911
 20
64.7591072657615143
 30
0.0
  0
VERTEX
  5
19182
  8
0
 10
152.1988581886388943
 20
64.8124270461073451
 30
0.0
  0
VERTEX
  5
19183
  8
0
 10
152.1546651329462918
 20
64.8646845825968938
 30
0.0
  0
VERTEX
  5
19184
  8
0
 10
152.1092526399465896
 20
64.915857419022899
 30
0.0
  0
VERTEX
  5
19185
  8
0
 10
152.0626431658469926
 20
64.9659230991781129
 30
0.0
  0
VERTEX
  5
19186
  8
0
 10
152.0148591668551035
 20
65.0148591668553166
 30
0.0
  0
VERTEX
  5
19187
  8
0
 10
151.9659230991780134
 20
65.0626431658472484
 30
0.0
  0
VERTEX
  5
19188
  8
0
 10
151.9158574190227
 20
65.1092526399466749
 30
0.0
  0
VERTEX
  5
19189
  8
0
 10
151.8646845825967091
 20
65.1546651329463486
 30
0.0
  0
VERTEX
  5
1918A
  8
0
 10
151.8124270461071035
 20
65.1988581886390506
 30
0.0
  0
VERTEX
  5
1918B
  8
0
 10
151.7591072657614006
 20
65.2418093508175048
 30
0.0
  0
VERTEX
  5
1918C
  8
0
 10
151.7047476977664076
 20
65.2834961632745063
 30
0.0
  0
VERTEX
  5
1918D
  8
0
 10
151.6493707983296133
 20
65.3238961698027936
 30
0.0
  0
VERTEX
  5
1918E
  8
0
 10
151.5929990236583933
 20
65.362986914195119
 30
0.0
  0
VERTEX
  5
1918F
  8
0
 10
151.5356548299598956
 20
65.4007459402442777
 30
0.0
  0
VERTEX
  5
19190
  8
0
 10
151.4773606734410123
 20
65.4371507917429938
 30
0.0
  0
VERTEX
  5
19191
  8
0
 10
151.4181390103094031
 20
65.4721790124840481
 30
0.0
  0
VERTEX
  5
19192
  8
0
 10
151.3580122967721877
 20
65.5058081462601649
 30
0.0
  0
VERTEX
  5
19193
  8
0
 10
151.297002989036713
 20
65.538015736864125
 30
0.0
  0
VERTEX
  5
19194
  8
0
 10
151.2351335433100132
 20
65.5687793280887234
 30
0.0
  0
VERTEX
  5
19195
  8
0
 10
151.1724264157992934
 20
65.5980764637266702
 30
0.0
  0
VERTEX
  5
19196
  8
0
 10
151.1089040627120141
 20
65.6258846875707178
 30
0.0
  0
VERTEX
  5
19197
  8
0
 10
151.0445889402554087
 20
65.6521815434136897
 30
0.0
  0
VERTEX
  5
19198
  8
0
 10
150.9795035046365967
 20
65.6769445750482674
 30
0.0
  0
VERTEX
  5
19199
  8
0
 10
150.9136702120628115
 20
65.7001513262672603
 30
0.0
  0
VERTEX
  5
1919A
  8
0
 10
150.8471115187412863
 20
65.7217793408634066
 30
0.0
  0
VERTEX
  5
1919B
  8
0
 10
150.7798498808795102
 20
65.741806162629473
 30
0.0
  0
VERTEX
  5
1919C
  8
0
 10
150.7119077546842902
 20
65.7602093353582404
 30
0.0
  0
VERTEX
  5
1919D
  8
0
 10
150.6433075963632007
 20
65.7769664028423904
 30
0.0
  0
VERTEX
  5
1919E
  8
0
 10
150.5740718621233896
 20
65.792054908874789
 30
0.0
  0
VERTEX
  5
1919F
  8
0
 10
150.5042230081722039
 20
65.8054523972481178
 30
0.0
  0
VERTEX
  5
191A0
  8
0
 10
150.4337834907165927
 20
65.8171364117551434
 30
0.0
  0
VERTEX
  5
191A1
  8
0
 10
150.3627757659641873
 20
65.8270844961886894
 30
0.0
  0
VERTEX
  5
191A2
  8
0
 10
150.2912222901217092
 20
65.8352741943414514
 30
0.0
  0
VERTEX
  5
191A3
  8
0
 10
150.2191455193971024
 20
65.8416830500061963
 30
0.0
  0
VERTEX
  5
191A4
  8
0
 10
150.1465679099970032
 20
65.8462886069756905
 30
0.0
  0
VERTEX
  5
191A5
  8
0
 10
150.0735119181287018
 20
65.849068409042701
 30
0.0
  0
VERTEX
  5
191A6
  8
0
 10
150.0
 20
65.8499999999999801
 30
0.0
  0
SEQEND
  5
191A7
  8
0
  0
POLYLINE
  5
189EC
  8
0
 66
     1
 10
0.0
 20
0.0
 30
0.0
  0
VERTEX
  5
191A8
  8
0
 10
150.0
 20
34.7499999999999503
 30
0.0
  0
VERTEX
  5
191A9
  8
0
 10
149.9441327946603053
 20
34.7506929333241885
 30
0.0
  0
VERTEX
  5
191AA
  8
0
 10
149.8884315978118025
 20
34.7527653630875122
 30
0.0
  0
VERTEX
  5
191AB
  8
0
 10
149.8329194780239106
 20
34.7562077339758275
 30
0.0
  0
VERTEX
  5
191AC
  8
0
 10
149.7776195038649973
 20
34.7610104906750905
 30
0.0
  0
VERTEX
  5
191AD
  8
0
 10
149.7225547439039133
 20
34.7671640778711719
 30
0.0
  0
VERTEX
  5
191AE
  8
0
 10
149.6677482667097934
 20
34.7746589402500419
 30
0.0
  0
VERTEX
  5
191AF
  8
0
 10
149.6132231408512041
 20
34.7834855224975996
 30
0.0
  0
VERTEX
  5
191B0
  8
0
 10
149.5590024348971099
 20
34.7936342692997727
 30
0.0
  0
VERTEX
  5
191B1
  8
0
 10
149.5051092174163045
 20
34.8050956253424673
 30
0.0
  0
VERTEX
  5
191B2
  8
0
 10
149.4515665569776957
 20
34.8178600353116181
 30
0.0
  0
VERTEX
  5
191B3
  8
0
 10
149.3983975221501055
 20
34.8319179438931528
 30
0.0
  0
VERTEX
  5
191B4
  8
0
 10
149.3456251815024132
 20
34.8472597957729704
 30
0.0
  0
VERTEX
  5
191B5
  8
0
 10
149.2932726036032136
 20
34.8638760356370128
 30
0.0
  0
VERTEX
  5
191B6
  8
0
 10
149.2413628570216986
 20
34.8817571081711932
 30
0.0
  0
VERTEX
  5
191B7
  8
0
 10
149.1899190103264061
 20
34.9008934580614323
 30
0.0
  0
VERTEX
  5
191B8
  8
0
 10
149.1389641320866133
 20
34.9212755299936504
 30
0.0
  0
VERTEX
  5
191B9
  8
0
 10
149.0885212908706023
 20
34.9428937686537822
 30
0.0
  0
VERTEX
  5
191BA
  8
0
 10
149.0386135552475935
 20
34.9657386187277197
 30
0.0
  0
VERTEX
  5
191BB
  8
0
 10
148.98926399378621
 20
34.9898005249014119
 30
0.0
  0
VERTEX
  5
191BC
  8
0
 10
148.9404956750555016
 20
35.0150699318607579
 30
0.0
  0
VERTEX
  5
191BD
  8
0
 10
148.8923316676242052
 20
35.0415372842916995
 30
0.0
  0
VERTEX
  5
191BE
  8
0
 10
148.8447950400613138
 20
35.0691930268801499
 30
0.0
  0
VERTEX
  5
191BF
  8
0
 10
148.7979088609353084
 20
35.0980276043120227
 30
0.0
  0
VERTEX
  5
191C0
  8
0
 10
148.7516961988152104
 20
35.1280314612732525
 30
0.0
  0
VERTEX
  5
191C1
  8
0
 10
148.7061801222700979
 20
35.1591950424497526
 30
0.0
  0
VERTEX
  5
191C2
  8
0
 10
148.6613836998683951
 20
35.1915087925274506
 30
0.0
  0
VERTEX
  5
191C3
  8
0
 10
148.6173300001792086
 20
35.2249631561922527
 30
0.0
  0
VERTEX
  5
191C4
  8
0
 10
148.5740420917715028
 20
35.2595485781300866
 30
0.0
  0
VERTEX
  5
191C5
  8
0
 10
148.5315430432137873
 20
35.2952555030269011
 30
0.0
  0
VERTEX
  5
191C6
  8
0
 10
148.4898559230751971
 20
35.3320743755685669
 30
0.0
  0
VERTEX
  5
191C7
  8
0
 10
148.4490037999244123
 20
35.3699956404410401
 30
0.0
  0
VERTEX
  5
191C8
  8
0
 10
148.4090097423301984
 20
35.409009742330241
 30
0.0
  0
VERTEX
  5
191C9
  8
0
 10
148.3699956404408908
 20
35.449003799924391
 30
0.0
  0
VERTEX
  5
191CA
  8
0
 10
148.33207437556851
 20
35.4898559230751971
 30
0.0
  0
VERTEX
  5
191CB
  8
0
 10
148.2952555030267945
 20
35.5315430432138726
 30
0.0
  0
VERTEX
  5
191CC
  8
0
 10
148.2595485781301079
 20
35.574042091771517
 30
0.0
  0
VERTEX
  5
191CD
  8
0
 10
148.2249631561921888
 20
35.6173300001793365
 30
0.0
  0
VERTEX
  5
191CE
  8
0
 10
148.1915087925274008
 20
35.6613836998684519
 30
0.0
  0
VERTEX
  5
191CF
  8
0
 10
148.1591950424497099
 20
35.7061801222700481
 30
0.0
  0
VERTEX
  5
191D0
  8
0
 10
148.1280314612731956
 20
35.7516961988152673
 30
0.0
  0
VERTEX
  5
191D1
  8
0
 10
148.098027604311909
 20
35.7979088609352729
 30
0.0
  0
VERTEX
  5
191D2
  8
0
 10
148.0691930268801002
 20
35.8447950400612214
 30
0.0
  0
VERTEX
  5
191D3
  8
0
 10
148.0415372842915929
 20
35.8923316676242621
 30
0.0
  0
VERTEX
  5
191D4
  8
0
 10
148.0150699318606939
 20
35.9404956750555726
 30
0.0
  0
VERTEX
  5
191D5
  8
0
 10
147.9898005249013977
 20
35.9892639937863024
 30
0.0
  0
VERTEX
  5
191D6
  8
0
 10
147.9657386187276131
 20
36.0386135552476077
 30
0.0
  0
VERTEX
  5
191D7
  8
0
 10
147.9428937686537893
 20
36.0885212908706521
 30
0.0
  0
VERTEX
  5
191D8
  8
0
 10
147.9212755299936077
 20
36.1389641320865778
 30
0.0
  0
VERTEX
  5
191D9
  8
0
 10
147.9008934580614039
 20
36.1899190103265624
 30
0.0
  0
VERTEX
  5
191DA
  8
0
 10
147.8817571081712003
 20
36.2413628570217696
 30
0.0
  0
VERTEX
  5
191DB
  8
0
 10
147.8638760356369062
 20
36.2932726036033131
 30
0.0
  0
VERTEX
  5
191DC
  8
0
 10
147.8472597957729988
 20
36.345625181502399
 30
0.0
  0
VERTEX
  5
191DD
  8
0
 10
147.831917943893103
 20
36.3983975221501694
 30
0.0
  0
VERTEX
  5
191DE
  8
0
 10
147.817860035311611
 20
36.4515665569777809
 30
0.0
  0
VERTEX
  5
191DF
  8
0
 10
147.8050956253424033
 20
36.5051092174163898
 30
0.0
  0
VERTEX
  5
191E0
  8
0
 10
147.7936342692997016
 20
36.5590024348971667
 30
0.0
  0
VERTEX
  5
191E1
  8
0
 10
147.7834855224975001
 20
36.613223140851261
 30
0.0
  0
VERTEX
  5
191E2
  8
0
 10
147.7746589402501058
 20
36.6677482667098218
 30
0.0
  0
VERTEX
  5
191E3
  8
0
 10
147.7671640778712003
 20
36.7225547439040128
 30
0.0
  0
VERTEX
  5
191E4
  8
0
 10
147.7610104906750053
 20
36.7776195038649902
 30
0.0
  0
VERTEX
  5
191E5
  8
0
 10
147.7562077339759128
 20
36.832919478023932
 30
0.0
  0
VERTEX
  5
191E6
  8
0
 10
147.7527653630874909
 20
36.888431597811973
 30
0.0
  0
VERTEX
  5
191E7
  8
0
 10
147.7506929333241885
 20
36.9441327946602769
 30
0.0
  0
VERTEX
  5
191E8
  8
0
 10
147.75
 20
37.0000000000000071
 30
0.0
  0
VERTEX
  5
191E9
  8
0
 10
147.7506929333241885
 20
37.0558672053397373
 30
0.0
  0
VERTEX
  5
191EA
  8
0
 10
147.7527653630874909
 20
37.1115684021880412
 30
0.0
  0
VERTEX
  5
191EB
  8
0
 10
147.7562077339757138
 20
37.1670805219760894
 30
0.0
  0
VERTEX
  5
191EC
  8
0
 10
147.7610104906750053
 20
37.2223804961350169
 30
0.0
  0
VERTEX
  5
191ED
  8
0
 10
147.7671640778710866
 20
37.2774452560960015
 30
0.0
  0
VERTEX
  5
191EE
  8
0
 10
147.7746589402499922
 20
37.3322517332901995
 30
0.0
  0
VERTEX
  5
191EF
  8
0
 10
147.7834855224975001
 20
37.3867768591487604
 30
0.0
  0
VERTEX
  5
191F0
  8
0
 10
147.7936342692997016
 20
37.4409975651028475
 30
0.0
  0
VERTEX
  5
191F1
  8
0
 10
147.8050956253424033
 20
37.4948907825836173
 30
0.0
  0
VERTEX
  5
191F2
  8
0
 10
147.817860035311611
 20
37.5484334430222333
 30
0.0
  0
VERTEX
  5
191F3
  8
0
 10
147.831917943893103
 20
37.6016024778498377
 30
0.0
  0
VERTEX
  5
191F4
  8
0
 10
147.8472597957729988
 20
37.6543748184976081
 30
0.0
  0
VERTEX
  5
191F5
  8
0
 10
147.8638760356369062
 20
37.7067273963967011
 30
0.0
  0
VERTEX
  5
191F6
  8
0
 10
147.8817571081712003
 20
37.7586371429782517
 30
0.0
  0
VERTEX
  5
191F7
  8
0
 10
147.9008934580614039
 20
37.8100809896734376
 30
0.0
  0
VERTEX
  5
191F8
  8
0
 10
147.9212755299936077
 20
37.8610358679134364
 30
0.0
  0
VERTEX
  5
191F9
  8
0
 10
147.9428937686537893
 20
37.9114787091293621
 30
0.0
  0
VERTEX
  5
191FA
  8
0
 10
147.9657386187276984
 20
37.9613864447523994
 30
0.0
  0
VERTEX
  5
191FB
  8
0
 10
147.9898005249013977
 20
38.0107360062137118
 30
0.0
  0
VERTEX
  5
191FC
  8
0
 10
148.0150699318606939
 20
38.0595043249444203
 30
0.0
  0
VERTEX
  5
191FD
  8
0
 10
148.0415372842917066
 20
38.1076683323757379
 30
0.0
  0
VERTEX
  5
191FE
  8
0
 10
148.0691930268801002
 20
38.1552049599387928
 30
0.0
  0
VERTEX
  5
191FF
  8
0
 10
148.0980276043119943
 20
38.2020911390647413
 30
0.0
  0
VERTEX
  5
19200
  8
0
 10
148.1280314612733093
 20
38.2483038011847327
 30
0.0
  0
VERTEX
  5
19201
  8
0
 10
148.1591950424497099
 20
38.2938198777299519
 30
0.0
  0
VERTEX
  5
19202
  8
0
 10
148.1915087925274008
 20
38.3386163001315268
 30
0.0
  0
VERTEX
  5
19203
  8
0
 10
148.2249631561921888
 20
38.3826699998206635
 30
0.0
  0
VERTEX
  5
19204
  8
0
 10
148.2595485781301079
 20
38.425957908228483
 30
0.0
  0
VERTEX
  5
19205
  8
0
 10
148.2952555030267945
 20
38.4684569567861203
 30
0.0
  0
VERTEX
  5
19206
  8
0
 10
148.3320743755685953
 20
38.5101440769247887
 30
0.0
  0
VERTEX
  5
19207
  8
0
 10
148.3699956404408908
 20
38.5509962000756019
 30
0.0
  0
VERTEX
  5
19208
  8
0
 10
148.4090097423301984
 20
38.5909902576697519
 30
0.0
  0
VERTEX
  5
19209
  8
0
 10
148.4490037999244123
 20
38.6300043595589386
 30
0.0
  0
VERTEX
  5
1920A
  8
0
 10
148.4898559230753108
 20
38.6679256244314118
 30
0.0
  0
VERTEX
  5
1920B
  8
0
 10
148.5315430432139863
 20
38.7047444969730776
 30
0.0
  0
VERTEX
  5
1920C
  8
0
 10
148.574042091771588
 20
38.7404514218698921
 30
0.0
  0
VERTEX
  5
1920D
  8
0
 10
148.6173300001794075
 20
38.7750368438077189
 30
0.0
  0
VERTEX
  5
1920E
  8
0
 10
148.6613836998685088
 20
38.8084912074725281
 30
0.0
  0
VERTEX
  5
1920F
  8
0
 10
148.7061801222702115
 20
38.8408049575502119
 30
0.0
  0
VERTEX
  5
19210
  8
0
 10
148.7516961988152957
 20
38.871968538726712
 30
0.0
  0
VERTEX
  5
19211
  8
0
 10
148.7979088609353937
 20
38.9019723956879417
 30
0.0
  0
VERTEX
  5
19212
  8
0
 10
148.8447950400613138
 20
38.9308069731198216
 30
0.0
  0
VERTEX
  5
19213
  8
0
 10
148.8923316676244042
 20
38.9584627157082721
 30
0.0
  0
VERTEX
  5
19214
  8
0
 10
148.9404956750555868
 20
38.9849300681391995
 30
0.0
  0
VERTEX
  5
19215
  8
0
 10
148.98926399378621
 20
39.0101994750985526
 30
0.0
  0
VERTEX
  5
19216
  8
0
 10
149.0386135552477072
 20
39.0342613812722519
 30
0.0
  0
VERTEX
  5
19217
  8
0
 10
149.0885212908706876
 20
39.0571062313461823
 30
0.0
  0
VERTEX
  5
19218
  8
0
 10
149.1389641320866133
 20
39.078724470006307
 30
0.0
  0
VERTEX
  5
19219
  8
0
 10
149.1899190103266051
 20
39.0991065419385322
 30
0.0
  0
VERTEX
  5
1921A
  8
0
 10
149.2413628570218123
 20
39.118242891828757
 30
0.0
  0
VERTEX
  5
1921B
  8
0
 10
149.2932726036034126
 20
39.1361239643629375
 30
0.0
  0
VERTEX
  5
1921C
  8
0
 10
149.3456251815024132
 20
39.152740204226987
 30
0.0
  0
VERTEX
  5
1921D
  8
0
 10
149.3983975221501908
 20
39.1680820561067975
 30
0.0
  0
VERTEX
  5
1921E
  8
0
 10
149.4515665569778946
 20
39.1821399646883179
 30
0.0
  0
VERTEX
  5
1921F
  8
0
 10
149.5051092174165035
 20
39.1949043746574901
 30
0.0
  0
VERTEX
  5
19220
  8
0
 10
149.5590024348971951
 20
39.2063657307001918
 30
0.0
  0
VERTEX
  5
19221
  8
0
 10
149.6132231408512041
 20
39.216514477502372
 30
0.0
  0
VERTEX
  5
19222
  8
0
 10
149.6677482667099071
 20
39.2253410597499226
 30
0.0
  0
VERTEX
  5
19223
  8
0
 10
149.7225547439041122
 20
39.2328359221287712
 30
0.0
  0
VERTEX
  5
19224
  8
0
 10
149.7776195038649973
 20
39.2389895093248811
 30
0.0
  0
VERTEX
  5
19225
  8
0
 10
149.8329194780239959
 20
39.2437922660241227
 30
0.0
  0
VERTEX
  5
19226
  8
0
 10
149.8884315978120867
 20
39.2472346369124523
 30
0.0
  0
VERTEX
  5
19227
  8
0
 10
149.9441327946603906
 20
39.2493070666757689
 30
0.0
  0
VERTEX
  5
19228
  8
0
 10
150.0
 20
39.2500000000000071
 30
0.0
  0
SEQEND
  5
19229
  8
0
  0
POLYLINE
  5
189ED
  8
0
 66
     1
 10
0.0
 20
0.0
 30
0.0
  0
VERTEX
  5
1922A
  8
0
 10
150.0
 20
39.2500000000000071
 30
0.0
  0
VERTEX
  5
1922B
  8
0
 10
150.0580357248385894
 20
39.2492645334547916
 30
0.0
  0
VERTEX
  5
1922C
  8
0
 10
150.1157115078923141
 20
39.2470699528755702
 30
0.0
  0
VERTEX
  5
1922D
  8
0
 10
150.1730096205766074
 20
39.2434339868470303
 30
0.0
  0
VERTEX
  5
1922E
  8
0
 10
150.2299123343065901
 20
39.2383743639538025
 30
0.0
  0
VERTEX
  5
1922F
  8
0
 10
150.2864019204980082
 20
39.2319088127805671
 30
0.0
  0
VERTEX
  5
19230
  8
0
 10
150.3424606505658119
 20
39.2240550619119972
 30
0.0
  0
VERTEX
  5
19231
  8
0
 10
150.3980707959254914
 20
39.2148308399327519
 30
0.0
  0
VERTEX
  5
19232
  8
0
 10
150.4532146279923097
 20
39.204253875427483
 30
0.0
  0
VERTEX
  5
19233
  8
0
 10
150.5078744181815864
 20
39.1923418969808566
 30
0.0
  0
VERTEX
  5
19234
  8
0
 10
150.5620324379086981
 20
39.1791126331775601
 30
0.0
  0
VERTEX
  5
19235
  8
0
 10
150.6156709585891065
 20
39.1645838126022383
 30
0.0
  0
VERTEX
  5
19236
  8
0
 10
150.668772251637904
 20
39.1487731638395502
 30
0.0
  0
VERTEX
  5
19237
  8
0
 10
150.7213185884706945
 20
39.1316984154741689
 30
0.0
  0
VERTEX
  5
19238
  8
0
 10
150.7732922405025136
 20
39.1133772960907535
 30
0.0
  0
VERTEX
  5
19239
  8
0
 10
150.8246754791489934
 20
39.0938275342739701
 30
0.0
  0
VERTEX
  5
1923A
  8
0
 10
150.875450575825397
 20
39.0730668586084917
 30
0.0
  0
VERTEX
  5
1923B
  8
0
 10
150.9255998019469871
 20
39.0511129976789491
 30
0.0
  0
VERTEX
  5
1923C
  8
0
 10
150.9751054289289129
 20
39.0279836800700508
 30
0.0
  0
VERTEX
  5
1923D
  8
0
 10
151.0239497281868921
 20
39.0036966343664417
 30
0.0
  0
VERTEX
  5
1923E
  8
0
 10
151.0721149711361022
 20
38.9782695891527808
 30
0.0
  0
VERTEX
  5
1923F
  8
0
 10
151.1195834291916924
 20
38.95172027301372
 30
0.0
  0
VERTEX
  5
19240
  8
0
 10
151.166337373769295
 20
38.9240664145339466
 30
0.0
  0
VERTEX
  5
19241
  8
0
 10
151.2123590762840877
 20
38.8953257422981196
 30
0.0
  0
VERTEX
  5
19242
  8
0
 10
151.2576308081515037
 20
38.865515984890898
 30
0.0
  0
VERTEX
  5
19243
  8
0
 10
151.3021348407866924
 20
38.8346548708969479
 30
0.0
  0
VERTEX
  5
19244
  8
0
 10
151.345853445605087
 20
38.8027601289009283
 30
0.0
  0
VERTEX
  5
19245
  8
0
 10
151.3887688940220926
 20
38.7698494874875124
 30
0.0
  0
VERTEX
  5
19246
  8
0
 10
151.4308634574531141
 20
38.7359406752413378
 30
0.0
  0
VERTEX
  5
19247
  8
0
 10
151.4721194073133006
 20
38.7010514207471203
 30
0.0
  0
VERTEX
  5
19248
  8
0
 10
151.5125190150178867
 20
38.6651994525894622
 30
0.0
  0
VERTEX
  5
19249
  8
0
 10
151.5520445519827035
 20
38.6284024993530792
 30
0.0
  0
VERTEX
  5
1924A
  8
0
 10
151.5906782896225877
 20
38.5906782896226019
 30
0.0
  0
VERTEX
  5
1924B
  8
0
 10
151.6284024993530863
 20
38.5520445519827106
 30
0.0
  0
VERTEX
  5
1924C
  8
0
 10
151.6651994525894054
 20
38.5125190150180572
 30
0.0
  0
VERTEX
  5
1924D
  8
0
 10
151.7010514207470067
 20
38.4721194073133219
 30
0.0
  0
VERTEX
  5
1924E
  8
0
 10
151.7359406752412099
 20
38.4308634574531425
 30
0.0
  0
VERTEX
  5
1924F
  8
0
 10
151.7698494874875053
 20
38.3887688940222205
 30
0.0
  0
VERTEX
  5
19250
  8
0
 10
151.8027601289007862
 20
38.3458534456051865
 30
0.0
  0
VERTEX
  5
19251
  8
0
 10
151.8346548708969124
 20
38.3021348407867208
 30
0.0
  0
VERTEX
  5
19252
  8
0
 10
151.8655159848908056
 20
38.2576308081514824
 30
0.0
  0
VERTEX
  5
19253
  8
0
 10
151.895325742298013
 20
38.2123590762841303
 30
0.0
  0
VERTEX
  5
19254
  8
0
 10
151.924066414533911
 20
38.1663373737693377
 30
0.0
  0
VERTEX
  5
19255
  8
0
 10
151.9517202730137058
 20
38.1195834291917635
 30
0.0
  0
VERTEX
  5
19256
  8
0
 10
151.9782695891526032
 20
38.0721149711360809
 30
0.0
  0
VERTEX
  5
19257
  8
0
 10
152.0036966343664062
 20
38.0239497281869419
 30
0.0
  0
VERTEX
  5
19258
  8
0
 10
152.0279836800700082
 20
37.9751054289289982
 30
0.0
  0
VERTEX
  5
19259
  8
0
 10
152.0511129976788993
 20
37.9255998019469374
 30
0.0
  0
VERTEX
  5
1925A
  8
0
 10
152.0730668586083141
 20
37.8754505758254112
 30
0.0
  0
VERTEX
  5
1925B
  8
0
 10
152.0938275342739132
 20
37.8246754791491
 30
0.0
  0
VERTEX
  5
1925C
  8
0
 10
152.1133772960905901
 20
37.7732922405026486
 30
0.0
  0
VERTEX
  5
1925D
  8
0
 10
152.1316984154740055
 20
37.7213185884707229
 30
0.0
  0
VERTEX
  5
1925E
  8
0
 10
152.1487731638393939
 20
37.6687722516380035
 30
0.0
  0
VERTEX
  5
1925F
  8
0
 10
152.1645838126021033
 20
37.6156709585891207
 30
0.0
  0
VERTEX
  5
19260
  8
0
 10
152.1791126331775104
 20
37.5620324379087691
 30
0.0
  0
VERTEX
  5
19261
  8
0
 10
152.1923418969807926
 20
37.5078744181816077
 30
0.0
  0
VERTEX
  5
19262
  8
0
 10
152.2042538754274119
 20
37.4532146279922884
 30
0.0
  0
VERTEX
  5
19263
  8
0
 10
152.2148308399326027
 20
37.3980707959254772
 30
0.0
  0
VERTEX
  5
19264
  8
0
 10
152.2240550619119119
 20
37.3424606505658616
 30
0.0
  0
VERTEX
  5
19265
  8
0
 10
152.2319088127804889
 20
37.2864019204980792
 30
0.0
  0
VERTEX
  5
19266
  8
0
 10
152.2383743639537101
 20
37.229912334306789
 30
0.0
  0
VERTEX
  5
19267
  8
0
 10
152.243433986847009
 20
37.1730096205766785
 30
0.0
  0
VERTEX
  5
19268
  8
0
 10
152.2470699528755063
 20
37.1157115078923923
 30
0.0
  0
VERTEX
  5
19269
  8
0
 10
152.2492645334546921
 20
37.0580357248386107
 30
0.0
  0
VERTEX
  5
1926A
  8
0
 10
152.25
 20
36.9999999999999716
 30
0.0
  0
VERTEX
  5
1926B
  8
0
 10
152.2492645334548058
 20
36.9419642751613608
 30
0.0
  0
VERTEX
  5
1926C
  8
0
 10
152.2470699528755063
 20
36.8842884921075722
 30
0.0
  0
VERTEX
  5
1926D
  8
0
 10
152.243433986847009
 20
36.8269903794232931
 30
0.0
  0
VERTEX
  5
1926E
  8
0
 10
152.2383743639537101
 20
36.7700876656931683
 30
0.0
  0
VERTEX
  5
1926F
  8
0
 10
152.2319088127806026
 20
36.7135980795018924
 30
0.0
  0
VERTEX
  5
19270
  8
0
 10
152.2240550619119972
 20
36.6575393494341029
 30
0.0
  0
VERTEX
  5
19271
  8
0
 10
152.2148308399328016
 20
36.601929204074473
 30
0.0
  0
VERTEX
  5
19272
  8
0
 10
152.2042538754274119
 20
36.546785372007669
 30
0.0
  0
VERTEX
  5
19273
  8
0
 10
152.1923418969809063
 20
36.4921255818183425
 30
0.0
  0
VERTEX
  5
19274
  8
0
 10
152.1791126331775104
 20
36.4379675620912025
 30
0.0
  0
VERTEX
  5
19275
  8
0
 10
152.1645838126021033
 20
36.3843290414108509
 30
0.0
  0
VERTEX
  5
19276
  8
0
 10
152.1487731638393939
 20
36.331227748361961
 30
0.0
  0
VERTEX
  5
19277
  8
0
 10
152.1316984154740055
 20
36.2786814115292202
 30
0.0
  0
VERTEX
  5
19278
  8
0
 10
152.1133772960907891
 20
36.2267077594973088
 30
0.0
  0
VERTEX
  5
19279
  8
0
 10
152.0938275342739132
 20
36.1753245208508574
 30
0.0
  0
VERTEX
  5
1927A
  8
0
 10
152.073066858608513
 20
36.124549424174532
 30
0.0
  0
VERTEX
  5
1927B
  8
0
 10
152.0511129976788993
 20
36.07440019805302
 30
0.0
  0
VERTEX
  5
1927C
  8
0
 10
152.0279836800700082
 20
36.0248945710709734
 30
0.0
  0
VERTEX
  5
1927D
  8
0
 10
152.0036966343664062
 20
35.9760502718130226
 30
0.0
  0
VERTEX
  5
1927E
  8
0
 10
151.9782695891526032
 20
35.9278850288638907
 30
0.0
  0
VERTEX
  5
1927F
  8
0
 10
151.9517202730137058
 20
35.880416570808201
 30
0.0
  0
VERTEX
  5
19280
  8
0
 10
151.924066414533911
 20
35.8336626262306197
 30
0.0
  0
VERTEX
  5
19281
  8
0
 10
151.8953257422980982
 20
35.7876409237158271
 30
0.0
  0
VERTEX
  5
19282
  8
0
 10
151.8655159848908056
 20
35.742369191848482
 30
0.0
  0
VERTEX
  5
19283
  8
0
 10
151.8346548708969124
 20
35.6978651592132366
 30
0.0
  0
VERTEX
  5
19284
  8
0
 10
151.8027601289007862
 20
35.6541465543947567
 30
0.0
  0
VERTEX
  5
19285
  8
0
 10
151.7698494874875053
 20
35.6112311059777369
 30
0.0
  0
VERTEX
  5
19286
  8
0
 10
151.7359406752412099
 20
35.5691365425468078
 30
0.0
  0
VERTEX
  5
19287
  8
0
 10
151.7010514207470067
 20
35.5278805926866426
 30
0.0
  0
VERTEX
  5
19288
  8
0
 10
151.6651994525894054
 20
35.4874809849819002
 30
0.0
  0
VERTEX
  5
19289
  8
0
 10
151.6284024993530863
 20
35.4479554480172467
 30
0.0
  0
VERTEX
  5
1928A
  8
0
 10
151.5906782896225877
 20
35.4093217103773625
 30
0.0
  0
VERTEX
  5
1928B
  8
0
 10
151.5520445519827035
 20
35.3715975006468781
 30
0.0
  0
VERTEX
  5
1928C
  8
0
 10
151.5125190150178867
 20
35.3348005474105022
 30
0.0
  0
VERTEX
  5
1928D
  8
0
 10
151.4721194073133006
 20
35.2989485792528512
 30
0.0
  0
VERTEX
  5
1928E
  8
0
 10
151.4308634574531141
 20
35.2640593247585983
 30
0.0
  0
VERTEX
  5
1928F
  8
0
 10
151.3887688940220926
 20
35.2301505125124521
 30
0.0
  0
VERTEX
  5
19290
  8
0
 10
151.345853445605087
 20
35.1972398710990291
 30
0.0
  0
VERTEX
  5
19291
  8
0
 10
151.3021348407866924
 20
35.1653451291030166
 30
0.0
  0
VERTEX
  5
19292
  8
0
 10
151.2576308081515037
 20
35.1344840151090594
 30
0.0
  0
VERTEX
  5
19293
  8
0
 10
151.2123590762840877
 20
35.1046742577018378
 30
0.0
  0
VERTEX
  5
19294
  8
0
 10
151.166337373769295
 20
35.0759335854660108
 30
0.0
  0
VERTEX
  5
19295
  8
0
 10
151.1195834291916924
 20
35.0482797269862374
 30
0.0
  0
VERTEX
  5
19296
  8
0
 10
151.0721149711361022
 20
35.0217304108471907
 30
0.0
  0
VERTEX
  5
19297
  8
0
 10
151.0239497281868921
 20
34.9963033656335227
 30
0.0
  0
VERTEX
  5
19298
  8
0
 10
150.9751054289289129
 20
34.9720163199299066
 30
0.0
  0
VERTEX
  5
19299
  8
0
 10
150.9255998019469018
 20
34.9488870023210012
 30
0.0
  0
VERTEX
  5
1929A
  8
0
 10
150.875450575825397
 20
34.9269331413914799
 30
0.0
  0
VERTEX
  5
1929B
  8
0
 10
150.8246754791489934
 20
34.9061724657259873
 30
0.0
  0
VERTEX
  5
1929C
  8
0
 10
150.7732922405025136
 20
34.8866227039091967
 30
0.0
  0
VERTEX
  5
1929D
  8
0
 10
150.7213185884706945
 20
34.8683015845257884
 30
0.0
  0
VERTEX
  5
1929E
  8
0
 10
150.668772251637904
 20
34.8512268361604072
 30
0.0
  0
VERTEX
  5
1929F
  8
0
 10
150.6156709585891065
 20
34.8354161873977191
 30
0.0
  0
VERTEX
  5
192A0
  8
0
 10
150.5620324379086981
 20
34.8208873668223973
 30
0.0
  0
VERTEX
  5
192A1
  8
0
 10
150.5078744181815864
 20
34.8076581030190866
 30
0.0
  0
VERTEX
  5
192A2
  8
0
 10
150.4532146279923097
 20
34.7957461245724673
 30
0.0
  0
VERTEX
  5
192A3
  8
0
 10
150.3980707959254914
 20
34.7851691600672126
 30
0.0
  0
VERTEX
  5
192A4
  8
0
 10
150.3424606505658119
 20
34.7759449380879602
 30
0.0
  0
VERTEX
  5
192A5
  8
0
 10
150.2864019204980082
 20
34.7680911872193903
 30
0.0
  0
VERTEX
  5
192A6
  8
0
 10
150.2299123343067038
 20
34.761625636046162
 30
0.0
  0
VERTEX
  5
192A7
  8
0
 10
150.1730096205766074
 20
34.756566013152927
 30
0.0
  0
VERTEX
  5
192A8
  8
0
 10
150.1157115078923994
 20
34.7529300471243872
 30
0.0
  0
VERTEX
  5
192A9
  8
0
 10
150.0580357248385894
 20
34.7507354665451729
 30
0.0
  0
VERTEX
  5
192AA
  8
0
 10
150.0
 20
34.7499999999999503
 30
0.0
  0
SEQEND
  5
192AB
  8
0
  0
POLYLINE
  5
189EE
  8
0
 66
     1
 10
0.0
 20
0.0
 30
0.0
  0
VERTEX
  5
192AC
  8
0
 10
150.0
 20
39.8499999999999872
 30
0.0
  0
VERTEX
  5
192AD
  8
0
 10
149.9292348732363109
 20
39.8491222844559374
 30
0.0
  0
VERTEX
  5
192AE
  8
0
 10
149.85868002389509
 20
39.8464972067557213
 30
0.0
  0
VERTEX
  5
192AF
  8
0
 10
149.7883646721635102
 20
39.8421368702972103
 30
0.0
  0
VERTEX
  5
192B0
  8
0
 10
149.7183180382288015
 20
39.8360533784781481
 30
0.0
  0
VERTEX
  5
192B1
  8
0
 10
149.6485693422783925
 20
39.8282588346964204
 30
0.0
  0
VERTEX
  5
192B2
  8
0
 10
149.5791478044990015
 20
39.8187653423498631
 30
0.0
  0
VERTEX
  5
192B3
  8
0
 10
149.5100826450781994
 20
39.8075850048362909
 30
0.0
  0
VERTEX
  5
192B4
  8
0
 10
149.4414030842029888
 20
39.7947299255535327
 30
0.0
  0
VERTEX
  5
192B5
  8
0
 10
149.3731383420605994
 20
39.7802122078994529
 30
0.0
  0
VERTEX
  5
192B6
  8
0
 10
149.3053176388384031
 20
39.7640439552718519
 30
0.0
  0
VERTEX
  5
192B7
  8
0
 10
149.2379701947234878
 20
39.7462372710685798
 30
0.0
  0
VERTEX
  5
192B8
  8
0
 10
149.1711252299029127
 20
39.7268042586874799
 30
0.0
  0
VERTEX
  5
192B9
  8
0
 10
149.1048119645641066
 20
39.7057570215263667
 30
0.0
  0
VERTEX
  5
192BA
  8
0
 10
149.0390596188941004
 20
39.6831076629830619
 30
0.0
  0
VERTEX
  5
192BB
  8
0
 10
148.9738974130802944
 20
39.6588682864554372
 30
0.0
  0
VERTEX
  5
192BC
  8
0
 10
148.909354567309606
 20
39.6330509953412786
 30
0.0
  0
VERTEX
  5
192BD
  8
0
 10
148.8454603017694069
 20
39.605667893038472
 30
0.0
  0
VERTEX
  5
192BE
  8
0
 10
148.7822438366468987
 20
39.5767310829448107
 30
0.0
  0
VERTEX
  5
192BF
  8
0
 10
148.7197343921291974
 20
39.5462526684581377
 30
0.0
  0
VERTEX
  5
192C0
  8
0
 10
148.6579611884035899
 20
39.514244752976289
 30
0.0
  0
VERTEX
  5
192C1
  8
0
 10
148.5969534456573911
 20
39.4807194398971006
 30
0.0
  0
VERTEX
  5
192C2
  8
0
 10
148.5367403840774045
 20
39.4456888326184014
 30
0.0
  0
VERTEX
  5
192C3
  8
0
 10
148.4773512238512012
 20
39.4091650345380131
 30
0.0
  0
VERTEX
  5
192C4
  8
0
 10
148.418815185165812
 20
39.3711601490538001
 30
0.0
  0
VERTEX
  5
192C5
  8
0
 10
148.361161488208694
 20
39.33168627956357
 30
0.0
  0
VERTEX
  5
192C6
  8
0
 10
148.3044193531667077
 20
39.2907555294651729
 30
0.0
  0
VERTEX
  5
192C7
  8
0
 10
148.2486180002271965
 20
39.2483800021564093
 30
0.0
  0
VERTEX
  5
192C8
  8
0
 10
148.1937866495773051
 20
39.2045718010351507
 30
0.0
  0
VERTEX
  5
192C9
  8
0
 10
148.1399545214042064
 20
39.1593430294992118
 30
0.0
  0
VERTEX
  5
192CA
  8
0
 10
148.0871508358951019
 20
39.1127057909464213
 30
0.0
  0
VERTEX
  5
192CB
  8
0
 10
148.0354048132375908
 20
39.0646721887746224
 30
0.0
  0
VERTEX
  5
192CC
  8
0
 10
147.9847456736183062
 20
39.0152543263816511
 30
0.0
  0
VERTEX
  5
192CD
  8
0
 10
147.9353278112253918
 20
38.9645951867624021
 30
0.0
  0
VERTEX
  5
192CE
  8
0
 10
147.8872942090536071
 20
38.9128491641046921
 30
0.0
  0
VERTEX
  5
192CF
  8
0
 10
147.840656970500703
 20
38.8600454785957226
 30
0.0
  0
VERTEX
  5
192D0
  8
0
 10
147.7954281989649132
 20
38.8062133504226878
 30
0.0
  0
VERTEX
  5
192D1
  8
0
 10
147.7516199978437044
 20
38.7513819997728106
 30
0.0
  0
VERTEX
  5
192D2
  8
0
 10
147.7092444705349124
 20
38.6955806468332497
 30
0.0
  0
VERTEX
  5
192D3
  8
0
 10
147.6683137204364016
 20
38.6388385117912421
 30
0.0
  0
VERTEX
  5
192D4
  8
0
 10
147.6288398509462922
 20
38.5811848148339678
 30
0.0
  0
VERTEX
  5
192D5
  8
0
 10
147.590834965461994
 20
38.5226487761486425
 30
0.0
  0
VERTEX
  5
192D6
  8
0
 10
147.5543111673817123
 20
38.4632596159224391
 30
0.0
  0
VERTEX
  5
192D7
  8
0
 10
147.5192805601029136
 20
38.4030465543425876
 30
0.0
  0
VERTEX
  5
192D8
  8
0
 10
147.4857552470238033
 20
38.3420388115962609
 30
0.0
  0
VERTEX
  5
192D9
  8
0
 10
147.4537473315419049
 20
38.2802656078706818
 30
0.0
  0
VERTEX
  5
192DA
  8
0
 10
147.4232689170551964
 20
38.2177561633530303
 30
0.0
  0
VERTEX
  5
192DB
  8
0
 10
147.3943321069615138
 20
38.154539698230522
 30
0.0
  0
VERTEX
  5
192DC
  8
0
 10
147.366949004658693
 20
38.0906454326903372
 30
0.0
  0
VERTEX
  5
192DD
  8
0
 10
147.3411317135445984
 20
38.0261025869196914
 30
0.0
  0
VERTEX
  5
192DE
  8
0
 10
147.3168923370168955
 20
37.9609403811058002
 30
0.0
  0
VERTEX
  5
192DF
  8
0
 10
147.2942429784737044
 20
37.8951880354358295
 30
0.0
  0
VERTEX
  5
192E0
  8
0
 10
147.2731957413124917
 20
37.8288747700969878
 30
0.0
  0
VERTEX
  5
192E1
  8
0
 10
147.2537627289312923
 20
37.7620298052764767
 30
0.0
  0
VERTEX
  5
192E2
  8
0
 10
147.2359560447281126
 20
37.6946823611614974
 30
0.0
  0
VERTEX
  5
192E3
  8
0
 10
147.2197877921005045
 20
37.6268616579392727
 30
0.0
  0
VERTEX
  5
192E4
  8
0
 10
147.2052700744465028
 20
37.5585969157969615
 30
0.0
  0
VERTEX
  5
192E5
  8
0
 10
147.1924149951636878
 20
37.4899173549217934
 30
0.0
  0
VERTEX
  5
192E6
  8
0
 10
147.181234657650208
 20
37.4208521955009417
 30
0.0
  0
VERTEX
  5
192E7
  8
0
 10
147.1717411653035867
 20
37.3514306577216288
 30
0.0
  0
VERTEX
  5
192E8
  8
0
 10
147.1639466215218022
 20
37.2816819617710422
 30
0.0
  0
VERTEX
  5
192E9
  8
0
 10
147.1578631297028039
 20
37.2116353278363903
 30
0.0
  0
VERTEX
  5
192EA
  8
0
 10
147.1535027932440869
 20
37.1413199761048674
 30
0.0
  0
VERTEX
  5
192EB
  8
0
 10
147.1508777155441123
 20
37.070765126763682
 30
0.0
  0
VERTEX
  5
192EC
  8
0
 10
147.1499999999998067
 20
37.0000000000000071
 30
0.0
  0
VERTEX
  5
192ED
  8
0
 10
147.1508777155441123
 20
36.9292348732363465
 30
0.0
  0
VERTEX
  5
192EE
  8
0
 10
147.1535027932440869
 20
36.8586800238951398
 30
0.0
  0
VERTEX
  5
192EF
  8
0
 10
147.1578631297028039
 20
36.7883646721636168
 30
0.0
  0
VERTEX
  5
192F0
  8
0
 10
147.1639466215218022
 20
36.718318038228972
 30
0.0
  0
VERTEX
  5
192F1
  8
0
 10
147.1717411653035867
 20
36.6485693422783712
 30
0.0
  0
VERTEX
  5
192F2
  8
0
 10
147.181234657650208
 20
36.5791478044990725
 30
0.0
  0
VERTEX
  5
192F3
  8
0
 10
147.1924149951636878
 20
36.5100826450782421
 30
0.0
  0
VERTEX
  5
192F4
  8
0
 10
147.2052700744465028
 20
36.4414030842030527
 30
0.0
  0
VERTEX
  5
192F5
  8
0
 10
147.2197877921005045
 20
36.3731383420607415
 30
0.0
  0
VERTEX
  5
192F6
  8
0
 10
147.2359560447281126
 20
36.3053176388385026
 30
0.0
  0
VERTEX
  5
192F7
  8
0
 10
147.2537627289312923
 20
36.2379701947235233
 30
0.0
  0
VERTEX
  5
192F8
  8
0
 10
147.2731957413124917
 20
36.1711252299030122
 30
0.0
  0
VERTEX
  5
192F9
  8
0
 10
147.2942429784737044
 20
36.1048119645641705
 30
0.0
  0
VERTEX
  5
192FA
  8
0
 10
147.3168923370168955
 20
36.0390596188941998
 30
0.0
  0
VERTEX
  5
192FB
  8
0
 10
147.3411317135445984
 20
35.9738974130803015
 30
0.0
  0
VERTEX
  5
192FC
  8
0
 10
147.366949004658693
 20
35.9093545673096415
 30
0.0
  0
VERTEX
  5
192FD
  8
0
 10
147.3943321069615138
 20
35.8454603017694708
 30
0.0
  0
VERTEX
  5
192FE
  8
0
 10
147.4232689170551964
 20
35.7822438366469626
 30
0.0
  0
VERTEX
  5
192FF
  8
0
 10
147.4537473315419049
 20
35.7197343921293111
 30
0.0
  0
VERTEX
  5
19300
  8
0
 10
147.4857552470238033
 20
35.657961188403732
 30
0.0
  0
VERTEX
  5
19301
  8
0
 10
147.5192805601029136
 20
35.5969534456573982
 30
0.0
  0
VERTEX
  5
19302
  8
0
 10
147.5543111673817123
 20
35.5367403840775395
 30
0.0
  0
VERTEX
  5
19303
  8
0
 10
147.590834965461994
 20
35.4773512238513433
 30
0.0
  0
VERTEX
  5
19304
  8
0
 10
147.6288398509462922
 20
35.4188151851660109
 30
0.0
  0
VERTEX
  5
19305
  8
0
 10
147.6683137204364016
 20
35.3611614882087366
 30
0.0
  0
VERTEX
  5
19306
  8
0
 10
147.7092444705349124
 20
35.304419353166729
 30
0.0
  0
VERTEX
  5
19307
  8
0
 10
147.7516199978437044
 20
35.2486180002271894
 30
0.0
  0
VERTEX
  5
19308
  8
0
 10
147.7954281989649132
 20
35.193786649577298
 30
0.0
  0
VERTEX
  5
19309
  8
0
 10
147.840656970500703
 20
35.1399545214042774
 30
0.0
  0
VERTEX
  5
1930A
  8
0
 10
147.8872942090536071
 20
35.0871508358953008
 30
0.0
  0
VERTEX
  5
1930B
  8
0
 10
147.9353278112253918
 20
35.0354048132375908
 30
0.0
  0
VERTEX
  5
1930C
  8
0
 10
147.9847456736183062
 20
34.9847456736183418
 30
0.0
  0
VERTEX
  5
1930D
  8
0
 10
148.0354048132375056
 20
34.9353278112253705
 30
0.0
  0
VERTEX
  5
1930E
  8
0
 10
148.0871508358951019
 20
34.8872942090535716
 30
0.0
  0
VERTEX
  5
1930F
  8
0
 10
148.1399545214040927
 20
34.8406569705007882
 30
0.0
  0
VERTEX
  5
19310
  8
0
 10
148.1937866495771914
 20
34.7954281989648493
 30
0.0
  0
VERTEX
  5
19311
  8
0
 10
148.2486180002271112
 20
34.7516199978435765
 30
0.0
  0
VERTEX
  5
19312
  8
0
 10
148.304419353166594
 20
34.7092444705348413
 30
0.0
  0
VERTEX
  5
19313
  8
0
 10
148.3611614882086087
 20
34.66831372043643
 30
0.0
  0
VERTEX
  5
19314
  8
0
 10
148.418815185165812
 20
34.6288398509461928
 30
0.0
  0
VERTEX
  5
19315
  8
0
 10
148.4773512238512012
 20
34.5908349654619798
 30
0.0
  0
VERTEX
  5
19316
  8
0
 10
148.5367403840772909
 20
34.5543111673815915
 30
0.0
  0
VERTEX
  5
19317
  8
0
 10
148.5969534456573058
 20
34.519280560102878
 30
0.0
  0
VERTEX
  5
19318
  8
0
 10
148.6579611884035046
 20
34.4857552470236897
 30
0.0
  0
VERTEX
  5
19319
  8
0
 10
148.7197343921291122
 20
34.4537473315418481
 30
0.0
  0
VERTEX
  5
1931A
  8
0
 10
148.782243836646586
 20
34.4232689170551822
 30
0.0
  0
VERTEX
  5
1931B
  8
0
 10
148.8454603017692079
 20
34.3943321069615067
 30
0.0
  0
VERTEX
  5
1931C
  8
0
 10
148.909354567309407
 20
34.3669490046587001
 30
0.0
  0
VERTEX
  5
1931D
  8
0
 10
148.9738974130800102
 20
34.3411317135445486
 30
0.0
  0
VERTEX
  5
1931E
  8
0
 10
149.0390596188939867
 20
34.3168923370169097
 30
0.0
  0
VERTEX
  5
1931F
  8
0
 10
149.1048119645639929
 20
34.294242978473612
 30
0.0
  0
VERTEX
  5
19320
  8
0
 10
149.1711252299027137
 20
34.2731957413124775
 30
0.0
  0
VERTEX
  5
19321
  8
0
 10
149.2379701947234025
 20
34.2537627289313917
 30
0.0
  0
VERTEX
  5
19322
  8
0
 10
149.3053176388382042
 20
34.2359560447281126
 30
0.0
  0
VERTEX
  5
19323
  8
0
 10
149.3731383420605141
 20
34.2197877921005187
 30
0.0
  0
VERTEX
  5
19324
  8
0
 10
149.4414030842029035
 20
34.2052700744464317
 30
0.0
  0
VERTEX
  5
19325
  8
0
 10
149.5100826450781142
 20
34.1924149951636807
 30
0.0
  0
VERTEX
  5
19326
  8
0
 10
149.5791478044988878
 20
34.1812346576501085
 30
0.0
  0
VERTEX
  5
19327
  8
0
 10
149.6485693422783072
 20
34.171741165303537
 30
0.0
  0
VERTEX
  5
19328
  8
0
 10
149.7183180382286878
 20
34.1639466215218235
 30
0.0
  0
VERTEX
  5
19329
  8
0
 10
149.7883646721633113
 20
34.1578631297027684
 30
0.0
  0
VERTEX
  5
1932A
  8
0
 10
149.8586800238950048
 20
34.1535027932442077
 30
0.0
  0
VERTEX
  5
1932B
  8
0
 10
149.929234873236112
 20
34.15087771554402
 30
0.0
  0
VERTEX
  5
1932C
  8
0
 10
150.0
 20
34.1499999999999915
 30
0.0
  0
SEQEND
  5
1932D
  8
0
  0
POLYLINE
  5
189EF
  8
0
 66
     1
 10
0.0
 20
0.0
 30
0.0
  0
VERTEX
  5
1932E
  8
0
 10
150.0
 20
34.1499999999999915
 30
0.0
  0
VERTEX
  5
1932F
  8
0
 10
150.0735119181289008
 20
34.1509315909572635
 30
0.0
  0
VERTEX
  5
19330
  8
0
 10
150.1465679099970885
 20
34.1537113930242597
 30
0.0
  0
VERTEX
  5
19331
  8
0
 10
150.2191455193971024
 20
34.1583169499937682
 30
0.0
  0
VERTEX
  5
19332
  8
0
 10
150.2912222901219081
 20
34.1647258056585201
 30
0.0
  0
VERTEX
  5
19333
  8
0
 10
150.3627757659643009
 20
34.1729155038112822
 30
0.0
  0
VERTEX
  5
19334
  8
0
 10
150.4337834907167917
 20
34.1828635882447998
 30
0.0
  0
VERTEX
  5
19335
  8
0
 10
150.5042230081722892
 20
34.1945476027518467
 30
0.0
  0
VERTEX
  5
19336
  8
0
 10
150.5740718621235033
 20
34.2079450911251826
 30
0.0
  0
VERTEX
  5
19337
  8
0
 10
150.6433075963633996
 20
34.2230335971575599
 30
0.0
  0
VERTEX
  5
19338
  8
0
 10
150.7119077546844039
 20
34.2397906646417596
 30
0.0
  0
VERTEX
  5
19339
  8
0
 10
150.7798498808795955
 20
34.2581938373704915
 30
0.0
  0
VERTEX
  5
1933A
  8
0
 10
150.8471115187415137
 20
34.2782206591365721
 30
0.0
  0
VERTEX
  5
1933B
  8
0
 10
150.9136702120628968
 20
34.2998486737327113
 30
0.0
  0
VERTEX
  5
1933C
  8
0
 10
150.9795035046367104
 20
34.323055424951697
 30
0.0
  0
VERTEX
  5
1933D
  8
0
 10
151.0445889402556077
 20
34.347818456586289
 30
0.0
  0
VERTEX
  5
1933E
  8
0
 10
151.1089040627122131
 20
34.3741153124292396
 30
0.0
  0
VERTEX
  5
1933F
  8
0
 10
151.1724264157994071
 20
34.4019235362733085
 30
0.0
  0
VERTEX
  5
19340
  8
0
 10
151.2351335433100132
 20
34.4312206719112481
 30
0.0
  0
VERTEX
  5
19341
  8
0
 10
151.2970029890367982
 20
34.4619842631358324
 30
0.0
  0
VERTEX
  5
19342
  8
0
 10
151.3580122967723014
 20
34.4941918537398067
 30
0.0
  0
VERTEX
  5
19343
  8
0
 10
151.4181390103096021
 20
34.5278209875159305
 30
0.0
  0
VERTEX
  5
19344
  8
0
 10
151.4773606734412112
 20
34.5628492082569707
 30
0.0
  0
VERTEX
  5
19345
  8
0
 10
151.5356548299600092
 20
34.599254059755701
 30
0.0
  0
VERTEX
  5
19346
  8
0
 10
151.592999023658507
 20
34.6370130858048384
 30
0.0
  0
VERTEX
  5
19347
  8
0
 10
151.6493707983298975
 20
34.676103830197178
 30
0.0
  0
VERTEX
  5
19348
  8
0
 10
151.7047476977666065
 20
34.716503836725451
 30
0.0
  0
VERTEX
  5
19349
  8
0
 10
151.7591072657614859
 20
34.7581906491824668
 30
0.0
  0
VERTEX
  5
1934A
  8
0
 10
151.8124270461073024
 20
34.8011418113609494
 30
0.0
  0
VERTEX
  5
1934B
  8
0
 10
151.8646845825967944
 20
34.84533486705363
 30
0.0
  0
VERTEX
  5
1934C
  8
0
 10
151.9158574190228137
 20
34.8907473600533109
 30
0.0
  0
VERTEX
  5
1934D
  8
0
 10
151.9659230991780987
 20
34.9373568341527374
 30
0.0
  0
VERTEX
  5
1934E
  8
0
 10
152.0148591668553024
 20
34.9851408331446692
 30
0.0
  0
VERTEX
  5
1934F
  8
0
 10
152.0626431658471915
 20
35.0340769008218729
 30
0.0
  0
VERTEX
  5
19350
  8
0
 10
152.1092526399467033
 20
35.0841425809770868
 30
0.0
  0
VERTEX
  5
19351
  8
0
 10
152.1546651329464055
 20
35.1353154174030919
 30
0.0
  0
VERTEX
  5
19352
  8
0
 10
152.1988581886390079
 20
35.1875729538926407
 30
0.0
  0
VERTEX
  5
19353
  8
0
 10
152.2418093508175048
 20
35.2408927342384786
 30
0.0
  0
VERTEX
  5
19354
  8
0
 10
152.2834961632744921
 20
35.2952523022333935
 30
0.0
  0
VERTEX
  5
19355
  8
0
 10
152.3238961698029073
 20
35.3506292016701025
 30
0.0
  0
VERTEX
  5
19356
  8
0
 10
152.3629869141952042
 20
35.407000976341422
 30
0.0
  0
VERTEX
  5
19357
  8
0
 10
152.4007459402442066
 20
35.4643451700400476
 30
0.0
  0
VERTEX
  5
19358
  8
0
 10
152.4371507917431074
 20
35.5226393265587888
 30
0.0
  0
VERTEX
  5
19359
  8
0
 10
152.4721790124839913
 20
35.5818609896903766
 30
0.0
  0
VERTEX
  5
1935A
  8
0
 10
152.5058081462601081
 20
35.6419877032275991
 30
0.0
  0
VERTEX
  5
1935B
  8
0
 10
152.5380157368641107
 20
35.7029970109631734
 30
0.0
  0
VERTEX
  5
1935C
  8
0
 10
152.5687793280887945
 20
35.7648664566898873
 30
0.0
  0
VERTEX
  5
1935D
  8
0
 10
152.5980764637266134
 20
35.8275735842005005
 30
0.0
  0
VERTEX
  5
1935E
  8
0
 10
152.6258846875705899
 20
35.8910959372877514
 30
0.0
  0
VERTEX
  5
1935F
  8
0
 10
152.6521815434136897
 20
35.9554110597444208
 30
0.0
  0
VERTEX
  5
19360
  8
0
 10
152.6769445750483101
 20
36.0204964953632611
 30
0.0
  0
VERTEX
  5
19361
  8
0
 10
152.7001513262673029
 20
36.0863297879370322
 30
0.0
  0
VERTEX
  5
19362
  8
0
 10
152.7217793408632929
 20
36.1528884812584934
 30
0.0
  0
VERTEX
  5
19363
  8
0
 10
152.7418061626295867
 20
36.2201501191203903
 30
0.0
  0
VERTEX
  5
19364
  8
0
 10
152.760209335358212
 20
36.2880922453155108
 30
0.0
  0
VERTEX
  5
19365
  8
0
 10
152.7769664028425041
 20
36.3566924036365791
 30
0.0
  0
VERTEX
  5
19366
  8
0
 10
152.7920549088748885
 20
36.4259281378763902
 30
0.0
  0
VERTEX
  5
19367
  8
0
 10
152.8054523972481888
 20
36.4957769918276611
 30
0.0
  0
VERTEX
  5
19368
  8
0
 10
152.8171364117552002
 20
36.5662165092832012
 30
0.0
  0
VERTEX
  5
19369
  8
0
 10
152.8270844961886041
 20
36.6372242340357204
 30
0.0
  0
VERTEX
  5
1936A
  8
0
 10
152.8352741943415083
 20
36.7087777098780066
 30
0.0
  0
VERTEX
  5
1936B
  8
0
 10
152.8416830500063099
 20
36.7808544806028195
 30
0.0
  0
VERTEX
  5
1936C
  8
0
 10
152.8462886069758042
 20
36.8534320900029186
 30
0.0
  0
VERTEX
  5
1936D
  8
0
 10
152.8490684090427862
 20
36.9264880818710495
 30
0.0
  0
VERTEX
  5
1936E
  8
0
 10
152.8499999999999943
 20
36.9999999999999716
 30
0.0
  0
VERTEX
  5
1936F
  8
0
 10
152.8490684090425873
 20
37.0735119181289008
 30
0.0
  0
VERTEX
  5
19370
  8
0
 10
152.8462886069756905
 20
37.1465679099970529
 30
0.0
  0
VERTEX
  5
19371
  8
0
 10
152.841683050006111
 20
37.2191455193971166
 30
0.0
  0
VERTEX
  5
19372
  8
0
 10
152.8352741943413946
 20
37.2912222901219295
 30
0.0
  0
VERTEX
  5
19373
  8
0
 10
152.8270844961886041
 20
37.3627757659642512
 30
0.0
  0
VERTEX
  5
19374
  8
0
 10
152.8171364117550013
 20
37.4337834907167633
 30
0.0
  0
VERTEX
  5
19375
  8
0
 10
152.8054523972481036
 20
37.5042230081723105
 30
0.0
  0
VERTEX
  5
19376
  8
0
 10
152.7920549088746895
 20
37.5740718621235814
 30
0.0
  0
VERTEX
  5
19377
  8
0
 10
152.7769664028423904
 20
37.6433075963633783
 30
0.0
  0
VERTEX
  5
19378
  8
0
 10
152.760209335358013
 20
37.7119077546844679
 30
0.0
  0
VERTEX
  5
19379
  8
0
 10
152.7418061626293877
 20
37.7798498808795671
 30
0.0
  0
VERTEX
  5
1937A
  8
0
 10
152.7217793408632929
 20
37.8471115187414711
 30
0.0
  0
VERTEX
  5
1937B
  8
0
 10
152.700151326267104
 20
37.9136702120629323
 30
0.0
  0
VERTEX
  5
1937C
  8
0
 10
152.6769445750481964
 20
37.9795035046367104
 30
0.0
  0
VERTEX
  5
1937D
  8
0
 10
152.6521815434136045
 20
38.0445889402555366
 30
0.0
  0
VERTEX
  5
1937E
  8
0
 10
152.6258846875705899
 20
38.1089040627122131
 30
0.0
  0
VERTEX
  5
1937F
  8
0
 10
152.598076463726386
 20
38.172426415799471
 30
0.0
  0
VERTEX
  5
19380
  8
0
 10
152.5687793280885955
 20
38.2351335433100701
 30
0.0
  0
VERTEX
  5
19381
  8
0
 10
152.5380157368639971
 20
38.2970029890367911
 30
0.0
  0
VERTEX
  5
19382
  8
0
 10
152.5058081462599944
 20
38.3580122967723725
 30
0.0
  0
VERTEX
  5
19383
  8
0
 10
152.472179012483906
 20
38.4181390103095808
 30
0.0
  0
VERTEX
  5
19384
  8
0
 10
152.4371507917429085
 20
38.4773606734411615
 30
0.0
  0
VERTEX
  5
19385
  8
0
 10
152.4007459402440929
 20
38.5356548299599027
 30
0.0
  0
VERTEX
  5
19386
  8
0
 10
152.3629869141950053
 20
38.5929990236585496
 30
0.0
  0
VERTEX
  5
19387
  8
0
 10
152.3238961698027083
 20
38.6493707983298478
 30
0.0
  0
VERTEX
  5
19388
  8
0
 10
152.2834961632744069
 20
38.704747697766571
 30
0.0
  0
VERTEX
  5
19389
  8
0
 10
152.2418093508173911
 20
38.7591072657614788
 30
0.0
  0
VERTEX
  5
1938A
  8
0
 10
152.1988581886388943
 20
38.8124270461073309
 30
0.0
  0
VERTEX
  5
1938B
  8
0
 10
152.1546651329462918
 20
38.8646845825968725
 30
0.0
  0
VERTEX
  5
1938C
  8
0
 10
152.1092526399465896
 20
38.9158574190228705
 30
0.0
  0
VERTEX
  5
1938D
  8
0
 10
152.0626431658469926
 20
38.9659230991780916
 30
0.0
  0
VERTEX
  5
1938E
  8
0
 10
152.0148591668551035
 20
39.0148591668552882
 30
0.0
  0
VERTEX
  5
1938F
  8
0
 10
151.9659230991780134
 20
39.06264316584722
 30
0.0
  0
VERTEX
  5
19390
  8
0
 10
151.9158574190227
 20
39.1092526399466465
 30
0.0
  0
VERTEX
  5
19391
  8
0
 10
151.8646845825967091
 20
39.1546651329463273
 30
0.0
  0
VERTEX
  5
19392
  8
0
 10
151.8124270461071035
 20
39.1988581886390293
 30
0.0
  0
VERTEX
  5
19393
  8
0
 10
151.7591072657614006
 20
39.2418093508174906
 30
0.0
  0
VERTEX
  5
19394
  8
0
 10
151.7047476977664076
 20
39.2834961632744921
 30
0.0
  0
VERTEX
  5
19395
  8
0
 10
151.6493707983296133
 20
39.3238961698027794
 30
0.0
  0
VERTEX
  5
19396
  8
0
 10
151.5929990236583933
 20
39.362986914195119
 30
0.0
  0
VERTEX
  5
19397
  8
0
 10
151.5356548299598956
 20
39.4007459402442777
 30
0.0
  0
VERTEX
  5
19398
  8
0
 10
151.4773606734410123
 20
39.4371507917429795
 30
0.0
  0
VERTEX
  5
19399
  8
0
 10
151.4181390103094031
 20
39.4721790124840268
 30
0.0
  0
VERTEX
  5
1939A
  8
0
 10
151.3580122967721877
 20
39.5058081462601507
 30
0.0
  0
VERTEX
  5
1939B
  8
0
 10
151.297002989036713
 20
39.5380157368641179
 30
0.0
  0
VERTEX
  5
1939C
  8
0
 10
151.2351335433100132
 20
39.5687793280887092
 30
0.0
  0
VERTEX
  5
1939D
  8
0
 10
151.1724264157992934
 20
39.5980764637266489
 30
0.0
  0
VERTEX
  5
1939E
  8
0
 10
151.1089040627120141
 20
39.6258846875707178
 30
0.0
  0
VERTEX
  5
1939F
  8
0
 10
151.0445889402554087
 20
39.6521815434136684
 30
0.0
  0
VERTEX
  5
193A0
  8
0
 10
150.9795035046365967
 20
39.6769445750482532
 30
0.0
  0
VERTEX
  5
193A1
  8
0
 10
150.9136702120628115
 20
39.7001513262672603
 30
0.0
  0
VERTEX
  5
193A2
  8
0
 10
150.8471115187412863
 20
39.7217793408633995
 30
0.0
  0
VERTEX
  5
193A3
  8
0
 10
150.7798498808795102
 20
39.741806162629473
 30
0.0
  0
VERTEX
  5
193A4
  8
0
 10
150.7119077546842902
 20
39.760209335358212
 30
0.0
  0
VERTEX
  5
193A5
  8
0
 10
150.6433075963632007
 20
39.7769664028423975
 30
0.0
  0
VERTEX
  5
193A6
  8
0
 10
150.5740718621233896
 20
39.7920549088747819
 30
0.0
  0
VERTEX
  5
193A7
  8
0
 10
150.5042230081722039
 20
39.8054523972481178
 30
0.0
  0
VERTEX
  5
193A8
  8
0
 10
150.4337834907165927
 20
39.8171364117551718
 30
0.0
  0
VERTEX
  5
193A9
  8
0
 10
150.3627757659641873
 20
39.8270844961886823
 30
0.0
  0
VERTEX
  5
193AA
  8
0
 10
150.2912222901217092
 20
39.8352741943414372
 30
0.0
  0
VERTEX
  5
193AB
  8
0
 10
150.2191455193971024
 20
39.841683050006182
 30
0.0
  0
VERTEX
  5
193AC
  8
0
 10
150.1465679099970032
 20
39.8462886069756905
 30
0.0
  0
VERTEX
  5
193AD
  8
0
 10
150.0735119181287018
 20
39.849068409042701
 30
0.0
  0
VERTEX
  5
193AE
  8
0
 10
150.0
 20
39.849999999999973
 30
0.0
  0
SEQEND
  5
193AF
  8
0
  0
ENDSEC
  0
EOF
