  0
SECTION
  2
HEADER
  9
$ACADVER
  1
AC1009
  9
$INSBASE
 10
0.0
 20
0.0
 30
0.0
  9
$EXTMIN
 10
0.0
 20
0.0000000000000568
 30
0.0
  9
$EXTMAX
 10
188.0
 20
213.000000000000199
 30
0.0
  9
$LIMMIN
 10
0.0
 20
0.0
  9
$LIMMAX
 10
420.0
 20
297.0
  9
$ORTHOMODE
 70
     1
  9
$REGENMODE
 70
     1
  9
$FILLMODE
 70
     1
  9
$QTEXTMODE
 70
     0
  9
$MIRRTEXT
 70
     0
  9
$DRAGMODE
 70
     2
  9
$LTSCALE
 40
1.0
  9
$OSMODE
 70
    37
  9
$ATTMODE
 70
     1
  9
$TEXTSIZE
 40
2.5
  9
$TRACEWID
 40
1.0
  9
$TEXTSTYLE
  7
STANDARD
  9
$CLAYER
  8
1
  9
$CELTYPE
  6
BYLAYER
  9
$CECOLOR
 62
   256
  9
$DIMSCALE
 40
1.0
  9
$DIMASZ
 40
2.5
  9
$DIMEXO
 40
0.625
  9
$DIMDLI
 40
3.75
  9
$DIMRND
 40
0.0
  9
$DIMDLE
 40
0.0
  9
$DIMEXE
 40
1.25
  9
$DIMTP
 40
0.0
  9
$DIMTM
 40
0.0
  9
$DIMTXT
 40
2.5
  9
$DIMCEN
 40
2.5
  9
$DIMTSZ
 40
0.0
  9
$DIMTOL
 70
     0
  9
$DIMLIM
 70
     0
  9
$DIMTIH
 70
     0
  9
$DIMTOH
 70
     0
  9
$DIMSE1
 70
     0
  9
$DIMSE2
 70
     0
  9
$DIMTAD
 70
     1
  9
$DIMZIN
 70
     8
  9
$DIMBLK
  1

  9
$DIMASO
 70
     1
  9
$DIMSHO
 70
     1
  9
$DIMPOST
  1

  9
$DIMAPOST
  1

  9
$DIMALT
 70
     0
  9
$DIMALTD
 70
     3
  9
$DIMALTF
 40
0.03937007874016
  9
$DIMLFAC
 40
1.0
  9
$DIMTOFL
 70
     1
  9
$DIMTVP
 40
0.0
  9
$DIMTIX
 70
     0
  9
$DIMSOXD
 70
     0
  9
$DIMSAH
 70
     0
  9
$DIMBLK1
  1

  9
$DIMBLK2
  1

  9
$DIMSTYLE
  2
ISO-25
  9
$DIMCLRD
 70
     0
  9
$DIMCLRE
 70
     0
  9
$DIMCLRT
 70
     0
  9
$DIMTFAC
 40
1.0
  9
$DIMGAP
 40
0.625
  9
$LUNITS
 70
     2
  9
$LUPREC
 70
     1
  9
$SKETCHINC
 40
1.0
  9
$FILLETRAD
 40
0.0
  9
$AUNITS
 70
     0
  9
$AUPREC
 70
     0
  9
$MENU
  1
.
  9
$ELEVATION
 40
0.0
  9
$PELEVATION
 40
0.0
  9
$THICKNESS
 40
0.0
  9
$LIMCHECK
 70
     0
  9
$BLIPMODE
 70
     0
  9
$CHAMFERA
 40
0.0
  9
$CHAMFERB
 40
0.0
  9
$SKPOLY
 70
     0
  9
$TDCREATE
 40
2454946.5997685180045664
  9
$TDUPDATE
 40
2460745.6381018520332873
  9
$TDINDWG
 40
1.4249492939999999
  9
$TDUSRTIMER
 40
1.4249491204
  9
$USRTIMER
 70
     1
  9
$ANGBASE
 50
0.0
  9
$ANGDIR
 70
     0
  9
$PDMODE
 70
     0
  9
$PDSIZE
 40
0.0
  9
$PLINEWID
 40
0.0
  9
$COORDS
 70
     1
  9
$SPLFRAME
 70
     0
  9
$SPLINETYPE
 70
     6
  9
$SPLINESEGS
 70
     8
  9
$ATTDIA
 70
     1
  9
$ATTREQ
 70
     1
  9
$HANDLING
 70
     1
  9
$HANDSEED
  5
173A9
  9
$SURFTAB1
 70
     6
  9
$SURFTAB2
 70
     6
  9
$SURFTYPE
 70
     6
  9
$SURFU
 70
     6
  9
$SURFV
 70
     6
  9
$UCSNAME
  2

  9
$UCSORG
 10
0.0
 20
0.0
 30
0.0
  9
$UCSXDIR
 10
1.0
 20
0.0
 30
0.0
  9
$UCSYDIR
 10
0.0
 20
1.0
 30
0.0
  9
$PUCSNAME
  2

  9
$PUCSORG
 10
0.0
 20
0.0
 30
0.0
  9
$PUCSXDIR
 10
1.0
 20
0.0
 30
0.0
  9
$PUCSYDIR
 10
0.0
 20
1.0
 30
0.0
  9
$USERI1
 70
     0
  9
$USERI2
 70
     0
  9
$USERI3
 70
     0
  9
$USERI4
 70
     0
  9
$USERI5
 70
     0
  9
$USERR1
 40
0.0
  9
$USERR2
 40
0.0
  9
$USERR3
 40
0.0
  9
$USERR4
 40
0.0
  9
$USERR5
 40
0.0
  9
$WORLDVIEW
 70
     1
  9
$SHADEDGE
 70
     3
  9
$SHADEDIF
 70
    70
  9
$TILEMODE
 70
     1
  9
$MAXACTVP
 70
    64
  9
$PLIMCHECK
 70
     0
  9
$PEXTMIN
 10
0.0
 20
0.0
 30
0.0
  9
$PEXTMAX
 10
0.0
 20
0.0
 30
0.0
  9
$PLIMMIN
 10
0.0
 20
0.0
  9
$PLIMMAX
 10
12.0
 20
9.0
  9
$UNITMODE
 70
     0
  9
$VISRETAIN
 70
     1
  9
$PLINEGEN
 70
     0
  9
$PSLTSCALE
 70
     1
  0
ENDSEC
  0
SECTION
  2
TABLES
  0
TABLE
  2
VPORT
 70
     1
  0
VPORT
  2
*ACTIVE
 70
     0
 10
0.0
 20
0.0
 11
1.0
 21
1.0
 12
-51.3338832973976196
 22
-69.0220752235724291
 13
0.0
 23
0.0
 14
10.0
 24
10.0
 15
10.0
 25
10.0
 16
0.0
 26
0.0
 36
260.884935587131622
 17
319.8196404188369115
 27
183.747620215537097
 37
0.0
 40
229.4510899839293927
 41
2.340243902439024
 42
50.0
 43
0.0
 44
0.0
 50
0.0
 51
0.0
 71
     0
 72
  1000
 73
     1
 74
     3
 75
     0
 76
     0
 77
     0
 78
     0
  0
ENDTAB
  0
TABLE
  2
LTYPE
 70
     4
  0
LTYPE
  2
CONTINUOUS
 70
     0
  3
Solid line
 72
    65
 73
     0
 40
0.0
  0
LTYPE
  2
CENTER
 70
     0
  3
Center ____ _ ____ _ ____ _ ____ _ ____ _ ____
 72
    65
 73
     4
 40
10.1600000000000001
 49
6.3499999999999979
 49
-1.27
 49
1.27
 49
-1.27
  0
LTYPE
  2
PHANTOM2
 70
     0
  3
Phantom (.5x) ___ _ _ ___ _ _ ___ _ _ ___ _ _
 72
    65
 73
     6
 40
31.75
 49
15.875
 49
-3.174999999999998
 49
3.174999999999998
 49
-3.174999999999998
 49
3.174999999999998
 49
-3.174999999999998
  0
LTYPE
  2
HIDDEN
 70
     0
  3
Hidden __ __ __ __ __ __ __ __ __ __ __ __ __ __
 72
    65
 73
     2
 40
1.905
 49
1.27
 49
-0.635
  0
ENDTAB
  0
TABLE
  2
LAYER
 70
     5
  0
LAYER
  2
0
 70
     0
 62
     7
  6
CONTINUOUS
  0
LAYER
  2
1
 70
     0
 62
     1
  6
CENTER
  0
LAYER
  2
DEFPOINTS
 70
     0
 62
     7
  6
CONTINUOUS
  0
LAYER
  2
3
 70
     0
 62
     3
  6
CONTINUOUS
  0
LAYER
  2
2
 70
     0
 62
     2
  6
HIDDEN
  0
ENDTAB
  0
TABLE
  2
STYLE
 70
     3
  0
STYLE
  2
STANDARD
 70
     0
 40
0.0
 41
1.0
 50
0.0
 71
     0
 42
2.5
  3
txt
  4

  0
STYLE
  2
ANNOTATIVE
 70
     0
 40
0.0
 41
1.0
 50
0.0
 71
     0
 42
0.2
  3
txt
  4

  0
STYLE
  2
STANDARD1
 70
     0
 40
0.0
 41
1.0
 50
0.0
 71
     0
 42
3.0
  3
txt
  4

  0
ENDTAB
  0
TABLE
  2
VIEW
 70
     0
  0
ENDTAB
  0
TABLE
  2
UCS
 70
     0
  0
ENDTAB
  0
TABLE
  2
APPID
 70
   133
  0
APPID
  2
ACAD
 70
     0
  0
APPID
  2
ACADANNOTATIVE
 70
     0
  0
APPID
  2
_FTCNV
 70
     0
  0
APPID
  2
GENIUS_GENODEF_13
 70
     0
  0
APPID
  2
GENIUS_GENOENT_13
 70
     0
  0
APPID
  2
GENIUS_GENOBJ-N-CEN_13
 70
     0
  0
APPID
  2
GENIUS_GENOLIS_13
 70
     0
  0
APPID
  2
GENIUS_GENOREF_13
 70
     0
  0
APPID
  2
GENIUS_GENOBJ-N-CRS_13
 70
     0
  0
APPID
  2
GENIUS_GENOBJ-N-FIL_13
 70
     0
  0
APPID
  2
GENIUS_GENOBJ-N-REC_13
 70
     0
  0
APPID
  2
GENIUS_GENFIL_13
 70
     0
  0
APPID
  2
GENIUS_GENOBJ-N-CHA_13
 70
     0
  0
APPID
  2
ASM_BASE
 70
     0
  0
APPID
  2
_PHO
 70
     0
  0
APPID
  2
_CLP
 70
     0
  0
APPID
  2
MOJIGUMI_PARTS
 70
     0
  0
APPID
  2
_DBL
 70
     0
  0
APPID
  2
_PWH
 70
     0
  0
APPID
  2
_G9P
 70
     0
  0
APPID
  2
AME_SOL
 70
     0
  0
APPID
  2
HAKO_DEF
 70
     0
  0
APPID
  2
HAKO_TXT
 70
     0
  0
APPID
  2
HAKO_OVR
 70
     0
  0
APPID
  2
ASM_EXPLO_VER_2_00
 70
     0
  0
APPID
  2
ASM_CADM_VER_12_00
 70
     0
  0
APPID
  2
ASM_BASEFORO
 70
     0
  0
APPID
  2
ASM_BASETRAVI
 70
     0
  0
APPID
  2
ASM_BASETRAVI1
 70
     0
  0
APPID
  2
ASM_GRUPPI
 70
     0
  0
APPID
  2
ASM_CADM_ALBERO
 70
     0
  0
APPID
  2
ASM_GOLE
 70
     0
  0
APPID
  2
GENIUS_GENCFG_13
 70
     0
  0
APPID
  2
GENIUS_GENCFG0_13
 70
     0
  0
APPID
  2
GENIUS_GENCFG1_13
 70
     0
  0
APPID
  2
GENIUS_GENCFG2_13
 70
     0
  0
APPID
  2
GENIUS_GENCFG3_13
 70
     0
  0
APPID
  2
GENIUS_GENCFG4_13
 70
     0
  0
APPID
  2
GENIUS_GEVCFG0_13
 70
     0
  0
APPID
  2
GENIUS_GENHATCH_13
 70
     0
  0
APPID
  2
GENIUS_GEFCFG0_13
 70
     0
  0
APPID
  2
GENIUS_GENOBJ-N-HTC_13
 70
     0
  0
APPID
  2
DCO15
 70
     0
  0
APPID
  2
AVE_RENDER
 70
     0
  0
APPID
  2
AVE_ENTITY_MATERIAL
 70
     0
  0
APPID
  2
AVE_FINISH
 70
     0
  0
APPID
  2
AVE_MATERIAL
 70
     0
  0
APPID
  2
AVE_GLOBAL
 70
     0
  0
APPID
  2
_NUM
 70
     0
  0
APPID
  2
HAKO_FNM
 70
     0
  0
APPID
  2
_CALL_MAC$
 70
     0
  0
APPID
  2
ACA_CADIMENU
 70
     0
  0
APPID
  2
AUTOCAD_POSTSCRIPT_FIGURE
 70
     0
  0
APPID
  2
GEV_VCCNULL_SWITCH_OFF
 70
     0
  0
APPID
  2
GENIUS_GENDTOL_13
 70
     0
  0
APPID
  2
GENIUS_GEFWELD_13
 70
     0
  0
APPID
  2
GENIUS_GENOBJ-F-WELS_13
 70
     0
  0
APPID
  2
GEVID961514679
 70
     0
  0
APPID
  2
GEVDC
 70
     0
  0
APPID
  2
GEVPT
 70
     0
  0
APPID
  2
GEVIT
 70
     0
  0
APPID
  2
VCC
 70
     0
  0
APPID
  2
GENBH
 70
     0
  0
APPID
  2
GEVMK
 70
     0
  0
APPID
  2
GENIUS_GENBH_13
 70
     0
  0
APPID
  2
GENIUS_GENOBJ-NBEHI-BHF_13
 70
     0
  0
APPID
  2
GENIUS_GENOBJ-NBEHI-BHB_13
 70
     0
  0
APPID
  2
GENIUS_GENOBJ-F-DESC_13
 70
     0
  0
APPID
  2
GENIUS_GEFDESC_14
 70
     0
  0
APPID
  2
GENIUS_GENOBJ-F-PART_13
 70
     0
  0
APPID
  2
GENIUS_GEFSTDP_13
 70
     0
  0
APPID
  2
GENIUS_GEFPARTINS_13
 70
     0
  0
APPID
  2
GEVID961514680
 70
     0
  0
APPID
  2
GENIUS_GENTRA_14
 70
     0
  0
APPID
  2
GENIUS_GENINF13_13
 70
     0
  0
APPID
  2
GENIUS_GENOBJ-N-INFOPT_13
 70
     0
  0
APPID
  2
GENIUS_GENOBJ-N-RSSYM_13
 70
     0
  0
APPID
  2
GENIUS_GENSYMENT_13
 70
     0
  0
APPID
  2
GENIUS_GENSCSYM_13
 70
     0
  0
APPID
  2
GENIUS_GEFINFNAM_13
 70
     0
  0
APPID
  2
GENIUS_GENREC_14
 70
     0
  0
APPID
  2
GEVID962097543
 70
     0
  0
APPID
  2
GEVID962097544
 70
     0
  0
APPID
  2
GEVID962097545
 70
     0
  0
APPID
  2
GENIUS_DUMCFG0_13
 70
     0
  0
APPID
  2
GEVID962352965
 70
     0
  0
APPID
  2
GEVID962352966
 70
     0
  0
APPID
  2
GEVID962352968
 70
     0
  0
APPID
  2
GEVRADREF
 70
     0
  0
APPID
  2
GEVID963230099
 70
     0
  0
APPID
  2
GENIUS_GENOBJ-F-FEAT_13
 70
     0
  0
APPID
  2
GENIUS_GEFFEAT_14
 70
     0
  0
APPID
  2
GEVID963230100
 70
     0
  0
APPID
  2
GEVID963230101
 70
     0
  0
APPID
  2
GENIUS_GENHINW_13
 70
     0
  0
APPID
  2
GENIUS_FIRSTVISTXT_14
 70
     0
  0
APPID
  2
GENIUS_GENOBJ-N-LEADER_13
 70
     0
  0
APPID
  2
GEVID971698136
 70
     0
  0
APPID
  2
GEVID972029070
 70
     0
  0
APPID
  2
MCAD_NO_VIS
 70
     0
  0
APPID
  2
ACAD_TEMP_GRAPHIC
 70
     0
  0
APPID
  2
ACATTRIBSERVICES
 70
     0
  0
APPID
  2
GENIUS_GENDIMSH_14
 70
     0
  0
APPID
  2
CONTENTTABDATA
 70
     0
  0
APPID
  2
CONTENTCURRENTTAB
 70
     0
  0
APPID
  2
GENIUS_GENBLKED_14
 70
     0
  0
APPID
  2
GENIUS_GENOBJ_13
 70
     0
  0
APPID
  2
GENIUS_GENOBJ-N-TIT_13
 70
     0
  0
APPID
  2
GENIUS_GENTITLE_13
 70
     0
  0
APPID
  2
GENIUS_GENZVEED_13
 70
     0
  0
APPID
  2
GENIUS_GEFINERT_13
 70
     0
  0
APPID
  2
GENIUS_GENOBJ-F-INER_13
 70
     0
  0
APPID
  2
GENIUS_GENOBJ-N-ZOO_13
 70
     0
  0
APPID
  2
GENIUS_GENZOO_13
 70
     0
  0
APPID
  2
GENIUS_GENOBJ-F-TOL_13
 70
     0
  0
APPID
  2
GENIUS_GENOBJ-N-REV_13
 70
     0
  0
APPID
  2
GENIUS_GENREC_13
 70
     0
  0
APPID
  2
_KTH
 70
     0
  0
APPID
  2
GENIUS_GENOBJ-N-SEC_13
 70
     0
  0
APPID
  2
ACAD_EXEMPT_FROM_CAD_STANDARDS
 70
     0
  0
APPID
  2
ACAD_MLEADERVER
 70
     0
  0
APPID
  2
ACAD_NAV_VCDISPLAY
 70
     0
  0
APPID
  2
ACAD_PSEXT
 70
     0
  0
APPID
  2
ACAD_DSTYLE_DIMJAG
 70
     0
  0
APPID
  2
ACAD_DSTYLE_DIMTALN
 70
     0
  0
APPID
  2
ACAD_DSTYLE_DIMBREAK
 70
     0
  0
APPID
  2
ACAECLAYERSTANDARD
 70
     0
  0
APPID
  2
ACCMTRANSPARENCY
 70
     0
  0
APPID
  2
ACAD_DSTYLE_DIM_LINETYPE
 70
     0
  0
APPID
  2
GRADIENTCOLOR1ACI
 70
     0
  0
APPID
  2
GRADIENTCOLOR2ACI
 70
     0
  0
APPID
  2
ACAD_DSTYLE_DIMRADIAL_EXTENSION
 70
     0
  0
APPID
  2
ACAD_TC
 70
     0
  0
ENDTAB
  0
TABLE
  2
DIMSTYLE
 70
     3
  0
DIMSTYLE
  2
STANDARD
 70
     0
  3

  4

  5

  6

  7

 40
1.0
 41
0.18
 42
0.0625
 43
0.38
 44
0.18
 45
0.0
 46
0.0
 47
0.0
 48
0.0
140
0.18
141
0.09
142
0.0
143
25.3999999999999986
144
1.0
145
0.0
146
1.0
147
0.09
 71
     0
 72
     0
 73
     1
 74
     1
 75
     0
 76
     0
 77
     0
 78
     0
170
     0
171
     2
172
     0
173
     0
174
     0
175
     0
176
     0
177
     0
178
     0
  0
DIMSTYLE
  2
ANNOTATIVE
 70
     0
  3

  4

  5

  6

  7

 40
1.0
 41
0.18
 42
0.0625
 43
0.38
 44
0.18
 45
0.0
 46
0.0
 47
0.0
 48
0.0
140
0.18
141
0.09
142
0.0
143
25.3999999999999986
144
1.0
145
0.0
146
1.0
147
0.09
 71
     0
 72
     0
 73
     1
 74
     1
 75
     0
 76
     0
 77
     0
 78
     0
170
     0
171
     2
172
     0
173
     0
174
     0
175
     0
176
     0
177
     0
178
     0
  0
DIMSTYLE
  2
ISO-25
 70
     0
  3

  4

  5

  6

  7

 40
1.0
 41
2.5
 42
0.625
 43
3.75
 44
1.25
 45
0.0
 46
0.0
 47
0.0
 48
0.0
140
2.5
141
2.5
142
0.0
143
0.03937007874016
144
1.0
145
0.0
146
1.0
147
0.625
 71
     0
 72
     0
 73
     0
 74
     0
 75
     0
 76
     0
 77
     1
 78
     8
170
     0
171
     3
172
     1
173
     0
174
     0
175
     0
176
     0
177
     0
178
     0
  0
ENDTAB
  0
ENDSEC
  0
SECTION
  2
BLOCKS
  0
BLOCK
  8
0
  2
$MODEL_SPACE
 70
     0
 10
0.0
 20
0.0
 30
0.0
  3
$MODEL_SPACE
  1

  0
ENDBLK
  5
1709F
  8
0
  0
BLOCK
 67
     1
  8
0
  2
$PAPER_SPACE
 70
     0
 10
0.0
 20
0.0
 30
0.0
  3
$PAPER_SPACE
  1

  0
ENDBLK
  5
1709B
 67
     1
  8
0
  0
ENDSEC
  0
SECTION
  2
ENTITIES
  0
TEXT
  5
1562C
  8
0
 62
     3
 10
0.0
 20
0.0000000000000568
 30
0.0
 40
10.0
  1
IMR-TA-6
  7
STANDARD1
  0
LINE
  5
16C22
  8
0
 10
183.0000000000001137
 20
109.4999999999999005
 30
0.0
 11
182.5
 21
109.9999999999999005
 31
0.0
  0
LINE
  5
16C23
  8
0
 10
117.500000000000199
 20
109.9999999999999005
 30
0.0
 11
117.0
 21
109.4999999999999005
 31
0.0
  0
LINE
  5
16C24
  8
0
 10
117.000000000000199
 20
109.4999999999999005
 30
0.0
 11
117.000000000000199
 21
102.4999999999999005
 31
0.0
  0
LINE
  5
16C25
  8
0
 10
183.0
 20
102.4999999999999005
 30
0.0
 11
183.0
 21
109.4999999999999005
 31
0.0
  0
LINE
  5
16C26
  8
0
 10
117.000000000000199
 20
102.4999999999999005
 30
0.0
 11
118.0
 21
101.4999999999999005
 31
0.0
  0
LINE
  5
16C27
  8
0
 10
182.0000000000001137
 20
101.4999999999999005
 30
0.0
 11
183.0
 21
102.4999999999999005
 31
0.0
  0
LINE
  5
16C28
  8
0
 10
152.5000000000003979
 20
99.9999999999997868
 30
0.0
 11
152.5000000000003979
 21
94.9999999999996447
 31
0.0
  0
LINE
  5
16C29
  8
0
 10
155.5000000000003979
 20
94.9999999999996447
 30
0.0
 11
155.5000000000003979
 21
99.9999999999997868
 31
0.0
  0
LINE
  5
16C2A
  8
0
 10
176.000000000000199
 20
100.0
 30
0.0
 11
177.500000000000199
 21
101.4999999999999005
 31
0.0
  0
LINE
  5
16C2B
  8
0
 10
144.000000000000199
 20
92.5000000000001421
 30
0.0
 11
144.000000000000199
 21
99.9999999999997158
 31
0.0
  0
LINE
  5
16C2C
  8
0
 10
139.000000000000199
 20
99.9999999999997442
 30
0.0
 11
139.000000000000199
 21
92.5000000000001421
 31
0.0
  0
LINE
  5
16C2D
  8
0
 10
170.000000000000199
 20
92.5000000000001847
 30
0.0
 11
170.000000000000199
 21
99.999999999999801
 31
0.0
  0
LINE
  5
16C2E
  8
0
 10
165.000000000000199
 20
99.9999999999997868
 30
0.0
 11
165.000000000000199
 21
92.5000000000001847
 31
0.0
  0
LINE
  5
16C2F
  8
0
 10
183.0
 20
109.5
 30
0.0
 11
117.000000000000199
 21
109.5
 31
0.0
  0
LINE
  5
16C30
  8
0
 10
117.500000000000199
 20
110.0
 30
0.0
 11
182.5
 21
110.0
 31
0.0
  0
LINE
  5
16C31
  8
0
 10
117.000000000000199
 20
102.5
 30
0.0
 11
183.0
 21
102.4999999999999005
 31
0.0
  0
LINE
  5
16C32
  8
0
 10
182.0000000000001137
 20
101.4999999999999005
 30
0.0
 11
118.0
 21
101.5
 31
0.0
  0
LINE
  5
16C35
  8
0
 10
124.0401785714285978
 20
100.0
 30
0.0
 11
176.000000000000199
 21
100.0
 31
0.0
  0
LINE
  5
16C39
  8
0
 10
155.5000000000003979
 20
94.9999999999996447
 30
0.0
 11
152.5000000000003979
 21
94.9999999999996447
 31
0.0
  0
LINE
  5
16C3A
  8
0
 10
141.500000000000199
 20
92.5000000000001421
 30
0.0
 11
139.000000000000199
 21
92.5000000000001421
 31
0.0
  0
LINE
  5
16C3B
  8
0
 10
144.000000000000199
 20
92.5000000000001421
 30
0.0
 11
141.500000000000199
 21
92.5000000000001421
 31
0.0
  0
LINE
  5
16C3C
  8
0
 10
167.500000000000199
 20
92.5000000000001563
 30
0.0
 11
165.000000000000199
 21
92.5000000000001847
 31
0.0
  0
LINE
  5
16C3D
  8
0
 10
170.000000000000199
 20
92.5000000000001847
 30
0.0
 11
167.500000000000199
 21
92.5000000000001563
 31
0.0
  0
LINE
  5
16C3E
  8
2
 10
155.5000000000003979
 20
105.9999999999997016
 30
0.0
 11
152.5000000000003979
 21
105.9999999999997016
 31
0.0
  0
LINE
  5
16C3F
  8
2
 10
155.5000000000003979
 20
104.999999999999801
 30
0.0
 11
152.5000000000003979
 21
104.999999999999801
 31
0.0
  0
LINE
  5
16C40
  8
2
 10
136.500000000000199
 20
108.1999999999998039
 30
0.0
 11
146.500000000000199
 21
108.1999999999998039
 31
0.0
  0
LINE
  5
16C41
  8
2
 10
136.2000000000001876
 20
108.499999999999801
 30
0.0
 11
146.8000000000002956
 21
108.499999999999801
 31
0.0
  0
LINE
  5
16C42
  8
2
 10
144.000000000000199
 20
105.7000000000001023
 30
0.0
 11
139.000000000000199
 21
105.7000000000001023
 31
0.0
  0
LINE
  5
16C43
  8
2
 10
153.5000000000003979
 20
101.0999999999997954
 30
0.0
 11
146.500000000000199
 21
101.0999999999997954
 31
0.0
  0
LINE
  5
16C44
  8
2
 10
162.5
 20
108.2000000000000028
 30
0.0
 11
172.5
 21
108.2000000000000028
 31
0.0
  0
LINE
  5
16C45
  8
2
 10
162.1999999999999034
 20
108.5
 30
0.0
 11
172.8000000000000114
 21
108.5
 31
0.0
  0
LINE
  5
16C46
  8
2
 10
151.250000000000199
 20
103.499999999999801
 30
0.0
 11
148.7500000000003979
 21
103.499999999999801
 31
0.0
  0
LINE
  5
16C47
  8
2
 10
123.7000000000000028
 20
109.2999999999997982
 30
0.0
 11
121.2000000000003013
 21
109.2999999999999972
 31
0.0
  0
LINE
  5
16C48
  8
2
 10
126.2000000000000028
 20
109.2999999999999972
 30
0.0
 11
123.7000000000000028
 21
109.2999999999997982
 31
0.0
  0
LINE
  5
16C49
  8
2
 10
170.000000000000199
 20
105.7000000000002018
 30
0.0
 11
165.000000000000199
 21
105.7000000000002018
 31
0.0
  0
LINE
  5
16C4A
  8
2
 10
123.7000000000000028
 20
108.2499999999999005
 30
0.0
 11
122.4500000000000028
 21
108.25
 31
0.0
  0
LINE
  5
16C4B
  8
2
 10
124.9500000000000028
 20
108.25
 30
0.0
 11
123.7000000000000028
 21
108.2499999999999005
 31
0.0
  0
LINE
  5
16C4C
  8
2
 10
152.0000000000003979
 20
101.4999999999997016
 30
0.0
 11
152.0000000000003979
 21
109.9999999999997016
 31
0.0
  0
LINE
  5
16C4D
  8
2
 10
148.0000000000003979
 20
109.9999999999997016
 30
0.0
 11
148.0000000000003979
 21
101.4999999999997016
 31
0.0
  0
LINE
  5
16C4E
  8
2
 10
161.5000000000003979
 20
110.0
 30
0.0
 11
161.5000000000003979
 21
100.8423458706847953
 31
0.0
  0
LINE
  5
16C4F
  8
2
 10
166.5000000000003979
 20
101.4999999999997016
 30
0.0
 11
166.5000000000003979
 21
110.0
 31
0.0
  0
LINE
  5
16C50
  8
2
 10
152.5000000000003979
 20
105.9999999999997016
 30
0.0
 11
152.5000000000003979
 21
99.9999999999997868
 31
0.0
  0
LINE
  5
16C51
  8
2
 10
155.5000000000003979
 20
99.9999999999997868
 30
0.0
 11
155.5000000000003979
 21
105.9999999999997016
 31
0.0
  0
LINE
  5
16C52
  8
2
 10
136.2000000000001876
 20
108.499999999999801
 30
0.0
 11
139.000000000000199
 21
105.7000000000001023
 31
0.0
  0
LINE
  5
16C53
  8
2
 10
144.000000000000199
 20
105.6999999999999034
 30
0.0
 11
146.8000000000002956
 21
108.499999999999801
 31
0.0
  0
LINE
  5
16C54
  8
2
 10
146.8000000000002956
 20
108.499999999999801
 30
0.0
 11
146.8000000000002956
 21
109.999999999999801
 31
0.0
  0
LINE
  5
16C55
  8
2
 10
136.2000000000001876
 20
109.999999999999801
 30
0.0
 11
136.2000000000001876
 21
108.499999999999801
 31
0.0
  0
LINE
  5
16C56
  8
2
 10
146.500000000000199
 20
108.1999999999998039
 30
0.0
 11
146.500000000000199
 21
108.5000000000000995
 31
0.0
  0
LINE
  5
16C57
  8
2
 10
136.500000000000199
 20
108.5000000000000995
 30
0.0
 11
136.500000000000199
 21
108.1999999999998039
 31
0.0
  0
LINE
  5
16C58
  8
2
 10
144.2500000000003979
 20
99.999999999999801
 30
0.0
 11
144.2500000000003979
 21
105.9500000000001023
 31
0.0
  0
LINE
  5
16C59
  8
2
 10
138.7500000000003979
 20
105.9500000000002018
 30
0.0
 11
138.7500000000003979
 21
99.999999999999801
 31
0.0
  0
LINE
  5
16C5A
  8
2
 10
144.000000000000199
 20
99.9999999999997158
 30
0.0
 11
144.000000000000199
 21
105.6999999999999034
 31
0.0
  0
LINE
  5
16C5B
  8
2
 10
139.000000000000199
 20
105.7000000000001023
 30
0.0
 11
139.000000000000199
 21
99.9999999999997442
 31
0.0
  0
LINE
  5
16C5C
  8
2
 10
146.500000000000199
 20
101.0999999999998948
 30
0.0
 11
146.500000000000199
 21
99.9999999999998437
 31
0.0
  0
LINE
  5
16C5D
  8
2
 10
153.5000000000003979
 20
99.9999999999998437
 30
0.0
 11
153.5000000000003979
 21
101.0999999999998948
 31
0.0
  0
ARC
  5
16C5E
  8
2
 10
147.1500000000002899
 20
100.5499999999997982
 30
0.0
 40
0.5499999999999972
 50
90.0
 51
270.0
  0
ARC
  5
16C5F
  8
2
 10
152.850000000000307
 20
100.5499999999997982
 30
0.0
 40
0.5499999999999972
 50
270.0
 51
90.0
  0
ARC
  5
16C60
  8
2
 10
147.750000000000199
 20
100.5499999999997982
 30
0.0
 40
0.5499999999999972
 50
270.0
 51
90.0
  0
ARC
  5
16C61
  8
2
 10
152.2500000000003979
 20
100.5499999999997982
 30
0.0
 40
0.5499999999999972
 50
90.0
 51
270.0
  0
LINE
  5
16C62
  8
2
 10
162.1999999999999034
 20
108.5
 30
0.0
 11
165.000000000000199
 21
105.700000000001495
 31
0.0
  0
LINE
  5
16C63
  8
2
 10
170.000000000000199
 20
105.7000000000016939
 30
0.0
 11
172.8000000000000114
 21
108.5
 31
0.0
  0
LINE
  5
16C64
  8
2
 10
172.8000000000000114
 20
108.4999999999999005
 30
0.0
 11
172.8000000000000114
 21
109.9999999999999005
 31
0.0
  0
LINE
  5
16C65
  8
2
 10
162.1999999999999034
 20
109.9999999999999005
 30
0.0
 11
162.1999999999999034
 21
108.4999999999999005
 31
0.0
  0
LINE
  5
16C66
  8
2
 10
148.7500000000003979
 20
103.499999999999801
 30
0.0
 11
148.7500000000003979
 21
101.0999999999997954
 31
0.0
  0
LINE
  5
16C67
  8
2
 10
151.250000000000199
 20
101.0999999999997954
 30
0.0
 11
151.250000000000199
 21
103.499999999999801
 31
0.0
  0
LINE
  5
16C68
  8
2
 10
172.5
 20
108.2000000000000028
 30
0.0
 11
172.5
 21
108.500000000000199
 31
0.0
  0
LINE
  5
16C69
  8
2
 10
162.5
 20
108.500000000000199
 30
0.0
 11
162.5
 21
108.2000000000000028
 31
0.0
  0
LINE
  5
16C6A
  8
2
 10
126.2000000000000028
 20
109.2999999999997982
 30
0.0
 11
126.2000000000000028
 21
109.999999999999801
 31
0.0
  0
LINE
  5
16C6B
  8
2
 10
121.2000000000003013
 20
109.999999999999801
 30
0.0
 11
121.2000000000003013
 21
109.2999999999997982
 31
0.0
  0
ARC
  5
16C6C
  8
2
 10
125.8000000000001961
 20
109.6500000000002046
 30
0.0
 40
0.3499999999999943
 50
270.0
 51
90.0
  0
ARC
  5
16C6D
  8
2
 10
121.6000000000000938
 20
109.6500000000002046
 30
0.0
 40
0.3499999999999943
 50
90.0
 51
270.0
  0
LINE
  5
16C6E
  8
2
 10
170.250000000000199
 20
99.9999999999999147
 30
0.0
 11
170.250000000000199
 21
105.9500000000002018
 31
0.0
  0
LINE
  5
16C6F
  8
2
 10
164.750000000000199
 20
105.9500000000002018
 30
0.0
 11
164.750000000000199
 21
99.9999999999999147
 31
0.0
  0
ARC
  5
16C70
  8
2
 10
125.6000000000000938
 20
109.6500000000002046
 30
0.0
 40
0.3499999999999943
 50
90.0
 51
270.0
  0
ARC
  5
16C71
  8
2
 10
121.8000000000000966
 20
109.6500000000002046
 30
0.0
 40
0.3499999999999943
 50
270.0
 51
90.0
  0
LINE
  5
16C72
  8
2
 10
170.000000000000199
 20
99.999999999999801
 30
0.0
 11
170.000000000000199
 21
105.7000000000016939
 31
0.0
  0
LINE
  5
16C73
  8
2
 10
165.000000000000199
 20
105.700000000001495
 30
0.0
 11
165.000000000000199
 21
99.9999999999997868
 31
0.0
  0
LINE
  5
16C74
  8
2
 10
124.9500000000000028
 20
108.2499999999999005
 30
0.0
 11
124.9500000000000028
 21
109.2999999999997982
 31
0.0
  0
LINE
  5
16C75
  8
2
 10
122.4500000000000028
 20
109.2999999999997982
 30
0.0
 11
122.4500000000000028
 21
108.2499999999999005
 31
0.0
  0
LINE
  5
16C76
  8
2
 10
119.500000000000199
 20
110.0
 30
0.0
 11
119.500000000000199
 21
101.4999999999999005
 31
0.0
  0
LINE
  5
16C77
  8
2
 10
124.5
 20
100.0
 30
0.0
 11
124.5
 21
110.0
 31
0.0
  0
ARC
  5
16C78
  8
2
 10
125.7983397832222039
 20
109.6500000000004036
 30
0.0
 40
0.3500000000000085
 50
270.0
 51
90.0
  0
ARC
  5
16C79
  8
2
 10
121.5983397832224
 20
109.6500000000004036
 30
0.0
 40
0.3500000000000085
 50
90.0
 51
270.0
  0
ARC
  5
16C7A
  8
2
 10
125.5983397832224
 20
109.6500000000004036
 30
0.0
 40
0.3500000000000085
 50
90.0
 51
270.0
  0
ARC
  5
16C7B
  8
2
 10
121.7983397832222039
 20
109.6500000000004036
 30
0.0
 40
0.3500000000000085
 50
270.0
 51
90.0
  0
LINE
  5
16C7C
  8
0
 10
161.4999999999996874
 20
100.8423458706847953
 30
0.0
 11
161.4999999999996874
 21
100.8406196511785993
 31
0.0
  0
LINE
  5
16CA0
  8
0
 10
83.0
 20
109.4999999999996021
 30
0.0
 11
82.5
 21
109.9999999999996021
 31
0.0
  0
LINE
  5
16CA1
  8
0
 10
17.5
 20
110.0000000000002984
 30
0.0
 11
17.0
 21
109.5000000000002984
 31
0.0
  0
LINE
  5
16CA2
  8
0
 10
17.0
 20
109.5000000000002984
 30
0.0
 11
17.0
 21
102.5000000000002984
 31
0.0
  0
LINE
  5
16CA3
  8
0
 10
83.0
 20
102.4999999999996021
 30
0.0
 11
83.0
 21
109.4999999999996021
 31
0.0
  0
LINE
  5
16CA4
  8
0
 10
17.0
 20
102.5000000000002984
 30
0.0
 11
17.9999999999997691
 21
101.5000000000002984
 31
0.0
  0
LINE
  5
16CA5
  8
0
 10
82.0
 20
101.4999999999996021
 30
0.0
 11
83.0
 21
102.4999999999996021
 31
0.0
  0
LINE
  5
16CA6
  8
0
 10
35.0
 20
92.5000000000002416
 30
0.0
 11
35.0
 21
100.0000000000000995
 31
0.0
  0
LINE
  5
16CA7
  8
0
 10
30.0
 20
100.000000000000199
 30
0.0
 11
30.0
 21
92.5000000000002842
 31
0.0
  0
LINE
  5
16CA8
  8
0
 10
70.0
 20
92.5000000000001421
 30
0.0
 11
70.0000000000002274
 21
99.9999999999997868
 31
0.0
  0
LINE
  5
16CA9
  8
0
 10
65.0
 20
99.999999999999801
 30
0.0
 11
65.0
 21
92.5000000000001563
 31
0.0
  0
LINE
  5
16CAA
  8
0
 10
25.9999999999997691
 20
100.000000000000199
 30
0.0
 11
25.9999999999997691
 21
95.0000000000002842
 31
0.0
  0
LINE
  5
16CAB
  8
0
 10
29.0
 20
95.0000000000002842
 30
0.0
 11
29.0
 21
100.000000000000199
 31
0.0
  0
LINE
  5
16CAC
  8
0
 10
71.0
 20
99.9999999999997868
 30
0.0
 11
70.9999999999997726
 21
94.9999999999996732
 31
0.0
  0
LINE
  5
16CAD
  8
0
 10
74.0
 20
94.9999999999996021
 30
0.0
 11
74.0
 21
99.9999999999997442
 31
0.0
  0
LINE
  5
16CAE
  8
0
 10
43.749999999999531
 20
92.5000000000002274
 30
0.0
 11
43.749999999999531
 21
100.0
 31
0.0
  0
LINE
  5
16CAF
  8
0
 10
38.7499999999997726
 20
100.0000000000000995
 30
0.0
 11
38.7499999999997726
 21
92.5000000000002416
 31
0.0
  0
LINE
  5
16CB0
  8
0
 10
61.249999999999531
 20
92.5000000000001563
 30
0.0
 11
61.249999999999531
 21
99.9999999999998437
 31
0.0
  0
LINE
  5
16CB1
  8
0
 10
56.249999999999531
 20
99.9999999999999147
 30
0.0
 11
56.249999999999531
 21
92.5000000000001847
 31
0.0
  0
LINE
  5
16CB2
  8
0
 10
83.0
 20
109.4999999999996021
 30
0.0
 11
17.0
 21
109.5000000000002984
 31
0.0
  0
LINE
  5
16CB3
  8
0
 10
17.5
 20
110.0000000000002984
 30
0.0
 11
82.5
 21
109.9999999999997016
 31
0.0
  0
LINE
  5
16CB4
  8
0
 10
17.0
 20
102.5000000000002984
 30
0.0
 11
83.0
 21
102.4999999999996021
 31
0.0
  0
LINE
  5
16CB5
  8
0
 10
82.0
 20
101.4999999999996021
 30
0.0
 11
17.9999999999997691
 21
101.5000000000002984
 31
0.0
  0
LINE
  5
16CB8
  8
0
 10
23.9999999999997691
 20
100.000000000000199
 30
0.0
 11
76.0
 21
99.9999999999997158
 31
0.0
  0
LINE
  5
16CBB
  8
0
 10
35.0
 20
92.5000000000002416
 30
0.0
 11
30.0
 21
92.5000000000002842
 31
0.0
  0
LINE
  5
16CBC
  8
0
 10
70.0
 20
92.5000000000001421
 30
0.0
 11
65.0
 21
92.5000000000001563
 31
0.0
  0
LINE
  5
16CBE
  8
0
 10
29.0
 20
95.0000000000002842
 30
0.0
 11
25.9999999999997691
 21
95.0000000000002842
 31
0.0
  0
LINE
  5
16CBF
  8
0
 10
74.0
 20
94.9999999999996021
 30
0.0
 11
70.9999999999997726
 21
94.9999999999996732
 31
0.0
  0
LINE
  5
16CC0
  8
0
 10
43.749999999999531
 20
92.5000000000002274
 30
0.0
 11
38.7499999999997726
 21
92.5000000000002416
 31
0.0
  0
LINE
  5
16CC1
  8
0
 10
61.249999999999531
 20
92.5000000000001563
 30
0.0
 11
56.249999999999531
 21
92.5000000000001847
 31
0.0
  0
CIRCLE
  5
16CC2
  8
0
 10
150.000000000000199
 20
62.5000000000000284
 30
0.0
 40
3.4000000000000039
  0
CIRCLE
  5
16CC3
  8
0
 10
150.000000000000199
 20
62.5000000000000284
 30
0.0
 40
1.6999999999999951
  0
CIRCLE
  5
16CC4
  8
0
 10
150.0
 20
37.5000000000000284
 30
0.0
 40
1.6999999999999991
  0
CIRCLE
  5
16CC5
  8
0
 10
150.0
 20
37.5000000000000284
 30
0.0
 40
3.4000000000000021
  0
CIRCLE
  5
16CC6
  8
0
 10
141.5
 20
32.5000000000000995
 30
0.0
 40
2.5000000000000031
  0
CIRCLE
  5
16CC7
  8
0
 10
167.5
 20
41.2499999999996803
 30
0.0
 40
2.5
  0
CIRCLE
  5
16CC8
  8
0
 10
141.500000000000199
 20
67.5000000000000995
 30
0.0
 40
2.5
  0
CIRCLE
  5
16CC9
  8
0
 10
167.500000000000199
 20
58.7499999999996803
 30
0.0
 40
2.5000000000000071
  0
CIRCLE
  5
16CCA
  8
0
 10
154.000000000000199
 20
72.5
 30
0.0
 40
1.5
  0
CIRCLE
  5
16CCB
  8
0
 10
153.999999999999801
 20
27.5000000000000213
 30
0.0
 40
1.5000000000000011
  0
CIRCLE
  5
16CCC
  8
0
 10
150.000000000000199
 20
62.5000000000000284
 30
0.0
 40
3.5
  0
CIRCLE
  5
16CCD
  8
0
 10
150.0
 20
37.5000000000000284
 30
0.0
 40
3.5
  0
CIRCLE
  5
16CCE
  8
0
 10
167.500000000000199
 20
58.7499999999998082
 30
0.0
 40
2.7499999999999911
  0
CIRCLE
  5
16CCF
  8
0
 10
167.5
 20
41.2499999999997868
 30
0.0
 40
2.7500000000000031
  0
CIRCLE
  5
16CD0
  8
0
 10
141.5
 20
32.5000000000000995
 30
0.0
 40
2.7499999999999969
  0
CIRCLE
  5
16CD1
  8
0
 10
141.5000000000003979
 20
67.5000000000000995
 30
0.0
 40
2.7499999999999911
  0
ARC
  5
16CD2
  8
0
 10
150.0
 20
50.0000000000000284
 30
0.0
 40
26.0
 50
90.0
 51
178.8914936030236049
  0
ARC
  5
16CD3
  8
0
 10
150.0
 20
50.0000000000000284
 30
0.0
 40
26.0000000000000995
 50
61.1085063969815181
 51
90.0
  0
ARC
  5
16CD4
  8
0
 10
150.0
 20
50.0000000000000284
 30
0.0
 40
26.0000000000000817
 50
301.1085063969766225
 51
58.8914936030234415
  0
ARC
  5
16CD5
  8
0
 10
150.0
 20
50.0000000000000284
 30
0.0
 40
26.0000000000000711
 50
270.0
 51
298.8914936030201943
  0
ARC
  5
16CD6
  8
0
 10
150.0
 20
50.0000000000000284
 30
0.0
 40
26.0
 50
181.1085063969763098
 51
270.0
  0
ARC
  5
16CD7
  8
0
 10
150.0
 20
50.0000000000000284
 30
0.0
 40
27.5000000000000711
 50
93.9992731829081549
 51
174.9406584330882879
  0
ARC
  5
16CD8
  8
0
 10
150.0
 20
50.0000000000000284
 30
0.0
 40
27.5000000000000817
 50
65.0593415669061699
 51
86.0007268170918451
  0
ARC
  5
16CD9
  8
0
 10
150.0
 20
50.0000000000000284
 30
0.0
 40
27.5
 50
185.0593415669102058
 51
266.0007268170919019
  0
ARC
  5
16CDA
  8
0
 10
150.0
 20
50.0000000000000284
 30
0.0
 40
27.5000000000000284
 50
273.9992731829080981
 51
294.9406584330938017
  0
ARC
  5
16CDB
  8
0
 10
150.0
 20
50.0000000000000284
 30
0.0
 40
27.5000000000000213
 50
305.0593415669083015
 51
54.9406584330899435
  0
CIRCLE
  5
16CDC
  8
0
 10
150.000000000000199
 20
62.5000000000000284
 30
0.0
 40
2.8499999999999241
  0
CIRCLE
  5
16CDD
  8
0
 10
150.000000000000199
 20
62.5000000000000284
 30
0.0
 40
2.25
  0
CIRCLE
  5
16CDE
  8
0
 10
150.0
 20
37.5000000000000284
 30
0.0
 40
2.849999999999933
  0
CIRCLE
  5
16CDF
  8
0
 10
150.0
 20
37.5000000000000284
 30
0.0
 40
2.2499999999998801
  0
CIRCLE
  5
16CE0
  8
0
 10
150.000000000000199
 20
62.5000000000000284
 30
0.0
 40
1.25
  0
CIRCLE
  5
16CE1
  8
0
 10
150.0
 20
37.5000000000000284
 30
0.0
 40
1.25
  0
CIRCLE
  5
16CE2
  8
0
 10
150.0
 20
50.0000000000000284
 30
0.0
 40
32.0
  0
CIRCLE
  5
16CE3
  8
0
 10
150.0
 20
50.0000000000000497
 30
0.0
 40
32.9999999999999929
  0
CIRCLE
  5
16CE4
  8
0
 10
123.6983397832221954
 20
184.5704385918915023
 30
0.0
 40
2.450000000000045
  0
CIRCLE
  5
16CE5
  8
0
 10
123.6983397832221954
 20
184.5704385918915023
 30
0.0
 40
1.5499999999999541
  0
CIRCLE
  5
16CE6
  8
0
 10
123.7000000000000028
 20
165.4249999999996987
 30
0.0
 40
2.450000000000045
  0
CIRCLE
  5
16CE7
  8
0
 10
123.7000000000000028
 20
165.4249999999996987
 30
0.0
 40
1.5499999999999541
  0
CIRCLE
  5
16CE8
  8
0
 10
123.6983397832221954
 20
184.5704385918915023
 30
0.0
 40
2.1000000000000401
  0
CIRCLE
  5
16CE9
  8
0
 10
123.6983397832221954
 20
184.5704385918915023
 30
0.0
 40
1.899999999999975
  0
CIRCLE
  5
16CEA
  8
0
 10
150.0
 20
174.999999999999801
 30
0.0
 40
33.0000000000000995
  0
CIRCLE
  5
16CEB
  8
0
 10
150.0
 20
174.999999999999801
 30
0.0
 40
32.5000000000000924
  0
CIRCLE
  5
16CF3
  8
0
 10
141.5000000000003979
 20
157.499999999999801
 30
0.0
 40
5.3000000000000114
  0
CIRCLE
  5
16CF4
  8
0
 10
141.5
 20
192.499999999999801
 30
0.0
 40
5.300000000000181
  0
CIRCLE
  5
16CF5
  8
0
 10
167.5
 20
183.75
 30
0.0
 40
5.3000000000000114
  0
CIRCLE
  5
16CF6
  8
0
 10
167.500000000000199
 20
166.2500000000001137
 30
0.0
 40
5.3000000000000114
  0
CIRCLE
  5
16CF7
  8
0
 10
123.7000000000000028
 20
184.5749999999995055
 30
0.0
 40
2.5
  0
CIRCLE
  5
16CF8
  8
0
 10
123.7000000000000028
 20
165.4249999999994998
 30
0.0
 40
2.5
  0
CIRCLE
  5
16CF9
  8
0
 10
150.0000000000003979
 20
147.0
 30
0.0
 40
2.0
  0
CIRCLE
  5
16D02
  8
0
 10
164.0000000000003979
 20
150.7512886940357077
 30
0.0
 40
2.5
  0
CIRCLE
  5
16D03
  8
0
 10
163.9999999999996874
 20
199.2487113059642923
 30
0.0
 40
2.5
  0
CIRCLE
  5
16D04
  8
0
 10
122.0
 20
174.9999999999994884
 30
0.0
 40
2.4999999999997722
  0
CIRCLE
  5
16D05
  8
0
 10
149.999999999999801
 20
203.0
 30
0.0
 40
2.0
  0
CIRCLE
  5
16D06
  8
0
 10
123.7000000000000028
 20
165.4249999999996987
 30
0.0
 40
2.0999999999999082
  0
CIRCLE
  5
16D07
  8
0
 10
123.7000000000000028
 20
165.4249999999996987
 30
0.0
 40
1.8999999999999759
  0
CIRCLE
  5
16D16
  8
0
 10
123.7000000000000028
 20
184.5749999999995055
 30
0.0
 40
1.25
  0
CIRCLE
  5
16D17
  8
0
 10
123.7000000000000028
 20
165.4249999999994998
 30
0.0
 40
1.25
  0
LINE
  5
16D18
  8
0
 10
143.232050807568811
 20
192.499999999999801
 30
0.0
 11
142.3660254037841071
 21
193.999999999999801
 31
0.0
  0
LINE
  5
16D19
  8
0
 10
142.3660254037841071
 20
193.999999999999801
 30
0.0
 11
140.6339745962154097
 21
193.999999999999801
 31
0.0
  0
LINE
  5
16D1A
  8
0
 10
140.6339745962154097
 20
193.999999999999801
 30
0.0
 11
139.7679491924311037
 21
192.499999999999801
 31
0.0
  0
LINE
  5
16D1B
  8
0
 10
139.7679491924311037
 20
192.499999999999801
 30
0.0
 11
140.6339745962154097
 21
190.999999999999801
 31
0.0
  0
LINE
  5
16D1C
  8
0
 10
140.6339745962154097
 20
190.999999999999801
 30
0.0
 11
142.366025403784306
 21
190.999999999999801
 31
0.0
  0
LINE
  5
16D1D
  8
0
 10
142.366025403784306
 20
190.999999999999801
 30
0.0
 11
143.232050807568811
 21
192.499999999999801
 31
0.0
  0
CIRCLE
  5
16D1E
  8
0
 10
141.5
 20
192.499999999999801
 30
0.0
 40
4.9999999999999698
  0
CIRCLE
  5
16D1F
  8
0
 10
167.5
 20
183.7500000000003126
 30
0.0
 40
5.0000000000000284
  0
LINE
  5
16D20
  8
0
 10
169.232050807568811
 20
183.7500000000003126
 30
0.0
 11
168.366025403784306
 21
185.2500000000003126
 31
0.0
  0
LINE
  5
16D21
  8
0
 10
168.366025403784306
 20
185.2500000000003126
 30
0.0
 11
166.6339745962154097
 21
185.2500000000003126
 31
0.0
  0
LINE
  5
16D22
  8
0
 10
166.6339745962154097
 20
185.2500000000003126
 30
0.0
 11
165.7679491924311037
 21
183.7500000000003126
 31
0.0
  0
LINE
  5
16D23
  8
0
 10
165.7679491924311037
 20
183.7500000000003126
 30
0.0
 11
166.6339745962154097
 21
182.2500000000003126
 31
0.0
  0
LINE
  5
16D24
  8
0
 10
166.6339745962154097
 20
182.2500000000003126
 30
0.0
 11
168.366025403784306
 21
182.2500000000003126
 31
0.0
  0
LINE
  5
16D25
  8
0
 10
168.366025403784306
 20
182.2500000000003126
 30
0.0
 11
169.232050807568811
 21
183.7500000000003126
 31
0.0
  0
CIRCLE
  5
16D26
  8
0
 10
167.500000000000199
 20
166.2500000000003126
 30
0.0
 40
5.0
  0
LINE
  5
16D27
  8
0
 10
169.23205080756901
 20
166.2500000000003126
 30
0.0
 11
168.366025403784505
 21
167.7500000000003126
 31
0.0
  0
LINE
  5
16D28
  8
0
 10
168.366025403784505
 20
167.7500000000003126
 30
0.0
 11
166.633974596215694
 21
167.7500000000003126
 31
0.0
  0
LINE
  5
16D29
  8
0
 10
166.633974596215694
 20
167.7500000000003126
 30
0.0
 11
165.7679491924313879
 21
166.2500000000003126
 31
0.0
  0
LINE
  5
16D2A
  8
0
 10
165.7679491924313879
 20
166.2500000000003126
 30
0.0
 11
166.633974596215694
 21
164.7500000000003126
 31
0.0
  0
LINE
  5
16D2B
  8
0
 10
166.633974596215694
 20
164.7500000000003126
 30
0.0
 11
168.366025403784505
 21
164.7500000000003126
 31
0.0
  0
LINE
  5
16D2C
  8
0
 10
168.366025403784505
 20
164.7500000000003126
 30
0.0
 11
169.23205080756901
 21
166.2500000000003126
 31
0.0
  0
CIRCLE
  5
16D2D
  8
0
 10
141.500000000000199
 20
157.499999999999801
 30
0.0
 40
4.9999999999999698
  0
LINE
  5
16D2E
  8
0
 10
143.2320508075692942
 20
157.499999999999801
 30
0.0
 11
142.366025403784505
 21
158.999999999999801
 31
0.0
  0
LINE
  5
16D2F
  8
0
 10
142.366025403784505
 20
158.999999999999801
 30
0.0
 11
140.6339745962158077
 21
158.999999999999801
 31
0.0
  0
LINE
  5
16D30
  8
0
 10
140.6339745962158077
 20
158.999999999999801
 30
0.0
 11
139.7679491924313879
 21
157.499999999999801
 31
0.0
  0
LINE
  5
16D31
  8
0
 10
139.7679491924313879
 20
157.499999999999801
 30
0.0
 11
140.6339745962158077
 21
155.999999999999801
 31
0.0
  0
LINE
  5
16D32
  8
0
 10
140.6339745962158077
 20
155.999999999999801
 30
0.0
 11
142.3660254037847039
 21
155.999999999999801
 31
0.0
  0
LINE
  5
16D33
  8
0
 10
142.3660254037847039
 20
155.999999999999801
 30
0.0
 11
143.2320508075692942
 21
157.499999999999801
 31
0.0
  0
LINE
  5
16D34
  8
1
 10
150.0
 20
12.0000000000000107
 30
0.0
 11
150.0
 21
88.0000000000000142
 31
0.0
  0
LINE
  5
16D35
  8
1
 10
112.0
 20
50.0000000000000284
 30
0.0
 11
188.0
 21
50.0
 31
0.0
  0
LINE
  5
16D36
  8
1
 10
150.0
 20
213.000000000000199
 30
0.0
 11
150.0
 21
136.999999999999801
 31
0.0
  0
LINE
  5
16D37
  8
1
 10
112.0
 20
174.999999999999801
 30
0.0
 11
188.0
 21
174.999999999999801
 31
0.0
  0
CIRCLE
  5
16D38
  8
1
 10
150.0
 20
174.999999999999801
 30
0.0
 40
28.0
  0
CIRCLE
  5
16D39
  8
1
 10
150.0
 20
50.0
 30
0.0
 40
28.0
  0
LINE
  5
16D3A
  8
1
 10
167.5
 20
53.2499999999997726
 30
0.0
 11
167.5
 21
64.2499999999997868
 31
0.0
  0
LINE
  5
16D3B
  8
1
 10
173.0
 20
58.7499999999997726
 30
0.0
 11
162.0
 21
58.7499999999997726
 31
0.0
  0
LINE
  5
16D3C
  8
1
 10
158.500000000000199
 20
72.5000000000000142
 30
0.0
 11
149.5
 21
72.5000000000000142
 31
0.0
  0
LINE
  5
16D3D
  8
1
 10
154.000000000000199
 20
68.0000000000000142
 30
0.0
 11
154.000000000000199
 21
77.0000000000000142
 31
0.0
  0
LINE
  5
16D3E
  8
1
 10
156.5
 20
62.5000000000000071
 30
0.0
 11
143.5
 21
62.5000000000000284
 31
0.0
  0
LINE
  5
16D3F
  8
1
 10
147.0
 20
67.5000000000000142
 30
0.0
 11
136.0
 21
67.5000000000000142
 31
0.0
  0
LINE
  5
16D40
  8
1
 10
141.5
 20
73.0000000000000142
 30
0.0
 11
141.5
 21
62.0000000000000284
 31
0.0
  0
LINE
  5
16D41
  8
1
 10
141.499999999999801
 20
38.0000000000000426
 30
0.0
 11
141.499999999999801
 21
27.0000000000000107
 31
0.0
  0
LINE
  5
16D42
  8
1
 10
146.9999999999996874
 20
32.5000000000000213
 30
0.0
 11
135.9999999999996874
 21
32.5000000000000213
 31
0.0
  0
LINE
  5
16D43
  8
1
 10
143.5
 20
37.5000000000000284
 30
0.0
 11
156.5
 21
37.5000000000000213
 31
0.0
  0
LINE
  5
16D44
  8
1
 10
153.999999999999801
 20
23.0000000000000213
 30
0.0
 11
153.999999999999801
 21
32.0000000000000071
 31
0.0
  0
LINE
  5
16D45
  8
1
 10
149.4999999999996874
 20
27.5000000000000213
 30
0.0
 11
158.499999999999801
 21
27.5000000000000213
 31
0.0
  0
LINE
  5
16D46
  8
1
 10
167.5
 20
35.7499999999997797
 30
0.0
 11
167.5
 21
46.7499999999997726
 31
0.0
  0
LINE
  5
16D47
  8
1
 10
173.0
 20
41.2499999999997726
 30
0.0
 11
162.0
 21
41.2499999999997726
 31
0.0
  0
LINE
  5
16D48
  8
1
 10
161.249999999999801
 20
30.5144284148502898
 30
0.0
 11
166.7499999999996874
 21
20.9881489732213318
 31
0.0
  0
LINE
  5
16D49
  8
1
 10
161.250000000000199
 20
69.4855715851501969
 30
0.0
 11
166.75
 21
79.0118510267788992
 31
0.0
  0
LINE
  5
16D4A
  8
1
 10
161.2225228887018034
 20
155.5620201676644001
 30
0.0
 11
166.7216735398702099
 21
146.0372118413650924
 31
0.0
  0
LINE
  5
16D4B
  8
1
 10
128.8765648692258026
 20
182.7167276424864895
 30
0.0
 11
118.5445842037085953
 21
186.4911649113130068
 31
0.0
  0
LINE
  5
16D4C
  8
1
 10
128.8670208927644012
 20
167.3096472067038007
 30
0.0
 11
118.5301813084096949
 21
163.54804110431661
 31
0.0
  0
LINE
  5
16D4D
  8
1
 10
141.5
 20
200.8000000000004093
 30
0.0
 11
141.5
 21
184.1999999999999886
 31
0.0
  0
LINE
  5
16D4E
  8
1
 10
133.1999999999997897
 20
192.5000000000001137
 30
0.0
 11
149.7999999999998124
 21
192.5000000000001137
 31
0.0
  0
LINE
  5
16D4F
  8
1
 10
149.8000000000000114
 20
157.5000000000001137
 30
0.0
 11
133.2000000000001876
 21
157.5000000000001137
 31
0.0
  0
LINE
  5
16D50
  8
1
 10
141.500000000000199
 20
165.8000000000000114
 30
0.0
 11
141.500000000000199
 21
149.2000000000001876
 31
0.0
  0
LINE
  5
16D51
  8
1
 10
159.1999999999999034
 20
166.2500000000001137
 30
0.0
 11
175.7999999999998124
 21
166.2500000000001137
 31
0.0
  0
LINE
  5
16D52
  8
1
 10
167.5
 20
157.9500000000001876
 30
0.0
 11
167.5
 21
174.5500000000000114
 31
0.0
  0
LINE
  5
16D53
  8
1
 10
167.5
 20
175.4500000000001876
 30
0.0
 11
167.5
 21
192.0500000000000114
 31
0.0
  0
LINE
  5
16D54
  8
1
 10
159.1999999999999034
 20
183.75
 30
0.0
 11
175.7999999999998124
 21
183.75
 31
0.0
  0
CIRCLE
  5
16D55
  8
3
 10
122.0
 20
174.9999999999994884
 30
0.0
 40
2.066999999999998
  0
CIRCLE
  5
16D56
  8
3
 10
164.000000000000199
 20
199.248711305964008
 30
0.0
 40
2.066999999999998
  0
CIRCLE
  5
16D57
  8
3
 10
164.0000000000003979
 20
150.7512886940353098
 30
0.0
 40
2.066999999999998
  0
LINE
  5
16D58
  8
1
 10
161.2225228887018034
 20
194.4379798323354862
 30
0.0
 11
166.7216735398702099
 21
203.9627881586347939
 31
0.0
  0
CIRCLE
  5
16D59
  8
0
 10
122.0
 20
50.0000000000000284
 30
0.0
 40
2.066999999999998
  0
CIRCLE
  5
16D5A
  8
3
 10
122.0
 20
50.0
 30
0.0
 40
2.50000000000052
  0
CIRCLE
  5
16D5B
  8
0
 10
164.0
 20
25.7512886940357113
 30
0.0
 40
2.066999999999998
  0
CIRCLE
  5
16D5C
  8
3
 10
164.0
 20
25.7512886940357184
 30
0.0
 40
2.50000000000052
  0
CIRCLE
  5
16D5D
  8
0
 10
164.0
 20
74.2487113059642923
 30
0.0
 40
2.066999999999998
  0
CIRCLE
  5
16D5E
  8
3
 10
164.0
 20
74.2487113059642923
 30
0.0
 40
2.50000000000052
  0
CIRCLE
  5
16D5F
  8
0
 10
150.0
 20
22.0000000000000107
 30
0.0
 40
2.0000000000000471
  0
CIRCLE
  5
16D60
  8
0
 10
150.0
 20
78.0000000000000142
 30
0.0
 40
2.0000000000004601
  0
LINE
  5
16D61
  8
1
 10
32.5
 20
89.4329999999998222
 30
0.0
 11
32.5
 21
111.1329999999997966
 31
0.0
  0
LINE
  5
16D62
  8
3
 10
34.5670000000002418
 20
99.9329999999899883
 30
0.0
 11
34.5670000000002418
 21
92.4999999999998721
 31
0.0
  0
LINE
  5
16D63
  8
3
 10
30.4330000000002201
 20
99.9329999999899883
 30
0.0
 11
30.4330000000002201
 21
92.5000000000001563
 31
0.0
  0
LINE
  5
16D64
  8
1
 10
41.249999999999531
 20
89.4329999999998222
 30
0.0
 11
41.249999999999531
 21
111.1329999999997966
 31
0.0
  0
LINE
  5
16D65
  8
3
 10
43.3169999999997728
 20
99.9329999999899456
 30
0.0
 11
43.3169999999997728
 21
92.4999999999998437
 31
0.0
  0
LINE
  5
16D66
  8
3
 10
39.1829999999997725
 20
99.9329999999899456
 30
0.0
 11
39.1829999999997725
 21
92.5000000000001137
 31
0.0
  0
LINE
  5
16D67
  8
1
 10
58.749999999999531
 20
89.4329999999997511
 30
0.0
 11
58.749999999999531
 21
111.1329999999996971
 31
0.0
  0
LINE
  5
16D68
  8
3
 10
60.8169999999997728
 20
99.9329999999899172
 30
0.0
 11
60.8169999999997728
 21
92.4999999999997868
 31
0.0
  0
LINE
  5
16D69
  8
3
 10
56.6829999999997725
 20
99.9329999999899172
 30
0.0
 11
56.6829999999997725
 21
92.5000000000000711
 31
0.0
  0
LINE
  5
16D6A
  8
1
 10
67.5
 20
89.4329999999997369
 30
0.0
 11
67.5
 21
111.1329999999996971
 31
0.0
  0
LINE
  5
16D6B
  8
3
 10
69.5670000000002489
 20
99.9329999999898746
 30
0.0
 11
69.5670000000002489
 21
92.4999999999997584
 31
0.0
  0
LINE
  5
16D6C
  8
3
 10
65.4330000000002343
 20
99.9329999999898746
 30
0.0
 11
65.4330000000002343
 21
92.5000000000000284
 31
0.0
  0
LINE
  5
16D6D
  8
1
 10
141.500000000000199
 20
89.4329999999997227
 30
0.0
 11
141.500000000000199
 21
111.1329999999996971
 31
0.0
  0
LINE
  5
16D6E
  8
3
 10
143.5670000000004052
 20
99.9329999999898746
 30
0.0
 11
143.5670000000004052
 21
92.4999999999997584
 31
0.0
  0
LINE
  5
16D6F
  8
3
 10
139.4330000000003906
 20
99.9329999999898746
 30
0.0
 11
139.4330000000003906
 21
92.5000000000000284
 31
0.0
  0
LINE
  5
16D70
  8
1
 10
167.500000000000199
 20
89.4329999999997369
 30
0.0
 11
167.500000000000199
 21
111.1329999999996971
 31
0.0
  0
LINE
  5
16D71
  8
3
 10
169.5670000000004052
 20
99.9329999999898746
 30
0.0
 11
169.5670000000004052
 21
92.4999999999997584
 31
0.0
  0
LINE
  5
16D72
  8
3
 10
165.4330000000003906
 20
99.9329999999898746
 30
0.0
 11
165.4330000000003906
 21
92.5000000000000284
 31
0.0
  0
LINE
  5
16D7F
  8
1
 10
27.5
 20
92.0000000000002842
 30
0.0
 11
27.5
 21
109.0000000000003979
 31
0.0
  0
LINE
  5
16D80
  8
1
 10
72.5
 20
91.9999999999996447
 30
0.0
 11
72.5
 21
108.999999999999801
 31
0.0
  0
LINE
  5
16D81
  8
1
 10
154.000000000000199
 20
91.9999999999996021
 30
0.0
 11
154.000000000000199
 21
108.999999999999801
 31
0.0
  0
LINE
  5
16D84
  8
1
 10
50.0
 20
94.9999999999999858
 30
0.0
 11
50.0
 21
115.0
 31
0.0
  0
LINE
  5
16D85
  8
1
 10
150.0200892857143913
 20
94.9999999999999858
 30
0.0
 11
150.0200892857143913
 21
115.0
 31
0.0
  0
POLYLINE
  5
16DA3
  8
0
 66
     1
 10
0.0
 20
0.0
 30
0.0
  0
VERTEX
  5
17155
  8
0
 10
23.9999999999997691
 20
100.000000000000199
 30
0.0
  0
VERTEX
  5
17156
  8
0
 10
23.9998239877980986
 20
100.0001890423111064
 30
0.0
  0
VERTEX
  5
17157
  8
0
 10
23.9996329238606485
 20
100.0003942590643931
 30
0.0
  0
VERTEX
  5
17158
  8
0
 10
23.99941175645165
 20
100.0006318247021966
 30
0.0
  0
VERTEX
  5
17159
  8
0
 10
23.9991454338353414
 20
100.0009179136671946
 30
0.0
  0
VERTEX
  5
1715A
  8
0
 10
23.9988189042759785
 20
100.0012687004015959
 30
0.0
  0
VERTEX
  5
1715B
  8
0
 10
23.9984171160377784
 20
100.0017003593475948
 30
0.0
  0
VERTEX
  5
1715C
  8
0
 10
23.9979250173850005
 20
100.0022290649476986
 30
0.0
  0
VERTEX
  5
1715D
  8
0
 10
23.9973297899763303
 20
100.0028685925425975
 30
0.0
  0
VERTEX
  5
1715E
  8
0
 10
23.9966318754148915
 20
100.0036184737040941
 30
0.0
  0
VERTEX
  5
1715F
  8
0
 10
23.9958365899353794
 20
100.004473003698493
 30
0.0
  0
VERTEX
  5
17160
  8
0
 10
23.9949492572966392
 20
100.0054264697092066
 30
0.0
  0
VERTEX
  5
17161
  8
0
 10
23.9939752012575696
 20
100.0064731589199027
 30
0.0
  0
VERTEX
  5
17162
  8
0
 10
23.9929197455769589
 20
100.0076073585143064
 30
0.0
  0
VERTEX
  5
17163
  8
0
 10
23.9917882140136385
 20
100.0088233556760002
 30
0.0
  0
VERTEX
  5
17164
  8
0
 10
23.9905854500806903
 20
100.0101159541253963
 30
0.0
  0
VERTEX
  5
17165
  8
0
 10
23.9893110479201184
 20
100.0114856036331048
 30
0.0
  0
VERTEX
  5
17166
  8
0
 10
23.9879613668923604
 20
100.0129362331943952
 30
0.0
  0
VERTEX
  5
17167
  8
0
 10
23.9865327188765001
 20
100.0144718228744978
 30
0.0
  0
VERTEX
  5
17168
  8
0
 10
23.9850214157514188
 20
100.0160963527380034
 30
0.0
  0
VERTEX
  5
17169
  8
0
 10
23.983423769396321
 20
100.0178138028497017
 30
0.0
  0
VERTEX
  5
1716A
  8
0
 10
23.9817360916900384
 20
100.0196281532743967
 30
0.0
  0
VERTEX
  5
1716B
  8
0
 10
23.9799548797426496
 20
100.0215431845712004
 30
0.0
  0
VERTEX
  5
1716C
  8
0
 10
23.9780835932766685
 20
100.023555178102896
 30
0.0
  0
VERTEX
  5
1716D
  8
0
 10
23.97613460123614
 20
100.025650819410302
 30
0.0
  0
VERTEX
  5
1716E
  8
0
 10
23.9741208545501117
 20
100.0278161671974004
 30
0.0
  0
VERTEX
  5
1716F
  8
0
 10
23.9720553041477196
 20
100.0300372801683011
 30
0.0
  0
VERTEX
  5
17170
  8
0
 10
23.9699509009580503
 20
100.0323002170269007
 30
0.0
  0
VERTEX
  5
17171
  8
0
 10
23.9678205959101582
 20
100.0345910364773943
 30
0.0
  0
VERTEX
  5
17172
  8
0
 10
23.9656773399331584
 20
100.0368957972239059
 30
0.0
  0
SEQEND
  5
17173
  8
0
  0
POLYLINE
  5
16DA4
  8
0
 66
     1
 10
0.0
 20
0.0
 30
0.0
  0
VERTEX
  5
17174
  8
0
 10
76.0
 20
99.9999999999997158
 30
0.0
  0
VERTEX
  5
17175
  8
0
 10
76.000615247651524
 20
100.0006608443406009
 30
0.0
  0
VERTEX
  5
17176
  8
0
 10
76.0016715595391332
 20
100.0017956369196952
 30
0.0
  0
VERTEX
  5
17177
  8
0
 10
76.0035777644474706
 20
100.0038437044978963
 30
0.0
  0
VERTEX
  5
17178
  8
0
 10
76.0064056651455786
 20
100.0068824015997961
 30
0.0
  0
VERTEX
  5
17179
  8
0
 10
76.0100275476118554
 20
100.0107747979376001
 30
0.0
  0
VERTEX
  5
1717A
  8
0
 10
76.014369995439381
 20
100.015442277514893
 30
0.0
  0
VERTEX
  5
1717B
  8
0
 10
76.0194386704801985
 20
100.020891152586799
 30
0.0
  0
VERTEX
  5
1717C
  8
0
 10
76.0252381027686965
 20
100.0271265254937987
 30
0.0
  0
VERTEX
  5
1717D
  8
0
 10
76.0317468789508411
 20
100.0341256569600006
 30
0.0
  0
VERTEX
  5
1717E
  8
0
 10
76.0389385688686019
 20
100.0418603382310039
 30
0.0
  0
VERTEX
  5
1717F
  8
0
 10
76.0468003712599625
 20
100.0503158505229067
 30
0.0
  0
VERTEX
  5
17180
  8
0
 10
76.0553291535748457
 20
100.0594870452060974
 30
0.0
  0
VERTEX
  5
17181
  8
0
 10
76.0645219887580737
 20
100.069368977051397
 30
0.0
  0
VERTEX
  5
17182
  8
0
 10
76.0743759497543408
 20
100.0799567008293991
 30
0.0
  0
VERTEX
  5
17183
  8
0
 10
76.0848863357386023
 20
100.0912434878389945
 30
0.0
  0
VERTEX
  5
17184
  8
0
 10
76.0960371237837876
 20
100.1032112253496962
 30
0.0
  0
VERTEX
  5
17185
  8
0
 10
76.1078078400292526
 20
100.1158373253527998
 30
0.0
  0
VERTEX
  5
17186
  8
0
 10
76.1201779999913128
 20
100.1290991891578983
 30
0.0
  0
VERTEX
  5
17187
  8
0
 10
76.1331271191885435
 20
100.142974218077498
 30
0.0
  0
VERTEX
  5
17188
  8
0
 10
76.1466354505854639
 20
100.1574405401492953
 30
0.0
  0
VERTEX
  5
17189
  8
0
 10
76.1606860669922838
 20
100.1724790622657935
 30
0.0
  0
VERTEX
  5
1718A
  8
0
 10
76.1752627151154229
 20
100.1880713554186997
 30
0.0
  0
VERTEX
  5
1718B
  8
0
 10
76.1903491416609882
 20
100.2041989906000055
 30
0.0
  0
VERTEX
  5
1718C
  8
0
 10
76.2059290933352713
 20
100.2208435388016028
 30
0.0
  0
VERTEX
  5
1718D
  8
0
 10
76.2219863168444931
 20
100.2379865710153979
 30
0.0
  0
VERTEX
  5
1718E
  8
0
 10
76.2385045588949311
 20
100.2556096582331975
 30
0.0
  0
VERTEX
  5
1718F
  8
0
 10
76.2554675661927917
 20
100.273694371446993
 30
0.0
  0
VERTEX
  5
17190
  8
0
 10
76.2728590854443809
 20
100.292222281648705
 30
0.0
  0
VERTEX
  5
17191
  8
0
 10
76.2906630665641927
 20
100.3111752103142038
 30
0.0
  0
VERTEX
  5
17192
  8
0
 10
76.3088652809994414
 20
100.3305372242264042
 30
0.0
  0
VERTEX
  5
17193
  8
0
 10
76.3274524609849863
 20
100.3502935744806024
 30
0.0
  0
VERTEX
  5
17194
  8
0
 10
76.34641134740545
 20
100.3704295228336036
 30
0.0
  0
VERTEX
  5
17195
  8
0
 10
76.3657286811453417
 20
100.3909303310423979
 30
0.0
  0
VERTEX
  5
17196
  8
0
 10
76.3853912030890996
 20
100.4117812608640037
 30
0.0
  0
VERTEX
  5
17197
  8
0
 10
76.4053856541212326
 20
100.4329675740552972
 30
0.0
  0
VERTEX
  5
17198
  8
0
 10
76.4256987751261931
 20
100.4544745323731973
 30
0.0
  0
VERTEX
  5
17199
  8
0
 10
76.4463173069885897
 20
100.4762873975748931
 30
0.0
  0
VERTEX
  5
1719A
  8
0
 10
76.4672279905927894
 20
100.4983914314171045
 30
0.0
  0
VERTEX
  5
1719B
  8
0
 10
76.4884181962513594
 20
100.5207725582325935
 30
0.0
  0
VERTEX
  5
1719C
  8
0
 10
76.5098790513797127
 20
100.5434206573190039
 30
0.0
  0
VERTEX
  5
1719D
  8
0
 10
76.5316030715306823
 20
100.5663270692155038
 30
0.0
  0
VERTEX
  5
1719E
  8
0
 10
76.5535827744770359
 20
100.5894831367975968
 30
0.0
  0
VERTEX
  5
1719F
  8
0
 10
76.5758106779912282
 20
100.612880202941497
 30
0.0
  0
VERTEX
  5
171A0
  8
0
 10
76.5982792998459558
 20
100.6365096105223955
 30
0.0
  0
VERTEX
  5
171A1
  8
0
 10
76.6209811578137732
 20
100.6603627024161938
 30
0.0
  0
VERTEX
  5
171A2
  8
0
 10
76.6439087696673909
 20
100.684430821498907
 30
0.0
  0
VERTEX
  5
171A3
  8
0
 10
76.6670546531793349
 20
100.7087053106458967
 30
0.0
  0
VERTEX
  5
171A4
  8
0
 10
76.6904113366922502
 20
100.7331775475770002
 30
0.0
  0
VERTEX
  5
171A5
  8
0
 10
76.7139715304902552
 20
100.7578395097817037
 30
0.0
  0
VERTEX
  5
171A6
  8
0
 10
76.7377280981733634
 20
100.782683680155003
 30
0.0
  0
VERTEX
  5
171A7
  8
0
 10
76.76167390813373
 20
100.8077025573890069
 30
0.0
  0
VERTEX
  5
171A8
  8
0
 10
76.7858018287635389
 20
100.8328886401759945
 30
0.0
  0
VERTEX
  5
171A9
  8
0
 10
76.8101047284549736
 20
100.858234427208501
 30
0.0
  0
VERTEX
  5
171AA
  8
0
 10
76.8345754756002748
 20
100.883732417178507
 30
0.0
  0
VERTEX
  5
171AB
  8
0
 10
76.8592069385914556
 20
100.9093751087783062
 30
0.0
  0
VERTEX
  5
171AC
  8
0
 10
76.8839919858208134
 20
100.9351550007002061
 30
0.0
  0
VERTEX
  5
171AD
  8
0
 10
76.9089234856805746
 20
100.9610645916365996
 30
0.0
  0
VERTEX
  5
171AE
  8
0
 10
76.9339946910227326
 20
100.987096692451999
 30
0.0
  0
VERTEX
  5
171AF
  8
0
 10
76.9592024505587347
 20
101.013247033762994
 30
0.0
  0
VERTEX
  5
171B0
  8
0
 10
76.9845455759103743
 20
101.0395129400230019
 30
0.0
  0
VERTEX
  5
171B1
  8
0
 10
77.010022898559555
 20
101.0658917518109945
 30
0.0
  0
VERTEX
  5
171B2
  8
0
 10
77.0356332499880239
 20
101.0923808097061993
 30
0.0
  0
VERTEX
  5
171B3
  8
0
 10
77.0613754616778124
 20
101.1189774542876023
 30
0.0
  0
VERTEX
  5
171B4
  8
0
 10
77.0872483651106108
 20
101.1456790261344025
 30
0.0
  0
VERTEX
  5
171B5
  8
0
 10
77.1132507917683654
 20
101.1724828658256001
 30
0.0
  0
VERTEX
  5
171B6
  8
0
 10
77.1393815731329227
 20
101.1993863139403942
 30
0.0
  0
VERTEX
  5
171B7
  8
0
 10
77.1656395405433386
 20
101.2263867109735003
 30
0.0
  0
VERTEX
  5
171B8
  8
0
 10
77.1920213777100912
 20
101.2534801258251065
 30
0.0
  0
VERTEX
  5
171B9
  8
0
 10
77.2185161981002324
 20
101.2806581451138044
 30
0.0
  0
VERTEX
  5
171BA
  8
0
 10
77.2451114480222998
 20
101.3079113683466943
 30
0.0
  0
VERTEX
  5
171BB
  8
0
 10
77.2717945737848595
 20
101.3352303950308055
 30
0.0
  0
VERTEX
  5
171BC
  8
0
 10
77.2985530216963639
 20
101.3626058246728974
 30
0.0
  0
VERTEX
  5
171BD
  8
0
 10
77.3253742380652938
 20
101.390028256780198
 30
0.0
  0
VERTEX
  5
171BE
  8
0
 10
77.352245669200201
 20
101.4174882908594952
 30
0.0
  0
VERTEX
  5
171BF
  8
0
 10
77.3791547614095521
 20
101.4449765264179035
 30
0.0
  0
VERTEX
  5
171C0
  8
0
 10
77.4060889610019558
 20
101.4724835629622959
 30
0.0
  0
VERTEX
  5
171C1
  8
0
 10
77.4330357142858219
 20
101.4999999999997016
 30
0.0
  0
SEQEND
  5
171C2
  8
0
  0
POLYLINE
  5
16DA5
  8
0
 66
     1
 10
0.0
 20
0.0
 30
0.0
  0
VERTEX
  5
171C3
  8
0
 10
22.5669642857142208
 20
101.5000000000002984
 30
0.0
  0
VERTEX
  5
171C4
  8
0
 10
22.5939983591176805
 20
101.4724334380630069
 30
0.0
  0
VERTEX
  5
171C5
  8
0
 10
22.6210114044356985
 20
101.4448814947994038
 30
0.0
  0
VERTEX
  5
171C6
  8
0
 10
22.647982393582879
 20
101.4173587888827939
 30
0.0
  0
VERTEX
  5
171C7
  8
0
 10
22.6748902984736596
 20
101.3898799389872067
 30
0.0
  0
VERTEX
  5
171C8
  8
0
 10
22.701714091022609
 20
101.3624595637859045
 30
0.0
  0
VERTEX
  5
171C9
  8
0
 10
22.7284356751976588
 20
101.3351104693224016
 30
0.0
  0
VERTEX
  5
171CA
  8
0
 10
22.7550516095408284
 20
101.3078364020083058
 30
0.0
  0
VERTEX
  5
171CB
  8
0
 10
22.781563021677929
 20
101.2806382835936034
 30
0.0
  0
VERTEX
  5
171CC
  8
0
 10
22.8079710407324114
 20
101.2535170349023019
 30
0.0
  0
VERTEX
  5
171CD
  8
0
 10
22.8342767958275807
 20
101.2264735767585933
 30
0.0
  0
VERTEX
  5
171CE
  8
0
 10
22.8604804166339513
 20
101.1995095225875048
 30
0.0
  0
VERTEX
  5
171CF
  8
0
 10
22.8865774588119884
 20
101.1726296555118978
 30
0.0
  0
VERTEX
  5
171D0
  8
0
 10
22.9125621702947413
 20
101.1458396648836953
 30
0.0
  0
VERTEX
  5
171D1
  8
0
 10
22.9384287989119002
 20
101.1191452401266986
 30
0.0
  0
VERTEX
  5
171D2
  8
0
 10
22.9641715927380687
 20
101.0925520704734026
 30
0.0
  0
VERTEX
  5
171D3
  8
0
 10
22.9897855744910089
 20
101.0660652406412936
 30
0.0
  0
VERTEX
  5
171D4
  8
0
 10
23.0152682585413686
 20
101.0396878909152036
 30
0.0
  0
VERTEX
  5
171D5
  8
0
 10
23.0406176592462693
 20
101.0134227714011956
 30
0.0
  0
VERTEX
  5
171D6
  8
0
 10
23.0658317909628714
 20
100.987272632205503
 30
0.0
  0
VERTEX
  5
171D7
  8
0
 10
23.0909086526734804
 20
100.9612402382861944
 30
0.0
  0
VERTEX
  5
171D8
  8
0
 10
23.1158446265304818
 20
100.9353299164701951
 30
0.0
  0
VERTEX
  5
171D9
  8
0
 10
23.1406330776927689
 20
100.9095489080201986
 30
0.0
  0
VERTEX
  5
171DA
  8
0
 10
23.1652670412739816
 20
100.8839047730249945
 30
0.0
  0
VERTEX
  5
171DB
  8
0
 10
23.1897395523876604
 20
100.8584050715731024
 30
0.0
  0
VERTEX
  5
171DC
  8
0
 10
23.2140436461473882
 20
100.8330573637533973
 30
0.0
  0
VERTEX
  5
171DD
  8
0
 10
23.2381723576667696
 20
100.8078692096544984
 30
0.0
  0
VERTEX
  5
171DE
  8
0
 10
23.2621187220594301
 20
100.7828481693651952
 30
0.0
  0
VERTEX
  5
171DF
  8
0
 10
23.2858757744388782
 20
100.7580018029741069
 30
0.0
  0
VERTEX
  5
171E0
  8
0
 10
23.309436549918761
 20
100.7333376705699948
 30
0.0
  0
VERTEX
  5
171E1
  8
0
 10
23.3327940764443191
 20
100.708863346169494
 30
0.0
  0
VERTEX
  5
171E2
  8
0
 10
23.3559411459421007
 20
100.6845868623722993
 30
0.0
  0
VERTEX
  5
171E3
  8
0
 10
23.3788702663598009
 20
100.6605168035466988
 30
0.0
  0
VERTEX
  5
171E4
  8
0
 10
23.4015739287816587
 20
100.636661786826906
 30
0.0
  0
VERTEX
  5
171E5
  8
0
 10
23.4240446242919198
 20
100.6130304293472051
 30
0.0
  0
VERTEX
  5
171E6
  8
0
 10
23.4462748439748303
 20
100.5896313482415962
 30
0.0
  0
VERTEX
  5
171E7
  8
0
 10
23.4682570789145792
 20
100.566473160644307
 30
0.0
  0
VERTEX
  5
171E8
  8
0
 10
23.4899838201953912
 20
100.5435644836893943
 30
0.0
  0
VERTEX
  5
171E9
  8
0
 10
23.5114475589015193
 20
100.5209139345110003
 30
0.0
  0
VERTEX
  5
171EA
  8
0
 10
23.5326407841810692
 20
100.4985301323105062
 30
0.0
  0
VERTEX
  5
171EB
  8
0
 10
23.5535546071293993
 20
100.4764231675869013
 30
0.0
  0
VERTEX
  5
171EC
  8
0
 10
23.5741763411152796
 20
100.4546071855362044
 30
0.0
  0
VERTEX
  5
171ED
  8
0
 10
23.594492650899781
 20
100.4330970238501948
 30
0.0
  0
VERTEX
  5
171EE
  8
0
 10
23.6144902012438216
 20
100.4119075202201969
 30
0.0
  0
VERTEX
  5
171EF
  8
0
 10
23.6341556569084901
 20
100.3910535123378054
 30
0.0
  0
VERTEX
  5
171F0
  8
0
 10
23.6534756826547401
 20
100.3705498378946004
 30
0.0
  0
VERTEX
  5
171F1
  8
0
 10
23.672436943243671
 20
100.3504113345820059
 30
0.0
  0
VERTEX
  5
171F2
  8
0
 10
23.6910261034361689
 20
100.3306528400917017
 30
0.0
  0
VERTEX
  5
171F3
  8
0
 10
23.7092298279933402
 20
100.311289192115197
 30
0.0
  0
VERTEX
  5
171F4
  8
0
 10
23.7270347746957704
 20
100.292335237074596
 30
0.0
  0
VERTEX
  5
171F5
  8
0
 10
23.7444267897928398
 20
100.2738068364009933
 30
0.0
  0
VERTEX
  5
171F6
  8
0
 10
23.7613901609125193
 20
100.2557218009452953
 30
0.0
  0
VERTEX
  5
171F7
  8
0
 10
23.7779089990244117
 20
100.2380981625104965
 30
0.0
  0
VERTEX
  5
171F8
  8
0
 10
23.7939674150982796
 20
100.2209539528997055
 30
0.0
  0
VERTEX
  5
171F9
  8
0
 10
23.8095495201038183
 20
100.2043072039160023
 30
0.0
  0
VERTEX
  5
171FA
  8
0
 10
23.8246394250106199
 20
100.1881759473623958
 30
0.0
  0
VERTEX
  5
171FB
  8
0
 10
23.8392212407884507
 20
100.172578215042094
 30
0.0
  0
VERTEX
  5
171FC
  8
0
 10
23.8532790784070095
 20
100.1575320387580064
 30
0.0
  0
VERTEX
  5
171FD
  8
0
 10
23.8667970488360197
 20
100.1430554503131987
 30
0.0
  0
VERTEX
  5
171FE
  8
0
 10
23.8797579770734387
 20
100.1291678055483061
 30
0.0
  0
VERTEX
  5
171FF
  8
0
 10
23.8921392139482691
 20
100.1158940965122071
 30
0.0
  0
VERTEX
  5
17200
  8
0
 10
23.9039166539433303
 20
100.1032608147091025
 30
0.0
  0
VERTEX
  5
17201
  8
0
 10
23.9150661915289184
 20
100.0912944516557985
 30
0.0
  0
VERTEX
  5
17202
  8
0
 10
23.9255637411841917
 20
100.0800214780455946
 30
0.0
  0
VERTEX
  5
17203
  8
0
 10
23.9353942635539205
 20
100.0694589498125993
 30
0.0
  0
VERTEX
  5
17204
  8
0
 10
23.9445660212289795
 20
100.0595996714910001
 30
0.0
  0
VERTEX
  5
17205
  8
0
 10
23.9530909776555099
 20
100.050432595964395
 30
0.0
  0
VERTEX
  5
17206
  8
0
 10
23.9609810962797916
 20
100.041946676117206
 30
0.0
  0
VERTEX
  5
17207
  8
0
 10
23.9682476135345084
 20
100.0341316291663958
 30
0.0
  0
VERTEX
  5
17208
  8
0
 10
23.9748663249487812
 20
100.0270144324982056
 30
0.0
  0
VERTEX
  5
17209
  8
0
 10
23.9807623414956801
 20
100.0206753498140984
 30
0.0
  0
VERTEX
  5
1720A
  8
0
 10
23.98585687555493
 20
100.0151987435322951
 30
0.0
  0
VERTEX
  5
1720B
  8
0
 10
23.9900711395063695
 20
100.0106689760715
 30
0.0
  0
VERTEX
  5
1720C
  8
0
 10
23.9933381341169714
 20
100.0071577500301032
 30
0.0
  0
VERTEX
  5
1720D
  8
0
 10
23.9957522012374511
 20
100.0045635001065989
 30
0.0
  0
VERTEX
  5
1720E
  8
0
 10
23.9975246106581004
 20
100.0026590893969001
 30
0.0
  0
VERTEX
  5
1720F
  8
0
 10
23.9988692482789396
 20
100.0012145714963054
 30
0.0
  0
VERTEX
  5
17210
  8
0
 10
23.9999999999997691
 20
100.000000000000199
 30
0.0
  0
SEQEND
  5
17211
  8
0
  0
POLYLINE
  5
16DA6
  8
0
 66
     1
 10
0.0
 20
0.0
 30
0.0
  0
VERTEX
  5
17212
  8
0
 10
51.4448776407311925
 20
99.9999999999999858
 30
0.0
  0
VERTEX
  5
17213
  8
0
 10
51.4908215979356072
 20
100.0358240036806023
 30
0.0
  0
VERTEX
  5
17214
  8
0
 10
51.5354954671067773
 20
100.0722243062193968
 30
0.0
  0
VERTEX
  5
17215
  8
0
 10
51.5789241091504067
 20
100.1091882035209011
 30
0.0
  0
VERTEX
  5
17216
  8
0
 10
51.6211323849723698
 20
100.1467029914894056
 30
0.0
  0
VERTEX
  5
17217
  8
0
 10
51.6621451554785267
 20
100.1847559660294991
 30
0.0
  0
VERTEX
  5
17218
  8
0
 10
51.7019872815745813
 20
100.2233344230456993
 30
0.0
  0
VERTEX
  5
17219
  8
0
 10
51.7406836241663726
 20
100.2624256584423961
 30
0.0
  0
VERTEX
  5
1721A
  8
0
 10
51.7782590441597677
 20
100.3020169681243061
 30
0.0
  0
VERTEX
  5
1721B
  8
0
 10
51.8147384024605273
 20
100.3420956479957056
 30
0.0
  0
VERTEX
  5
1721C
  8
0
 10
51.850146559974462
 20
100.3826489939609985
 30
0.0
  0
VERTEX
  5
1721D
  8
0
 10
51.8845083776074034
 20
100.4236643019251005
 30
0.0
  0
VERTEX
  5
1721E
  8
0
 10
51.917848716265091
 20
100.4651288677921031
 30
0.0
  0
VERTEX
  5
1721F
  8
0
 10
51.9501924368534489
 20
100.5070299874666944
 30
0.0
  0
VERTEX
  5
17220
  8
0
 10
51.9815644002782165
 20
100.5493549568531932
 30
0.0
  0
VERTEX
  5
17221
  8
0
 10
52.0119894674452325
 20
100.5920910718563022
 30
0.0
  0
VERTEX
  5
17222
  8
0
 10
52.0414924992603005
 20
100.6352256283801978
 30
0.0
  0
VERTEX
  5
17223
  8
0
 10
52.0700983566292166
 20
100.6787459223298953
 30
0.0
  0
VERTEX
  5
17224
  8
0
 10
52.0978184663530328
 20
100.722633202450595
 30
0.0
  0
VERTEX
  5
17225
  8
0
 10
52.1245884801290416
 20
100.7668337172822959
 30
0.0
  0
VERTEX
  5
17226
  8
0
 10
52.1503978352749726
 20
100.8113165398522995
 30
0.0
  0
VERTEX
  5
17227
  8
0
 10
52.1752484471486895
 20
100.856056260967307
 30
0.0
  0
VERTEX
  5
17228
  8
0
 10
52.1991422311082331
 20
100.9010274714343041
 30
0.0
  0
VERTEX
  5
17229
  8
0
 10
52.2220811025114102
 20
100.946204762060205
 30
0.0
  0
VERTEX
  5
1722A
  8
0
 10
52.2440669767162902
 20
100.9915627236517963
 30
0.0
  0
VERTEX
  5
1722B
  8
0
 10
52.265101769080772
 20
101.0370759470162056
 30
0.0
  0
VERTEX
  5
1722C
  8
0
 10
52.2851873949627972
 20
101.0827190229600063
 30
0.0
  0
VERTEX
  5
1722D
  8
0
 10
52.3043354657955177
 20
101.1284840600065991
 30
0.0
  0
VERTEX
  5
1722E
  8
0
 10
52.3225729676859075
 20
101.174400760490002
 30
0.0
  0
VERTEX
  5
1722F
  8
0
 10
52.3399055479668007
 20
101.2204694900385959
 30
0.0
  0
VERTEX
  5
17230
  8
0
 10
52.3563378045728811
 20
101.2666889186935038
 30
0.0
  0
VERTEX
  5
17231
  8
0
 10
52.3718743354389105
 20
101.3130577164958055
 30
0.0
  0
VERTEX
  5
17232
  8
0
 10
52.3865197384994872
 20
101.3595745534865955
 30
0.0
  0
VERTEX
  5
17233
  8
0
 10
52.4002786116892523
 20
101.4062380997067976
 30
0.0
  0
VERTEX
  5
17234
  8
0
 10
52.4131555529430102
 20
101.4530470251976055
 30
0.0
  0
VERTEX
  5
17235
  8
0
 10
52.425155160195331
 20
101.4999999999999005
 30
0.0
  0
SEQEND
  5
17236
  8
0
  0
POLYLINE
  5
16DA7
  8
0
 66
     1
 10
0.0
 20
0.0
 30
0.0
  0
VERTEX
  5
17237
  8
0
 10
47.5748448398055572
 20
101.5
 30
0.0
  0
VERTEX
  5
17238
  8
0
 10
47.5868229554060207
 20
101.4530848457428931
 30
0.0
  0
VERTEX
  5
17239
  8
0
 10
47.5996546071524378
 20
101.4063239619903953
 30
0.0
  0
VERTEX
  5
1723A
  8
0
 10
47.6133487634908832
 20
101.3597198147682974
 30
0.0
  0
VERTEX
  5
1723B
  8
0
 10
47.6279143928673534
 20
101.3132748701011963
 30
0.0
  0
VERTEX
  5
1723C
  8
0
 10
47.6433604637279018
 20
101.2669915940149963
 30
0.0
  0
VERTEX
  5
1723D
  8
0
 10
47.6596959445186528
 20
101.2208724525346071
 30
0.0
  0
VERTEX
  5
1723E
  8
0
 10
47.6769298036856384
 20
101.1749199116855067
 30
0.0
  0
VERTEX
  5
1723F
  8
0
 10
47.6950710096748907
 20
101.1291364374928037
 30
0.0
  0
VERTEX
  5
17240
  8
0
 10
47.7141285309325482
 20
101.083524495981905
 30
0.0
  0
VERTEX
  5
17241
  8
0
 10
47.734111335904629
 20
101.0380865531782035
 30
0.0
  0
VERTEX
  5
17242
  8
0
 10
47.7550283930371293
 20
100.9928250751067935
 30
0.0
  0
VERTEX
  5
17243
  8
0
 10
47.776888670776188
 20
100.9477425277930962
 30
0.0
  0
VERTEX
  5
17244
  8
0
 10
47.7997011375679222
 20
100.9028413772624049
 30
0.0
  0
VERTEX
  5
17245
  8
0
 10
47.8234747618582219
 20
100.8581240895398992
 30
0.0
  0
VERTEX
  5
17246
  8
0
 10
47.8482185120932826
 20
100.8135931306510003
 30
0.0
  0
VERTEX
  5
17247
  8
0
 10
47.8739413567191008
 20
100.769250966620902
 30
0.0
  0
VERTEX
  5
17248
  8
0
 10
47.900652264181808
 20
100.7251000634749971
 30
0.0
  0
VERTEX
  5
17249
  8
0
 10
47.9283575724427919
 20
100.6811554783217986
 30
0.0
  0
VERTEX
  5
1724A
  8
0
 10
47.9570475078685234
 20
100.6375047132123939
 30
0.0
  0
VERTEX
  5
1724B
  8
0
 10
47.9867208460926093
 20
100.5941870762649017
 30
0.0
  0
VERTEX
  5
1724C
  8
0
 10
48.0173786644365208
 20
100.5512303389055973
 30
0.0
  0
VERTEX
  5
1724D
  8
0
 10
48.04902204022153
 20
100.5086622725609971
 30
0.0
  0
VERTEX
  5
1724E
  8
0
 10
48.0816520507690868
 20
100.4665106486576036
 30
0.0
  0
VERTEX
  5
1724F
  8
0
 10
48.1152697734004704
 20
100.4248032386218057
 30
0.0
  0
VERTEX
  5
17250
  8
0
 10
48.1498762854371805
 20
100.3835678138800063
 30
0.0
  0
VERTEX
  5
17251
  8
0
 10
48.1854726642005815
 20
100.3428321458586936
 30
0.0
  0
VERTEX
  5
17252
  8
0
 10
48.2220688170509106
 20
100.3026071170053939
 30
0.0
  0
VERTEX
  5
17253
  8
0
 10
48.2597041991447711
 20
100.2628742961074977
 30
0.0
  0
VERTEX
  5
17254
  8
0
 10
48.2984134273485211
 20
100.2236500422310996
 30
0.0
  0
VERTEX
  5
17255
  8
0
 10
48.338230480133447
 20
100.1849524906184996
 30
0.0
  0
VERTEX
  5
17256
  8
0
 10
48.3791893359707501
 20
100.1467997765121964
 30
0.0
  0
VERTEX
  5
17257
  8
0
 10
48.4213239733317735
 20
100.1092100351548027
 30
0.0
  0
VERTEX
  5
17258
  8
0
 10
48.4646683706877184
 20
100.0722014017887034
 30
0.0
  0
VERTEX
  5
17259
  8
0
 10
48.5092565065098782
 20
100.0357920116561985
 30
0.0
  0
VERTEX
  5
1725A
  8
0
 10
48.5551223592694896
 20
100.0
 30
0.0
  0
SEQEND
  5
1725B
  8
0
  0
POLYLINE
  5
16DA8
  8
0
 66
     1
 10
0.0
 20
0.0
 30
0.0
  0
VERTEX
  5
1725C
  8
0
 10
164.2312114565187926
 20
99.9999999999997868
 30
0.0
  0
VERTEX
  5
1725D
  8
0
 10
164.2876443759666074
 20
100.0358240036804034
 30
0.0
  0
VERTEX
  5
1725E
  8
0
 10
164.3432689889608866
 20
100.0722243062191978
 30
0.0
  0
VERTEX
  5
1725F
  8
0
 10
164.3981018727671142
 20
100.1091882035207021
 30
0.0
  0
VERTEX
  5
17260
  8
0
 10
164.4521596046506033
 20
100.1467029914892066
 30
0.0
  0
VERTEX
  5
17261
  8
0
 10
164.5054587618770086
 20
100.1847559660293001
 30
0.0
  0
VERTEX
  5
17262
  8
0
 10
164.5580159217115011
 20
100.2233344230455003
 30
0.0
  0
VERTEX
  5
17263
  8
0
 10
164.6098476614197068
 20
100.2624256584422966
 30
0.0
  0
VERTEX
  5
17264
  8
0
 10
164.6609705582669108
 20
100.302016968124093
 30
0.0
  0
VERTEX
  5
17265
  8
0
 10
164.7114011895185968
 20
100.3420956479955066
 30
0.0
  0
VERTEX
  5
17266
  8
0
 10
164.7611561324403056
 20
100.382648993960899
 30
0.0
  0
VERTEX
  5
17267
  8
0
 10
164.8102519642972084
 20
100.4236643019249016
 30
0.0
  0
VERTEX
  5
17268
  8
0
 10
164.8587052623551017
 20
100.4651288677919041
 30
0.0
  0
VERTEX
  5
17269
  8
0
 10
164.9065326038792136
 20
100.5070299874664954
 30
0.0
  0
VERTEX
  5
1726A
  8
0
 10
164.953750566134886
 20
100.5493549568529943
 30
0.0
  0
VERTEX
  5
1726B
  8
0
 10
165.0003757263876878
 20
100.5920910718561032
 30
0.0
  0
VERTEX
  5
1726C
  8
0
 10
165.0464246619029041
 20
100.6352256283800983
 30
0.0
  0
VERTEX
  5
1726D
  8
0
 10
165.0919139499461039
 20
100.6787459223295969
 30
0.0
  0
VERTEX
  5
1726E
  8
0
 10
165.1368456156808975
 20
100.7226332024501971
 30
0.0
  0
VERTEX
  5
1726F
  8
0
 10
165.1811389417551084
 20
100.7668337172820969
 30
0.0
  0
VERTEX
  5
17270
  8
0
 10
165.2247704437583025
 20
100.811316539852001
 30
0.0
  0
VERTEX
  5
17271
  8
0
 10
165.267730080270411
 20
100.8560562609669944
 30
0.0
  0
VERTEX
  5
17272
  8
0
 10
165.3100078098711094
 20
100.9010274714341051
 30
0.0
  0
VERTEX
  5
17273
  8
0
 10
165.3515935911397889
 20
100.946204762060006
 30
0.0
  0
VERTEX
  5
17274
  8
0
 10
165.3924773826564092
 20
100.9915627236515974
 30
0.0
  0
VERTEX
  5
17275
  8
0
 10
165.4326491430005035
 20
101.0370759470157935
 30
0.0
  0
VERTEX
  5
17276
  8
0
 10
165.4720988307518041
 20
101.0827190229597932
 30
0.0
  0
VERTEX
  5
17277
  8
0
 10
165.5108331230364058
 20
101.1284840600064001
 30
0.0
  0
VERTEX
  5
17278
  8
0
 10
165.5488898612360913
 20
101.1744007604897035
 30
0.0
  0
VERTEX
  5
17279
  8
0
 10
165.5862744625308096
 20
101.220469490038397
 30
0.0
  0
VERTEX
  5
1727A
  8
0
 10
165.6229906296526053
 20
101.2666889186933048
 30
0.0
  0
VERTEX
  5
1727B
  8
0
 10
165.6590420653328124
 20
101.3130577164956065
 30
0.0
  0
VERTEX
  5
1727C
  8
0
 10
165.6944324723035891
 20
101.3595745534863966
 30
0.0
  0
VERTEX
  5
1727D
  8
0
 10
165.7291655532964967
 20
101.4062380997065986
 30
0.0
  0
VERTEX
  5
1727E
  8
0
 10
165.7632450110436082
 20
101.4530470251974066
 30
0.0
  0
VERTEX
  5
1727F
  8
0
 10
165.7966745482765134
 20
101.4999999999997016
 30
0.0
  0
SEQEND
  5
17280
  8
0
  0
POLYLINE
  5
16DA9
  8
0
 66
     1
 10
0.0
 20
0.0
 30
0.0
  0
VERTEX
  5
17281
  8
0
 10
161.5961825945811938
 20
101.4999999999997016
 30
0.0
  0
VERTEX
  5
17282
  8
0
 10
161.5835369812662066
 20
101.4530848457425947
 30
0.0
  0
VERTEX
  5
17283
  8
0
 10
161.5717454683154983
 20
101.4063239619901964
 30
0.0
  0
VERTEX
  5
17284
  8
0
 10
161.5608165931139126
 20
101.359719814767999
 30
0.0
  0
VERTEX
  5
17285
  8
0
 10
161.550758893046094
 20
101.3132748701009973
 30
0.0
  0
VERTEX
  5
17286
  8
0
 10
161.5415809054968861
 20
101.2669915940146979
 30
0.0
  0
VERTEX
  5
17287
  8
0
 10
161.5332911678511039
 20
101.220872452534195
 30
0.0
  0
VERTEX
  5
17288
  8
0
 10
161.5258982174935056
 20
101.1749199116851941
 30
0.0
  0
VERTEX
  5
17289
  8
0
 10
161.5194105918087075
 20
101.1291364374925053
 30
0.0
  0
VERTEX
  5
1728A
  8
0
 10
161.5138368281816952
 20
101.0835244959817061
 30
0.0
  0
VERTEX
  5
1728B
  8
0
 10
161.5091854639968858
 20
101.0380865531779051
 30
0.0
  0
VERTEX
  5
1728C
  8
0
 10
161.5054650366394924
 20
100.9928250751063956
 30
0.0
  0
VERTEX
  5
1728D
  8
0
 10
161.502684083493989
 20
100.9477425277927978
 30
0.0
  0
VERTEX
  5
1728E
  8
0
 10
161.5008511419451906
 20
100.9028413772621064
 30
0.0
  0
VERTEX
  5
1728F
  8
0
 10
161.4999747493779125
 20
100.8581240895396007
 30
0.0
  0
VERTEX
  5
17290
  8
0
 10
161.5000634431769129
 20
100.8135931306507018
 30
0.0
  0
VERTEX
  5
17291
  8
0
 10
161.5011257607268078
 20
100.7692509666206035
 30
0.0
  0
VERTEX
  5
17292
  8
0
 10
161.5031702394124977
 20
100.7251000634746987
 30
0.0
  0
VERTEX
  5
17293
  8
0
 10
161.5062091705418084
 20
100.6811554783215001
 30
0.0
  0
VERTEX
  5
17294
  8
0
 10
161.5102753437454055
 20
100.6375047132120955
 30
0.0
  0
VERTEX
  5
17295
  8
0
 10
161.5153854681394989
 20
100.5941870762646033
 30
0.0
  0
VERTEX
  5
17296
  8
0
 10
161.5215526909960886
 20
100.5512303389052988
 30
0.0
  0
VERTEX
  5
17297
  8
0
 10
161.5287901595870039
 20
100.5086622725606986
 30
0.0
  0
VERTEX
  5
17298
  8
0
 10
161.5371110211843018
 20
100.4665106486573052
 30
0.0
  0
VERTEX
  5
17299
  8
0
 10
161.5465284230600957
 20
100.4248032386213936
 30
0.0
  0
VERTEX
  5
1729A
  8
0
 10
161.557055512485789
 20
100.3835678138795942
 30
0.0
  0
VERTEX
  5
1729B
  8
0
 10
161.5687054367336941
 20
100.3428321458583952
 30
0.0
  0
VERTEX
  5
1729C
  8
0
 10
161.5814909549040124
 20
100.3026071170051949
 30
0.0
  0
VERTEX
  5
1729D
  8
0
 10
161.5954363213280089
 20
100.2628742961072987
 30
0.0
  0
VERTEX
  5
1729E
  8
0
 10
161.6105780138769035
 20
100.2236500422308012
 30
0.0
  0
VERTEX
  5
1729F
  8
0
 10
161.6269527995910096
 20
100.1849524906182012
 30
0.0
  0
VERTEX
  5
172A0
  8
0
 10
161.6445974455106125
 20
100.1467997765119975
 30
0.0
  0
VERTEX
  5
172A1
  8
0
 10
161.66354871867631
 20
100.1092100351546037
 30
0.0
  0
VERTEX
  5
172A2
  8
0
 10
161.6838433861283875
 20
100.072201401788405
 30
0.0
  0
VERTEX
  5
172A3
  8
0
 10
161.7055182149073005
 20
100.0357920116559995
 30
0.0
  0
VERTEX
  5
172A4
  8
0
 10
161.7286099720533912
 20
99.9999999999997868
 30
0.0
  0
SEQEND
  5
172A5
  8
0
  0
POLYLINE
  5
16DAA
  8
0
 66
     1
 10
0.0
 20
0.0
 30
0.0
  0
VERTEX
  5
172A6
  8
0
 10
124.0401785714285978
 20
99.9999999999999858
 30
0.0
  0
VERTEX
  5
172A7
  8
0
 10
124.006890000712005
 20
100.0358240036806023
 30
0.0
  0
VERTEX
  5
172A8
  8
0
 10
123.9730181858985958
 20
100.0722243062193968
 30
0.0
  0
VERTEX
  5
172A9
  8
0
 10
123.9385730328096002
 20
100.1091882035209011
 30
0.0
  0
VERTEX
  5
172AA
  8
0
 10
123.9035644472660067
 20
100.1467029914894056
 30
0.0
  0
VERTEX
  5
172AB
  8
0
 10
123.868002335089102
 20
100.1847559660294991
 30
0.0
  0
VERTEX
  5
172AC
  8
0
 10
123.8318966021000023
 20
100.2233344230456993
 30
0.0
  0
VERTEX
  5
172AD
  8
0
 10
123.7952571541197955
 20
100.2624256584423961
 30
0.0
  0
VERTEX
  5
172AE
  8
0
 10
123.7580938969694984
 20
100.3020169681243061
 30
0.0
  0
VERTEX
  5
172AF
  8
0
 10
123.7204167364703977
 20
100.3420956479957056
 30
0.0
  0
VERTEX
  5
172B0
  8
0
 10
123.6822355784435956
 20
100.3826489939609985
 30
0.0
  0
VERTEX
  5
172B1
  8
0
 10
123.6435603287101941
 20
100.4236643019251005
 30
0.0
  0
VERTEX
  5
172B2
  8
0
 10
123.6044008930912952
 20
100.4651288677921031
 30
0.0
  0
VERTEX
  5
172B3
  8
0
 10
123.564767177408001
 20
100.5070299874666944
 30
0.0
  0
VERTEX
  5
172B4
  8
0
 10
123.5246690874813993
 20
100.5493549568531932
 30
0.0
  0
VERTEX
  5
172B5
  8
0
 10
123.4841165291330043
 20
100.5920910718563022
 30
0.0
  0
VERTEX
  5
172B6
  8
0
 10
123.4431194081834064
 20
100.6352256283801978
 30
0.0
  0
VERTEX
  5
172B7
  8
0
 10
123.4016876304541057
 20
100.6787459223298953
 30
0.0
  0
VERTEX
  5
172B8
  8
0
 10
123.3598369374175974
 20
100.722633202450595
 30
0.0
  0
VERTEX
  5
172B9
  8
0
 10
123.3176173092488028
 20
100.7668337172822959
 30
0.0
  0
VERTEX
  5
172BA
  8
0
 10
123.2750574196656004
 20
100.8113165398522995
 30
0.0
  0
VERTEX
  5
172BB
  8
0
 10
123.2321806690057997
 20
100.856056260967307
 30
0.0
  0
VERTEX
  5
172BC
  8
0
 10
123.1890104576075942
 20
100.9010274714343041
 30
0.0
  0
VERTEX
  5
172BD
  8
0
 10
123.145570185808694
 20
100.946204762060205
 30
0.0
  0
VERTEX
  5
172BE
  8
0
 10
123.101883253947193
 20
100.9915627236517963
 30
0.0
  0
VERTEX
  5
172BF
  8
0
 10
123.0579730623610004
 20
101.0370759470162056
 30
0.0
  0
VERTEX
  5
172C0
  8
0
 10
123.0138630113878975
 20
101.0827190229600063
 30
0.0
  0
VERTEX
  5
172C1
  8
0
 10
122.9695598583681004
 20
101.1284840600065991
 30
0.0
  0
VERTEX
  5
172C2
  8
0
 10
122.9250346618457996
 20
101.174400760490002
 30
0.0
  0
VERTEX
  5
172C3
  8
0
 10
122.8802863689290064
 20
101.2204694900385959
 30
0.0
  0
VERTEX
  5
172C4
  8
0
 10
122.8353155380106045
 20
101.2666889186935038
 30
0.0
  0
VERTEX
  5
172C5
  8
0
 10
122.7901227274832934
 20
101.3130577164958055
 30
0.0
  0
VERTEX
  5
172C6
  8
0
 10
122.7447084957399994
 20
101.3595745534865955
 30
0.0
  0
VERTEX
  5
172C7
  8
0
 10
122.6990734011736066
 20
101.4062380997067976
 30
0.0
  0
VERTEX
  5
172C8
  8
0
 10
122.6532180021770984
 20
101.4530470251976055
 30
0.0
  0
VERTEX
  5
172C9
  8
0
 10
122.6071428571432023
 20
101.4999999999999005
 30
0.0
  0
SEQEND
  5
172CA
  8
0
  0
POLYLINE
  5
16DAB
  8
0
 66
     1
 10
0.0
 20
0.0
 30
0.0
  0
VERTEX
  5
172CB
  8
0
 10
150.0000000000003979
 20
99.9999999999997158
 30
0.0
  0
VERTEX
  5
172CC
  8
0
 10
149.9604498121111931
 20
100.0006608443406009
 30
0.0
  0
VERTEX
  5
172CD
  8
0
 10
149.9209351725542092
 20
100.0017956369196952
 30
0.0
  0
VERTEX
  5
172CE
  8
0
 10
149.8814914123396136
 20
100.0038437044978963
 30
0.0
  0
VERTEX
  5
172CF
  8
0
 10
149.8421515903436898
 20
100.0068824015997961
 30
0.0
  0
VERTEX
  5
172D0
  8
0
 10
149.8029473855260107
 20
100.0107747979376001
 30
0.0
  0
VERTEX
  5
172D1
  8
0
 10
149.763909263754897
 20
100.015442277514893
 30
0.0
  0
VERTEX
  5
172D2
  8
0
 10
149.7250660319849942
 20
100.020891152586799
 30
0.0
  0
VERTEX
  5
172D3
  8
0
 10
149.6864439901873993
 20
100.0271265254937987
 30
0.0
  0
VERTEX
  5
172D4
  8
0
 10
149.6480605490887115
 20
100.0341256569600006
 30
0.0
  0
VERTEX
  5
172D5
  8
0
 10
149.6099316634696947
 20
100.0418603382310039
 30
0.0
  0
VERTEX
  5
172D6
  8
0
 10
149.5720814485499943
 20
100.0503158505229067
 30
0.0
  0
VERTEX
  5
172D7
  8
0
 10
149.5345398087877129
 20
100.0594870452060974
 30
0.0
  0
VERTEX
  5
172D8
  8
0
 10
149.4973367716827966
 20
100.069368977051397
 30
0.0
  0
VERTEX
  5
172D9
  8
0
 10
149.4605023647357029
 20
100.0799567008293991
 30
0.0
  0
VERTEX
  5
172DA
  8
0
 10
149.4240645708619013
 20
100.0912434878389945
 30
0.0
  0
VERTEX
  5
172DB
  8
0
 10
149.3880383222455066
 20
100.1032112253496962
 30
0.0
  0
VERTEX
  5
172DC
  8
0
 10
149.3524334205798141
 20
100.1158373253527998
 30
0.0
  0
VERTEX
  5
172DD
  8
0
 10
149.3172596553133076
 20
100.1290991891578983
 30
0.0
  0
VERTEX
  5
172DE
  8
0
 10
149.2825268158927088
 20
100.142974218077498
 30
0.0
  0
VERTEX
  5
172DF
  8
0
 10
149.2482443229991986
 20
100.1574405401492953
 30
0.0
  0
VERTEX
  5
172E0
  8
0
 10
149.2144201872262101
 20
100.1724790622657935
 30
0.0
  0
VERTEX
  5
172E1
  8
0
 10
149.1810620821798068
 20
100.1880713554186997
 30
0.0
  0
VERTEX
  5
172E2
  8
0
 10
149.148177681465711
 20
100.2041989906000055
 30
0.0
  0
VERTEX
  5
172E3
  8
0
 10
149.1157746586900998
 20
100.2208435388016028
 30
0.0
  0
VERTEX
  5
172E4
  8
0
 10
149.0838606874588095
 20
100.2379865710153979
 30
0.0
  0
VERTEX
  5
172E5
  8
0
 10
149.0524434413781876
 20
100.2556096582331975
 30
0.0
  0
VERTEX
  5
172E6
  8
0
 10
149.0215305940540134
 20
100.273694371446993
 30
0.0
  0
VERTEX
  5
172E7
  8
0
 10
148.9911298190920945
 20
100.292222281648705
 30
0.0
  0
VERTEX
  5
172E8
  8
0
 10
148.9612480285204867
 20
100.3111752103142038
 30
0.0
  0
VERTEX
  5
172E9
  8
0
 10
148.931885307675401
 20
100.3305372242264042
 30
0.0
  0
VERTEX
  5
172EA
  8
0
 10
148.9030381410796053
 20
100.3502935744806024
 30
0.0
  0
VERTEX
  5
172EB
  8
0
 10
148.8747029808390039
 20
100.3704295228336036
 30
0.0
  0
VERTEX
  5
172EC
  8
0
 10
148.8468762790598134
 20
100.3909303310423979
 30
0.0
  0
VERTEX
  5
172ED
  8
0
 10
148.8195544878479097
 20
100.4117812608640037
 30
0.0
  0
VERTEX
  5
172EE
  8
0
 10
148.7927340593093106
 20
100.4329675740552972
 30
0.0
  0
VERTEX
  5
172EF
  8
0
 10
148.7664114455500055
 20
100.4544745323731973
 30
0.0
  0
VERTEX
  5
172F0
  8
0
 10
148.7405830986760975
 20
100.4762873975748931
 30
0.0
  0
VERTEX
  5
172F1
  8
0
 10
148.7152454707936045
 20
100.4983914314171045
 30
0.0
  0
VERTEX
  5
172F2
  8
0
 10
148.6903952770408921
 20
100.5207725582325935
 30
0.0
  0
VERTEX
  5
172F3
  8
0
 10
148.6660308026162056
 20
100.5434206573190039
 30
0.0
  0
VERTEX
  5
172F4
  8
0
 10
148.6421509128082903
 20
100.5663270692155038
 30
0.0
  0
VERTEX
  5
172F5
  8
0
 10
148.6187544738334054
 20
100.5894831367975968
 30
0.0
  0
VERTEX
  5
172F6
  8
0
 10
148.5958403519080093
 20
100.612880202941497
 30
0.0
  0
VERTEX
  5
172F7
  8
0
 10
148.5734074132481055
 20
100.6365096105223955
 30
0.0
  0
VERTEX
  5
172F8
  8
0
 10
148.5514545240700954
 20
100.6603627024161938
 30
0.0
  0
VERTEX
  5
172F9
  8
0
 10
148.5299805505900963
 20
100.684430821498907
 30
0.0
  0
VERTEX
  5
172FA
  8
0
 10
148.5089843590243959
 20
100.7087053106458967
 30
0.0
  0
VERTEX
  5
172FB
  8
0
 10
148.4884646061883018
 20
100.7331775475770002
 30
0.0
  0
VERTEX
  5
172FC
  8
0
 10
148.4684163444673004
 20
100.7578395097817037
 30
0.0
  0
VERTEX
  5
172FD
  8
0
 10
148.4488315889201999
 20
100.782683680155003
 30
0.0
  0
VERTEX
  5
172FE
  8
0
 10
148.429702259668403
 20
100.8077025573890069
 30
0.0
  0
VERTEX
  5
172FF
  8
0
 10
148.4110202768326019
 20
100.8328886401759945
 30
0.0
  0
VERTEX
  5
17300
  8
0
 10
148.3927775605341139
 20
100.858234427208501
 30
0.0
  0
VERTEX
  5
17301
  8
0
 10
148.3749660308940008
 20
100.883732417178507
 30
0.0
  0
VERTEX
  5
17302
  8
0
 10
148.3575776080332105
 20
100.9093751087783062
 30
0.0
  0
VERTEX
  5
17303
  8
0
 10
148.3406042120730035
 20
100.9351550007002061
 30
0.0
  0
VERTEX
  5
17304
  8
0
 10
148.3240377631344131
 20
100.9610645916365996
 30
0.0
  0
VERTEX
  5
17305
  8
0
 10
148.3078715622091863
 20
100.987096692451999
 30
0.0
  0
VERTEX
  5
17306
  8
0
 10
148.2921118255906094
 20
101.013247033762994
 30
0.0
  0
VERTEX
  5
17307
  8
0
 10
148.276771819787399
 20
101.0395129400230019
 30
0.0
  0
VERTEX
  5
17308
  8
0
 10
148.2618648826399124
 20
101.0658917518109945
 30
0.0
  0
VERTEX
  5
17309
  8
0
 10
148.2474043519883082
 20
101.0923808097061993
 30
0.0
  0
VERTEX
  5
1730A
  8
0
 10
148.233403565672802
 20
101.1189774542876023
 30
0.0
  0
VERTEX
  5
1730B
  8
0
 10
148.21987586153341
 20
101.1456790261344025
 30
0.0
  0
VERTEX
  5
1730C
  8
0
 10
148.2068345774106888
 20
101.1724828658256001
 30
0.0
  0
VERTEX
  5
1730D
  8
0
 10
148.1942930511447116
 20
101.1993863139403942
 30
0.0
  0
VERTEX
  5
1730E
  8
0
 10
148.1822646197510096
 20
101.2263867109735003
 30
0.0
  0
VERTEX
  5
1730F
  8
0
 10
148.1707502262981961
 20
101.2534801258251065
 30
0.0
  0
VERTEX
  5
17310
  8
0
 10
148.1597071260354141
 20
101.2806581451138044
 30
0.0
  0
VERTEX
  5
17311
  8
0
 10
148.1490829530530107
 20
101.3079113683466943
 30
0.0
  0
VERTEX
  5
17312
  8
0
 10
148.1388253414405085
 20
101.3352303950308055
 30
0.0
  0
VERTEX
  5
17313
  8
0
 10
148.1288819252883115
 20
101.3626058246728974
 30
0.0
  0
VERTEX
  5
17314
  8
0
 10
148.1192003386859994
 20
101.390028256780198
 30
0.0
  0
VERTEX
  5
17315
  8
0
 10
148.1097282157238908
 20
101.4174882908594952
 30
0.0
  0
VERTEX
  5
17316
  8
0
 10
148.1004131904917926
 20
101.4449765264179035
 30
0.0
  0
VERTEX
  5
17317
  8
0
 10
148.0912028970797962
 20
101.4724835629622959
 30
0.0
  0
VERTEX
  5
17318
  8
0
 10
148.0820449695777086
 20
101.4999999999997016
 30
0.0
  0
SEQEND
  5
17319
  8
0
  0
POLYLINE
  5
16DAC
  8
0
 66
     1
 10
0.0
 20
0.0
 30
0.0
  0
VERTEX
  5
1731A
  8
0
 10
151.9179550304233999
 20
101.4999999999997016
 30
0.0
  0
VERTEX
  5
1731B
  8
0
 10
151.9093472426121991
 20
101.4724334380624953
 30
0.0
  0
VERTEX
  5
1731C
  8
0
 10
151.9006389724756048
 20
101.4448814947988069
 30
0.0
  0
VERTEX
  5
1731D
  8
0
 10
151.8917297376879958
 20
101.417358788882396
 30
0.0
  0
VERTEX
  5
1731E
  8
0
 10
151.8825190559244049
 20
101.3898799389867946
 30
0.0
  0
VERTEX
  5
1731F
  8
0
 10
151.8729064448590123
 20
101.3624595637855066
 30
0.0
  0
VERTEX
  5
17320
  8
0
 10
151.8628079519772029
 20
101.3351104693221032
 30
0.0
  0
VERTEX
  5
17321
  8
0
 10
151.8522222417271053
 20
101.3078364020081068
 30
0.0
  0
VERTEX
  5
17322
  8
0
 10
151.8411737373268124
 20
101.280638283593504
 30
0.0
  0
VERTEX
  5
17323
  8
0
 10
151.8296868704377118
 20
101.2535170349024014
 30
0.0
  0
VERTEX
  5
17324
  8
0
 10
151.8177860727205939
 20
101.2264735767588064
 30
0.0
  0
VERTEX
  5
17325
  8
0
 10
151.805490876233506
 20
101.1995095225878032
 30
0.0
  0
VERTEX
  5
17326
  8
0
 10
151.792798389929402
 20
101.1726296555121962
 30
0.0
  0
VERTEX
  5
17327
  8
0
 10
151.7796993119090985
 20
101.1458396648842069
 30
0.0
  0
VERTEX
  5
17328
  8
0
 10
151.7661843397665109
 20
101.1191452401270965
 30
0.0
  0
VERTEX
  5
17329
  8
0
 10
151.7522441718471953
 20
101.0925520704737011
 30
0.0
  0
VERTEX
  5
1732A
  8
0
 10
151.7378718852446013
 20
101.0660652406412936
 30
0.0
  0
VERTEX
  5
1732B
  8
0
 10
151.723068208334098
 20
101.0396878909149052
 30
0.0
  0
VERTEX
  5
1732C
  8
0
 10
151.7078354048321103
 20
101.0134227714004993
 30
0.0
  0
VERTEX
  5
1732D
  8
0
 10
151.6921757384550062
 20
100.9872726322043945
 30
0.0
  0
VERTEX
  5
1732E
  8
0
 10
151.6760914514802892
 20
100.9612402382848018
 30
0.0
  0
VERTEX
  5
1732F
  8
0
 10
151.6595825316526032
 20
100.9353299164686035
 30
0.0
  0
VERTEX
  5
17330
  8
0
 10
151.6426447597731908
 20
100.9095489080183938
 30
0.0
  0
VERTEX
  5
17331
  8
0
 10
151.6252734564226898
 20
100.883904773023005
 30
0.0
  0
VERTEX
  5
17332
  8
0
 10
151.6074639421819938
 20
100.8584050715709992
 30
0.0
  0
VERTEX
  5
17333
  8
0
 10
151.5892115376319111
 20
100.8330573637513936
 30
0.0
  0
VERTEX
  5
17334
  8
0
 10
151.5705115633531932
 20
100.8078692096525941
 30
0.0
  0
VERTEX
  5
17335
  8
0
 10
151.5513593399267904
 20
100.7828481693633051
 30
0.0
  0
VERTEX
  5
17336
  8
0
 10
151.5317501879335111
 20
100.7580018029723021
 30
0.0
  0
VERTEX
  5
17337
  8
0
 10
151.5116794279541068
 20
100.7333376705684032
 30
0.0
  0
VERTEX
  5
17338
  8
0
 10
151.4911424143076886
 20
100.7088633461681013
 30
0.0
  0
VERTEX
  5
17339
  8
0
 10
151.4701356121454126
 20
100.6845868623711056
 30
0.0
  0
VERTEX
  5
1733A
  8
0
 10
151.448656823178311
 20
100.6605168035457041
 30
0.0
  0
VERTEX
  5
1733B
  8
0
 10
151.4267039284858924
 20
100.6366617868261955
 30
0.0
  0
VERTEX
  5
1733C
  8
0
 10
151.4042748091472959
 20
100.613030429346594
 30
0.0
  0
VERTEX
  5
1733D
  8
0
 10
151.3813673462425982
 20
100.5896313482410989
 30
0.0
  0
VERTEX
  5
1733E
  8
0
 10
151.3579794208507963
 20
100.5664731606436959
 30
0.0
  0
VERTEX
  5
1733F
  8
0
 10
151.3341089140515123
 20
100.5435644836886979
 30
0.0
  0
VERTEX
  5
17340
  8
0
 10
151.3097537069243117
 20
100.520913934510105
 30
0.0
  0
VERTEX
  5
17341
  8
0
 10
151.284911680162395
 20
100.4985301323090994
 30
0.0
  0
VERTEX
  5
17342
  8
0
 10
151.2595804396860899
 20
100.4764231675848976
 30
0.0
  0
VERTEX
  5
17343
  8
0
 10
151.2337568341773988
 20
100.4546071855335043
 30
0.0
  0
VERTEX
  5
17344
  8
0
 10
151.2074375829909911
 20
100.4330970238465994
 30
0.0
  0
VERTEX
  5
17345
  8
0
 10
151.180619405481508
 20
100.4119075202158058
 30
0.0
  0
VERTEX
  5
17346
  8
0
 10
151.1532990210035052
 20
100.3910535123326042
 30
0.0
  0
VERTEX
  5
17347
  8
0
 10
151.1254731489119081
 20
100.3705498378886034
 30
0.0
  0
VERTEX
  5
17348
  8
0
 10
151.0971385085611018
 20
100.3504113345753979
 30
0.0
  0
VERTEX
  5
17349
  8
0
 10
151.0682918193056139
 20
100.3306528400845963
 30
0.0
  0
VERTEX
  5
1734A
  8
0
 10
151.0389298005005116
 20
100.3112891921077932
 30
0.0
  0
VERTEX
  5
1734B
  8
0
 10
151.0090492010056948
 20
100.2923352370671068
 30
0.0
  0
VERTEX
  5
1734C
  8
0
 10
150.9786501999892039
 20
100.2738068363937032
 30
0.0
  0
VERTEX
  5
1734D
  8
0
 10
150.9477395648438005
 20
100.255721800938403
 30
0.0
  0
VERTEX
  5
1734E
  8
0
 10
150.9163248096888879
 20
100.2380981625043006
 30
0.0
  0
VERTEX
  5
1734F
  8
0
 10
150.8844134486440964
 20
100.2209539528943054
 30
0.0
  0
VERTEX
  5
17350
  8
0
 10
150.852012995828801
 20
100.2043072039114975
 30
0.0
  0
VERTEX
  5
17351
  8
0
 10
150.8191309653624899
 20
100.1881759473589
 30
0.0
  0
VERTEX
  5
17352
  8
0
 10
150.7857748713647936
 20
100.1725782150395929
 30
0.0
  0
VERTEX
  5
17353
  8
0
 10
150.751952227954888
 20
100.1575320387565995
 30
0.0
  0
VERTEX
  5
17354
  8
0
 10
150.7176705492526025
 20
100.1430554503129002
 30
0.0
  0
VERTEX
  5
17355
  8
0
 10
150.6829378308310083
 20
100.1291678055489029
 30
0.0
  0
VERTEX
  5
17356
  8
0
 10
150.6477641177345959
 20
100.1158940965135997
 30
0.0
  0
VERTEX
  5
17357
  8
0
 10
150.6121600002470018
 20
100.1032608147111063
 30
0.0
  0
VERTEX
  5
17358
  8
0
 10
150.576136068657803
 20
100.0912944516582996
 30
0.0
  0
VERTEX
  5
17359
  8
0
 10
150.5397029223209131
 20
100.0800214780479962
 30
0.0
  0
VERTEX
  5
1735A
  8
0
 10
150.5028752591587136
 20
100.0694589498148019
 30
0.0
  0
VERTEX
  5
1735B
  8
0
 10
150.4656783345623978
 20
100.059599671492407
 30
0.0
  0
VERTEX
  5
1735C
  8
0
 10
150.4281390806785907
 20
100.0504325959651055
 30
0.0
  0
VERTEX
  5
1735D
  8
0
 10
150.3902844296540025
 20
100.0419466761171066
 30
0.0
  0
VERTEX
  5
1735E
  8
0
 10
150.3521412838802007
 20
100.0341316291656
 30
0.0
  0
VERTEX
  5
1735F
  8
0
 10
150.3137350952399913
 20
100.0270144324969976
 30
0.0
  0
VERTEX
  5
17360
  8
0
 10
150.2750892412211101
 20
100.0206753498126062
 30
0.0
  0
VERTEX
  5
17361
  8
0
 10
150.2362269397519015
 20
100.015198743530803
 30
0.0
  0
VERTEX
  5
17362
  8
0
 10
150.197171408760596
 20
100.0106689760699936
 30
0.0
  0
VERTEX
  5
17363
  8
0
 10
150.1579463359865088
 20
100.0071577500285969
 30
0.0
  0
VERTEX
  5
17364
  8
0
 10
150.1185818392158069
 20
100.0045635001055047
 30
0.0
  0
VERTEX
  5
17365
  8
0
 10
150.0791126962517126
 20
100.0026590893960048
 30
0.0
  0
VERTEX
  5
17366
  8
0
 10
150.0395737891583963
 20
100.0012145714955949
 30
0.0
  0
VERTEX
  5
17367
  8
0
 10
150.0000000000003979
 20
99.9999999999997158
 30
0.0
  0
SEQEND
  5
17368
  8
0
  0
CIRCLE
  5
16DB3
  8
3
 10
141.500000000000199
 20
67.5000000000000995
 30
0.0
 40
2.067000000000462
  0
CIRCLE
  5
16DB4
  8
3
 10
167.5
 20
58.7499999999996803
 30
0.0
 40
2.067000000000462
  0
CIRCLE
  5
16DB5
  8
3
 10
167.499999999999801
 20
41.2499999999996803
 30
0.0
 40
2.067000000000462
  0
CIRCLE
  5
16DB6
  8
3
 10
141.500000000000199
 20
32.5000000000000213
 30
0.0
 40
2.067000000000462
  0
ENDSEC
  0
EOF
