  0
SECTION
  2
HEADER
  9
$ACADVER
  1
AC1009
  9
$INSBASE
 10
0.0
 20
0.0
 30
0.0
  9
$EXTMIN
 10
0.0
 20
0.0000000000000568
 30
0.0
  9
$EXTMAX
 10
162.499999999999801
 20
212.5
 30
0.0
  9
$LIMMIN
 10
0.0
 20
0.0
  9
$LIMMAX
 10
420.0
 20
297.0
  9
$ORTHOMODE
 70
     1
  9
$REGENMODE
 70
     1
  9
$FILLMODE
 70
     1
  9
$QTEXTMODE
 70
     0
  9
$MIRRTEXT
 70
     0
  9
$DRAGMODE
 70
     2
  9
$LTSCALE
 40
1.0
  9
$OSMODE
 70
    37
  9
$ATTMODE
 70
     1
  9
$TEXTSIZE
 40
2.5
  9
$TRACEWID
 40
1.0
  9
$TEXTSTYLE
  7
STANDARD
  9
$CLAYER
  8
1
  9
$CELTYPE
  6
BYLAYER
  9
$CECOLOR
 62
   256
  9
$DIMSCALE
 40
1.0
  9
$DIMASZ
 40
2.5
  9
$DIMEXO
 40
0.625
  9
$DIMDLI
 40
3.75
  9
$DIMRND
 40
0.0
  9
$DIMDLE
 40
0.0
  9
$DIMEXE
 40
1.25
  9
$DIMTP
 40
0.0
  9
$DIMTM
 40
0.0
  9
$DIMTXT
 40
2.5
  9
$DIMCEN
 40
2.5
  9
$DIMTSZ
 40
0.0
  9
$DIMTOL
 70
     0
  9
$DIMLIM
 70
     0
  9
$DIMTIH
 70
     0
  9
$DIMTOH
 70
     0
  9
$DIMSE1
 70
     0
  9
$DIMSE2
 70
     0
  9
$DIMTAD
 70
     1
  9
$DIMZIN
 70
     8
  9
$DIMBLK
  1

  9
$DIMASO
 70
     1
  9
$DIMSHO
 70
     1
  9
$DIMPOST
  1

  9
$DIMAPOST
  1

  9
$DIMALT
 70
     0
  9
$DIMALTD
 70
     3
  9
$DIMALTF
 40
0.03937007874016
  9
$DIMLFAC
 40
1.0
  9
$DIMTOFL
 70
     1
  9
$DIMTVP
 40
0.0
  9
$DIMTIX
 70
     0
  9
$DIMSOXD
 70
     0
  9
$DIMSAH
 70
     0
  9
$DIMBLK1
  1

  9
$DIMBLK2
  1

  9
$DIMSTYLE
  2
ISO-25
  9
$DIMCLRD
 70
     0
  9
$DIMCLRE
 70
     0
  9
$DIMCLRT
 70
     0
  9
$DIMTFAC
 40
1.0
  9
$DIMGAP
 40
0.625
  9
$LUNITS
 70
     2
  9
$LUPREC
 70
     1
  9
$SKETCHINC
 40
1.0
  9
$FILLETRAD
 40
0.0
  9
$AUNITS
 70
     0
  9
$AUPREC
 70
     0
  9
$MENU
  1
.
  9
$ELEVATION
 40
0.0
  9
$PELEVATION
 40
0.0
  9
$THICKNESS
 40
0.0
  9
$LIMCHECK
 70
     0
  9
$BLIPMODE
 70
     0
  9
$CHAMFERA
 40
0.0
  9
$CHAMFERB
 40
0.0
  9
$SKPOLY
 70
     0
  9
$TDCREATE
 40
2454946.5997685180045664
  9
$TDUPDATE
 40
2460745.6380902780219913
  9
$TDINDWG
 40
1.4003775347
  9
$TDUSRTIMER
 40
1.4003773611000001
  9
$USRTIMER
 70
     1
  9
$ANGBASE
 50
0.0
  9
$ANGDIR
 70
     0
  9
$PDMODE
 70
     0
  9
$PDSIZE
 40
0.0
  9
$PLINEWID
 40
0.0
  9
$COORDS
 70
     1
  9
$SPLFRAME
 70
     0
  9
$SPLINETYPE
 70
     6
  9
$SPLINESEGS
 70
     8
  9
$ATTDIA
 70
     1
  9
$ATTREQ
 70
     1
  9
$HANDLING
 70
     1
  9
$HANDSEED
  5
1781A
  9
$SURFTAB1
 70
     6
  9
$SURFTAB2
 70
     6
  9
$SURFTYPE
 70
     6
  9
$SURFU
 70
     6
  9
$SURFV
 70
     6
  9
$UCSNAME
  2

  9
$UCSORG
 10
0.0
 20
0.0
 30
0.0
  9
$UCSXDIR
 10
1.0
 20
0.0
 30
0.0
  9
$UCSYDIR
 10
0.0
 20
1.0
 30
0.0
  9
$PUCSNAME
  2

  9
$PUCSORG
 10
0.0
 20
0.0
 30
0.0
  9
$PUCSXDIR
 10
1.0
 20
0.0
 30
0.0
  9
$PUCSYDIR
 10
0.0
 20
1.0
 30
0.0
  9
$USERI1
 70
     0
  9
$USERI2
 70
     0
  9
$USERI3
 70
     0
  9
$USERI4
 70
     0
  9
$USERI5
 70
     0
  9
$USERR1
 40
0.0
  9
$USERR2
 40
0.0
  9
$USERR3
 40
0.0
  9
$USERR4
 40
0.0
  9
$USERR5
 40
0.0
  9
$WORLDVIEW
 70
     1
  9
$SHADEDGE
 70
     3
  9
$SHADEDIF
 70
    70
  9
$TILEMODE
 70
     1
  9
$MAXACTVP
 70
    64
  9
$PLIMCHECK
 70
     0
  9
$PEXTMIN
 10
0.0
 20
0.0
 30
0.0
  9
$PEXTMAX
 10
0.0
 20
0.0
 30
0.0
  9
$PLIMMIN
 10
0.0
 20
0.0
  9
$PLIMMAX
 10
12.0
 20
9.0
  9
$UNITMODE
 70
     0
  9
$VISRETAIN
 70
     1
  9
$PLINEGEN
 70
     0
  9
$PSLTSCALE
 70
     1
  0
ENDSEC
  0
SECTION
  2
TABLES
  0
TABLE
  2
VPORT
 70
     1
  0
VPORT
  2
*ACTIVE
 70
     0
 10
0.0
 20
0.0
 11
1.0
 21
1.0
 12
-51.3338832973976196
 22
-69.0220752235724291
 13
0.0
 23
0.0
 14
10.0
 24
10.0
 15
10.0
 25
10.0
 16
0.0
 26
0.0
 36
260.884935587131622
 17
319.8196404188369115
 27
183.747620215537097
 37
0.0
 40
229.4510899839293927
 41
2.340243902439024
 42
50.0
 43
0.0
 44
0.0
 50
0.0
 51
0.0
 71
     0
 72
  1000
 73
     1
 74
     3
 75
     0
 76
     0
 77
     0
 78
     0
  0
ENDTAB
  0
TABLE
  2
LTYPE
 70
     4
  0
LTYPE
  2
CONTINUOUS
 70
     0
  3
Solid line
 72
    65
 73
     0
 40
0.0
  0
LTYPE
  2
CENTER
 70
     0
  3
Center ____ _ ____ _ ____ _ ____ _ ____ _ ____
 72
    65
 73
     4
 40
10.1600000000000001
 49
6.3499999999999979
 49
-1.27
 49
1.27
 49
-1.27
  0
LTYPE
  2
PHANTOM2
 70
     0
  3
Phantom (.5x) ___ _ _ ___ _ _ ___ _ _ ___ _ _
 72
    65
 73
     6
 40
31.75
 49
15.875
 49
-3.174999999999998
 49
3.174999999999998
 49
-3.174999999999998
 49
3.174999999999998
 49
-3.174999999999998
  0
LTYPE
  2
HIDDEN
 70
     0
  3
Hidden __ __ __ __ __ __ __ __ __ __ __ __ __ __
 72
    65
 73
     2
 40
1.905
 49
1.27
 49
-0.635
  0
ENDTAB
  0
TABLE
  2
LAYER
 70
     5
  0
LAYER
  2
0
 70
     0
 62
     7
  6
CONTINUOUS
  0
LAYER
  2
1
 70
     0
 62
     1
  6
CENTER
  0
LAYER
  2
DEFPOINTS
 70
     0
 62
     7
  6
CONTINUOUS
  0
LAYER
  2
3
 70
     0
 62
     3
  6
CONTINUOUS
  0
LAYER
  2
2
 70
     0
 62
     2
  6
HIDDEN
  0
ENDTAB
  0
TABLE
  2
STYLE
 70
     3
  0
STYLE
  2
STANDARD
 70
     0
 40
0.0
 41
1.0
 50
0.0
 71
     0
 42
2.5
  3
txt
  4

  0
STYLE
  2
ANNOTATIVE
 70
     0
 40
0.0
 41
1.0
 50
0.0
 71
     0
 42
0.2
  3
txt
  4

  0
STYLE
  2
STANDARD1
 70
     0
 40
0.0
 41
1.0
 50
0.0
 71
     0
 42
3.0
  3
txt
  4

  0
ENDTAB
  0
TABLE
  2
VIEW
 70
     0
  0
ENDTAB
  0
TABLE
  2
UCS
 70
     0
  0
ENDTAB
  0
TABLE
  2
APPID
 70
   133
  0
APPID
  2
ACAD
 70
     0
  0
APPID
  2
ACADANNOTATIVE
 70
     0
  0
APPID
  2
_FTCNV
 70
     0
  0
APPID
  2
GENIUS_GENODEF_13
 70
     0
  0
APPID
  2
GENIUS_GENOENT_13
 70
     0
  0
APPID
  2
GENIUS_GENOBJ-N-CEN_13
 70
     0
  0
APPID
  2
GENIUS_GENOLIS_13
 70
     0
  0
APPID
  2
GENIUS_GENOREF_13
 70
     0
  0
APPID
  2
GENIUS_GENOBJ-N-CRS_13
 70
     0
  0
APPID
  2
GENIUS_GENOBJ-N-FIL_13
 70
     0
  0
APPID
  2
GENIUS_GENOBJ-N-REC_13
 70
     0
  0
APPID
  2
GENIUS_GENFIL_13
 70
     0
  0
APPID
  2
GENIUS_GENOBJ-N-CHA_13
 70
     0
  0
APPID
  2
ASM_BASE
 70
     0
  0
APPID
  2
_PHO
 70
     0
  0
APPID
  2
_CLP
 70
     0
  0
APPID
  2
MOJIGUMI_PARTS
 70
     0
  0
APPID
  2
_DBL
 70
     0
  0
APPID
  2
_PWH
 70
     0
  0
APPID
  2
_G9P
 70
     0
  0
APPID
  2
AME_SOL
 70
     0
  0
APPID
  2
HAKO_DEF
 70
     0
  0
APPID
  2
HAKO_TXT
 70
     0
  0
APPID
  2
HAKO_OVR
 70
     0
  0
APPID
  2
ASM_EXPLO_VER_2_00
 70
     0
  0
APPID
  2
ASM_CADM_VER_12_00
 70
     0
  0
APPID
  2
ASM_BASEFORO
 70
     0
  0
APPID
  2
ASM_BASETRAVI
 70
     0
  0
APPID
  2
ASM_BASETRAVI1
 70
     0
  0
APPID
  2
ASM_GRUPPI
 70
     0
  0
APPID
  2
ASM_CADM_ALBERO
 70
     0
  0
APPID
  2
ASM_GOLE
 70
     0
  0
APPID
  2
GENIUS_GENCFG_13
 70
     0
  0
APPID
  2
GENIUS_GENCFG0_13
 70
     0
  0
APPID
  2
GENIUS_GENCFG1_13
 70
     0
  0
APPID
  2
GENIUS_GENCFG2_13
 70
     0
  0
APPID
  2
GENIUS_GENCFG3_13
 70
     0
  0
APPID
  2
GENIUS_GENCFG4_13
 70
     0
  0
APPID
  2
GENIUS_GEVCFG0_13
 70
     0
  0
APPID
  2
GENIUS_GENHATCH_13
 70
     0
  0
APPID
  2
GENIUS_GEFCFG0_13
 70
     0
  0
APPID
  2
GENIUS_GENOBJ-N-HTC_13
 70
     0
  0
APPID
  2
DCO15
 70
     0
  0
APPID
  2
AVE_RENDER
 70
     0
  0
APPID
  2
AVE_ENTITY_MATERIAL
 70
     0
  0
APPID
  2
AVE_FINISH
 70
     0
  0
APPID
  2
AVE_MATERIAL
 70
     0
  0
APPID
  2
AVE_GLOBAL
 70
     0
  0
APPID
  2
_NUM
 70
     0
  0
APPID
  2
HAKO_FNM
 70
     0
  0
APPID
  2
_CALL_MAC$
 70
     0
  0
APPID
  2
ACA_CADIMENU
 70
     0
  0
APPID
  2
AUTOCAD_POSTSCRIPT_FIGURE
 70
     0
  0
APPID
  2
GEV_VCCNULL_SWITCH_OFF
 70
     0
  0
APPID
  2
GENIUS_GENDTOL_13
 70
     0
  0
APPID
  2
GENIUS_GEFWELD_13
 70
     0
  0
APPID
  2
GENIUS_GENOBJ-F-WELS_13
 70
     0
  0
APPID
  2
GEVID961514679
 70
     0
  0
APPID
  2
GEVDC
 70
     0
  0
APPID
  2
GEVPT
 70
     0
  0
APPID
  2
GEVIT
 70
     0
  0
APPID
  2
VCC
 70
     0
  0
APPID
  2
GENBH
 70
     0
  0
APPID
  2
GEVMK
 70
     0
  0
APPID
  2
GENIUS_GENBH_13
 70
     0
  0
APPID
  2
GENIUS_GENOBJ-NBEHI-BHF_13
 70
     0
  0
APPID
  2
GENIUS_GENOBJ-NBEHI-BHB_13
 70
     0
  0
APPID
  2
GENIUS_GENOBJ-F-DESC_13
 70
     0
  0
APPID
  2
GENIUS_GEFDESC_14
 70
     0
  0
APPID
  2
GENIUS_GENOBJ-F-PART_13
 70
     0
  0
APPID
  2
GENIUS_GEFSTDP_13
 70
     0
  0
APPID
  2
GENIUS_GEFPARTINS_13
 70
     0
  0
APPID
  2
GEVID961514680
 70
     0
  0
APPID
  2
GENIUS_GENTRA_14
 70
     0
  0
APPID
  2
GENIUS_GENINF13_13
 70
     0
  0
APPID
  2
GENIUS_GENOBJ-N-INFOPT_13
 70
     0
  0
APPID
  2
GENIUS_GENOBJ-N-RSSYM_13
 70
     0
  0
APPID
  2
GENIUS_GENSYMENT_13
 70
     0
  0
APPID
  2
GENIUS_GENSCSYM_13
 70
     0
  0
APPID
  2
GENIUS_GEFINFNAM_13
 70
     0
  0
APPID
  2
GENIUS_GENREC_14
 70
     0
  0
APPID
  2
GEVID962097543
 70
     0
  0
APPID
  2
GEVID962097544
 70
     0
  0
APPID
  2
GEVID962097545
 70
     0
  0
APPID
  2
GENIUS_DUMCFG0_13
 70
     0
  0
APPID
  2
GEVID962352965
 70
     0
  0
APPID
  2
GEVID962352966
 70
     0
  0
APPID
  2
GEVID962352968
 70
     0
  0
APPID
  2
GEVRADREF
 70
     0
  0
APPID
  2
GEVID963230099
 70
     0
  0
APPID
  2
GENIUS_GENOBJ-F-FEAT_13
 70
     0
  0
APPID
  2
GENIUS_GEFFEAT_14
 70
     0
  0
APPID
  2
GEVID963230100
 70
     0
  0
APPID
  2
GEVID963230101
 70
     0
  0
APPID
  2
GENIUS_GENHINW_13
 70
     0
  0
APPID
  2
GENIUS_FIRSTVISTXT_14
 70
     0
  0
APPID
  2
GENIUS_GENOBJ-N-LEADER_13
 70
     0
  0
APPID
  2
GEVID971698136
 70
     0
  0
APPID
  2
GEVID972029070
 70
     0
  0
APPID
  2
MCAD_NO_VIS
 70
     0
  0
APPID
  2
ACAD_TEMP_GRAPHIC
 70
     0
  0
APPID
  2
ACATTRIBSERVICES
 70
     0
  0
APPID
  2
GENIUS_GENDIMSH_14
 70
     0
  0
APPID
  2
CONTENTTABDATA
 70
     0
  0
APPID
  2
CONTENTCURRENTTAB
 70
     0
  0
APPID
  2
GENIUS_GENBLKED_14
 70
     0
  0
APPID
  2
GENIUS_GENOBJ_13
 70
     0
  0
APPID
  2
GENIUS_GENOBJ-N-TIT_13
 70
     0
  0
APPID
  2
GENIUS_GENTITLE_13
 70
     0
  0
APPID
  2
GENIUS_GENZVEED_13
 70
     0
  0
APPID
  2
GENIUS_GEFINERT_13
 70
     0
  0
APPID
  2
GENIUS_GENOBJ-F-INER_13
 70
     0
  0
APPID
  2
GENIUS_GENOBJ-N-ZOO_13
 70
     0
  0
APPID
  2
GENIUS_GENZOO_13
 70
     0
  0
APPID
  2
GENIUS_GENOBJ-F-TOL_13
 70
     0
  0
APPID
  2
GENIUS_GENOBJ-N-REV_13
 70
     0
  0
APPID
  2
GENIUS_GENREC_13
 70
     0
  0
APPID
  2
_KTH
 70
     0
  0
APPID
  2
GENIUS_GENOBJ-N-SEC_13
 70
     0
  0
APPID
  2
ACAD_EXEMPT_FROM_CAD_STANDARDS
 70
     0
  0
APPID
  2
ACAD_MLEADERVER
 70
     0
  0
APPID
  2
ACAD_NAV_VCDISPLAY
 70
     0
  0
APPID
  2
ACAD_PSEXT
 70
     0
  0
APPID
  2
ACAD_DSTYLE_DIMJAG
 70
     0
  0
APPID
  2
ACAD_DSTYLE_DIMTALN
 70
     0
  0
APPID
  2
ACAD_DSTYLE_DIMBREAK
 70
     0
  0
APPID
  2
ACAECLAYERSTANDARD
 70
     0
  0
APPID
  2
ACCMTRANSPARENCY
 70
     0
  0
APPID
  2
ACAD_DSTYLE_DIM_LINETYPE
 70
     0
  0
APPID
  2
GRADIENTCOLOR1ACI
 70
     0
  0
APPID
  2
GRADIENTCOLOR2ACI
 70
     0
  0
APPID
  2
ACAD_DSTYLE_DIMRADIAL_EXTENSION
 70
     0
  0
APPID
  2
ACAD_TC
 70
     0
  0
ENDTAB
  0
TABLE
  2
DIMSTYLE
 70
     3
  0
DIMSTYLE
  2
STANDARD
 70
     0
  3

  4

  5

  6

  7

 40
1.0
 41
0.18
 42
0.0625
 43
0.38
 44
0.18
 45
0.0
 46
0.0
 47
0.0
 48
0.0
140
0.18
141
0.09
142
0.0
143
25.3999999999999986
144
1.0
145
0.0
146
1.0
147
0.09
 71
     0
 72
     0
 73
     1
 74
     1
 75
     0
 76
     0
 77
     0
 78
     0
170
     0
171
     2
172
     0
173
     0
174
     0
175
     0
176
     0
177
     0
178
     0
  0
DIMSTYLE
  2
ANNOTATIVE
 70
     0
  3

  4

  5

  6

  7

 40
1.0
 41
0.18
 42
0.0625
 43
0.38
 44
0.18
 45
0.0
 46
0.0
 47
0.0
 48
0.0
140
0.18
141
0.09
142
0.0
143
25.3999999999999986
144
1.0
145
0.0
146
1.0
147
0.09
 71
     0
 72
     0
 73
     1
 74
     1
 75
     0
 76
     0
 77
     0
 78
     0
170
     0
171
     2
172
     0
173
     0
174
     0
175
     0
176
     0
177
     0
178
     0
  0
DIMSTYLE
  2
ISO-25
 70
     0
  3

  4

  5

  6

  7

 40
1.0
 41
2.5
 42
0.625
 43
3.75
 44
1.25
 45
0.0
 46
0.0
 47
0.0
 48
0.0
140
2.5
141
2.5
142
0.0
143
0.03937007874016
144
1.0
145
0.0
146
1.0
147
0.625
 71
     0
 72
     0
 73
     0
 74
     0
 75
     0
 76
     0
 77
     1
 78
     8
170
     0
171
     3
172
     1
173
     0
174
     0
175
     0
176
     0
177
     0
178
     0
  0
ENDTAB
  0
ENDSEC
  0
SECTION
  2
BLOCKS
  0
BLOCK
  8
0
  2
$MODEL_SPACE
 70
     0
 10
0.0
 20
0.0
 30
0.0
  3
$MODEL_SPACE
  1

  0
ENDBLK
  5
16D93
  8
0
  0
BLOCK
 67
     1
  8
0
  2
$PAPER_SPACE
 70
     0
 10
0.0
 20
0.0
 30
0.0
  3
$PAPER_SPACE
  1

  0
ENDBLK
  5
16D8F
 67
     1
  8
0
  0
ENDSEC
  0
SECTION
  2
ENTITIES
  0
TEXT
  5
1562C
  8
0
 62
     3
 10
0.0
 20
0.0000000000000568
 30
0.0
 40
10.0
  1
IMR-TA-4
  7
STANDARD1
  0
LINE
  5
161C9
  8
0
 10
157.5
 20
109.5000000000000995
 30
0.0
 11
157.0
 21
110.0000000000000995
 31
0.0
  0
LINE
  5
161CA
  8
0
 10
93.0000000000000142
 20
110.0000000000000995
 30
0.0
 11
92.5000000000000284
 21
109.5000000000000995
 31
0.0
  0
LINE
  5
161CB
  8
0
 10
92.5000000000000284
 20
109.5000000000000995
 30
0.0
 11
92.5000000000000284
 21
102.5000000000000995
 31
0.0
  0
LINE
  5
161CC
  8
0
 10
157.5
 20
102.5000000000000995
 30
0.0
 11
157.5
 21
109.5000000000000995
 31
0.0
  0
LINE
  5
161CD
  8
0
 10
92.5000000000000284
 20
102.5000000000000995
 30
0.0
 11
93.5000000000000284
 21
101.5000000000000995
 31
0.0
  0
LINE
  5
161CE
  8
0
 10
156.5
 20
101.5000000000000995
 30
0.0
 11
157.5
 21
102.5000000000000995
 31
0.0
  0
LINE
  5
161CF
  8
0
 10
97.5000000000000711
 20
101.5000000000000995
 30
0.0
 11
99.0000000000000284
 21
100.0000000000000995
 31
0.0
  0
LINE
  5
161D0
  8
0
 10
151.0
 20
100.0000000000000995
 30
0.0
 11
152.5
 21
101.5000000000000995
 31
0.0
  0
LINE
  5
161D1
  8
0
 10
130.5000000000001137
 20
96.0000000000000284
 30
0.0
 11
130.5000000000001137
 21
100.0
 31
0.0
  0
LINE
  5
161D2
  8
0
 10
127.5000000000000995
 20
100.0
 30
0.0
 11
127.5000000000000995
 21
96.0000000000000284
 31
0.0
  0
LINE
  5
161D3
  8
0
 10
146.0
 20
110.000000000000199
 30
0.0
 11
146.0
 21
111.7999999999999972
 31
0.0
  0
LINE
  5
161D4
  8
0
 10
118.7500000000000995
 20
92.5000000000003695
 30
0.0
 11
118.7500000000000995
 21
100.0
 31
0.0
  0
LINE
  5
161D5
  8
0
 10
113.7500000000000995
 20
100.0
 30
0.0
 11
113.7500000000000995
 21
92.5000000000003695
 31
0.0
  0
LINE
  5
161D6
  8
0
 10
104.0
 20
111.8000000000001961
 30
0.0
 11
104.0
 21
110.0000000000000995
 31
0.0
  0
POLYLINE
  5
161D7
  8
0
 66
     1
 10
0.0
 20
0.0
 30
0.0
 70
   128
  0
VERTEX
  5
16E49
  8
0
 10
97.2481455491735858
 20
110.1000000000000938
 30
0.0
  0
VERTEX
  5
16E4A
  8
0
 10
97.0376696613727319
 20
110.0581337428812958
 30
0.0
  0
VERTEX
  5
16E4B
  8
0
 10
96.9319177831567202
 20
110.0000000000000995
 30
0.0
  0
SEQEND
  5
16E4C
  8
0
  0
POLYLINE
  5
161D8
  8
0
 66
     1
 10
0.0
 20
0.0
 30
0.0
 70
   128
  0
VERTEX
  5
16E4D
  8
0
 10
103.2643733151903973
 20
110.0000000000000995
 30
0.0
  0
VERTEX
  5
16E4E
  8
0
 10
103.1586214369743004
 20
110.0581337428812958
 30
0.0
  0
VERTEX
  5
16E4F
  8
0
 10
102.9481455491736028
 20
110.1000000000000938
 30
0.0
  0
SEQEND
  5
16E50
  8
0
  0
LINE
  5
161D9
  8
0
 10
144.999999999999801
 20
92.5000000000001421
 30
0.0
 11
144.999999999999801
 21
100.0000000000000995
 31
0.0
  0
LINE
  5
161DA
  8
0
 10
139.999999999999801
 20
100.0
 30
0.0
 11
139.999999999999801
 21
92.5000000000001421
 31
0.0
  0
POLYLINE
  5
161DB
  8
0
 66
     1
 10
0.0
 20
0.0
 30
0.0
 70
   128
  0
VERTEX
  5
16E51
  8
0
 10
103.6834201544675977
 20
110.0000000000000995
 30
0.0
  0
VERTEX
  5
16E52
  8
0
 10
103.5776682762516003
 20
110.0581337428812958
 30
0.0
  0
VERTEX
  5
16E53
  8
0
 10
103.3671923884508033
 20
110.1000000000000938
 30
0.0
  0
SEQEND
  5
16E54
  8
0
  0
LINE
  5
161DC
  8
0
 10
157.0
 20
110.0000000000000995
 30
0.0
 11
93.0000000000000142
 21
110.0000000000000995
 31
0.0
  0
LINE
  5
161DD
  8
0
 10
157.5
 20
109.5000000000000995
 30
0.0
 11
92.5000000000000284
 21
109.5000000000000995
 31
0.0
  0
LINE
  5
161DE
  8
0
 10
157.5
 20
102.5000000000000995
 30
0.0
 11
92.5000000000000284
 21
102.5000000000000995
 31
0.0
  0
LINE
  5
161DF
  8
0
 10
93.5000000000000284
 20
101.5000000000000995
 30
0.0
 11
156.5
 21
101.5000000000000995
 31
0.0
  0
LINE
  5
161E0
  8
0
 10
151.0
 20
100.0000000000000995
 30
0.0
 11
99.0000000000000284
 21
100.0000000000000995
 31
0.0
  0
LINE
  5
161E1
  8
0
 10
130.5000000000001137
 20
96.0000000000000284
 30
0.0
 11
127.5000000000000995
 21
96.0000000000000284
 31
0.0
  0
LINE
  5
161E2
  8
0
 10
120.5963094399167943
 20
111.7999999999999972
 30
0.0
 11
120.5963094399167943
 21
110.0000000000000995
 31
0.0
  0
LINE
  5
161E3
  8
0
 10
111.2157477029405044
 20
110.0000000000000995
 30
0.0
 11
111.2157477029405044
 21
111.7999999999999972
 31
0.0
  0
LINE
  5
161E4
  8
0
 10
146.0
 20
111.7999999999999972
 30
0.0
 11
104.0
 21
111.8000000000001961
 31
0.0
  0
LINE
  5
161E5
  8
0
 10
113.7500000000000995
 20
92.5000000000003695
 30
0.0
 11
118.7500000000000995
 21
92.5000000000003695
 31
0.0
  0
LINE
  5
161E8
  8
0
 10
139.999999999999801
 20
92.5000000000001421
 30
0.0
 11
144.999999999999801
 21
92.5000000000001421
 31
0.0
  0
LINE
  5
161EA
  8
2
 10
110.9500000000001023
 20
108.5000000000000995
 30
0.0
 11
121.5500000000001961
 21
108.5000000000000995
 31
0.0
  0
LINE
  5
161EB
  8
2
 10
111.2499999999888018
 20
108.2000000000412001
 30
0.0
 11
121.2500000000114966
 21
108.2000000000412001
 31
0.0
  0
LINE
  5
161EC
  8
2
 10
113.7499999999864002
 20
105.699999999986602
 30
0.0
 11
118.7500000000137987
 21
105.699999999986602
 31
0.0
  0
LINE
  5
161ED
  8
2
 10
128.5
 20
101.1000000000000938
 30
0.0
 11
121.5
 21
101.1000000000000938
 31
0.0
  0
LINE
  5
161EE
  8
2
 10
125.0000000000000995
 20
103.0000000000000995
 30
0.0
 11
123.750000000000199
 21
103.0000000000000995
 31
0.0
  0
LINE
  5
161EF
  8
2
 10
126.2500000000000995
 20
103.0000000000000995
 30
0.0
 11
125.0000000000000995
 21
103.0000000000000995
 31
0.0
  0
LINE
  5
161F0
  8
2
 10
96.5981455491735943
 20
109.0000000000000995
 30
0.0
 11
103.5981455491733954
 21
109.0000000000000995
 31
0.0
  0
LINE
  5
161F1
  8
2
 10
147.4828076115493047
 20
104.0000000000000995
 30
0.0
 11
151.4828076115493047
 21
104.0000000000000995
 31
0.0
  0
LINE
  5
161F2
  8
2
 10
97.9981455491735716
 20
107.0000000000000995
 30
0.0
 11
102.1981455491735034
 21
107.0000000000000995
 31
0.0
  0
LINE
  5
161F3
  8
2
 10
137.1999999999999886
 20
108.5000000000000995
 30
0.0
 11
147.8000000000000114
 21
108.5000000000000995
 31
0.0
  0
LINE
  5
161F4
  8
2
 10
137.5000000000410125
 20
108.1999999999275985
 30
0.0
 11
147.4999999999589875
 21
108.1999999999275985
 31
0.0
  0
LINE
  5
161F5
  8
2
 10
140.0000000000160014
 20
105.6999999999867015
 30
0.0
 11
144.999999999999801
 21
105.6999999999867015
 31
0.0
  0
LINE
  5
161F6
  8
2
 10
103.5981455491733954
 20
109.0000000000000995
 30
0.0
 11
104.0171923884508942
 21
109.0000000000000995
 31
0.0
  0
LINE
  5
161F7
  8
2
 10
102.1981455491735034
 20
107.0000000000000995
 30
0.0
 11
102.6171923884508033
 21
107.0000000000000995
 31
0.0
  0
LINE
  5
161F8
  8
0
 10
135.7500000000001137
 20
110.0000000000000995
 30
0.0
 11
135.7500000000001137
 21
102.5
 31
0.0
  0
LINE
  5
161F9
  8
0
 10
140.7500000000001137
 20
102.5
 30
0.0
 11
140.7500000000001137
 21
110.0000000000000995
 31
0.0
  0
LINE
  5
161FA
  8
2
 10
110.9500000000001023
 20
110.0000000000000995
 30
0.0
 11
110.9500000000001023
 21
108.5000000000000995
 31
0.0
  0
LINE
  5
161FB
  8
2
 10
121.5500000000001961
 20
108.5000000000000995
 30
0.0
 11
121.5500000000001961
 21
111.7999999999999972
 31
0.0
  0
LINE
  5
161FC
  8
2
 10
110.9500000000001023
 20
108.5000000000298996
 30
0.0
 11
113.7500000000000995
 21
105.7000000000303004
 31
0.0
  0
LINE
  5
161FD
  8
2
 10
118.7500000000000995
 20
105.7000000000303004
 30
0.0
 11
121.5500000000001961
 21
108.5000000000298996
 31
0.0
  0
LINE
  5
161FE
  8
2
 10
121.2500000000000995
 20
108.2000000000412001
 30
0.0
 11
121.2500000000000995
 21
108.5000000000002984
 31
0.0
  0
LINE
  5
161FF
  8
2
 10
111.25
 20
108.5000000000002984
 30
0.0
 11
111.25
 21
108.2000000000412001
 31
0.0
  0
LINE
  5
16200
  8
2
 10
113.500000000000199
 20
105.9500000000004007
 30
0.0
 11
113.500000000000199
 21
100.0000000000000995
 31
0.0
  0
LINE
  5
16201
  8
2
 10
119.0000000000000995
 20
100.0000000000000995
 30
0.0
 11
119.0000000000000995
 21
105.9500000000004007
 31
0.0
  0
LINE
  5
16202
  8
2
 10
118.7500000000000995
 20
100.0
 30
0.0
 11
118.7500000000000995
 21
105.7000000000303004
 31
0.0
  0
LINE
  5
16203
  8
2
 10
113.7500000000000995
 20
105.7000000000303004
 30
0.0
 11
113.7500000000000995
 21
100.0
 31
0.0
  0
LINE
  5
16204
  8
2
 10
128.5
 20
100.0000000000000995
 30
0.0
 11
128.5
 21
101.1000000000000938
 31
0.0
  0
LINE
  5
16205
  8
2
 10
121.5
 20
101.1000000000000938
 30
0.0
 11
121.5
 21
100.0000000000000995
 31
0.0
  0
ARC
  5
16206
  8
2
 10
122.1500000000001052
 20
100.5500000000000966
 30
0.0
 40
0.5499999999999972
 50
90.0
 51
270.0
  0
ARC
  5
16207
  8
2
 10
127.8500000000001933
 20
100.5500000000000966
 30
0.0
 40
0.5499999999999972
 50
270.0
 51
90.0
  0
ARC
  5
16208
  8
2
 10
122.750000000000199
 20
100.5500000000000966
 30
0.0
 40
0.5499999999999972
 50
270.0
 51
90.0
  0
ARC
  5
16209
  8
2
 10
127.2500000000000995
 20
100.5500000000000966
 30
0.0
 40
0.5499999999999972
 50
90.0
 51
270.0
  0
LINE
  5
1620A
  8
2
 10
126.2500000000000995
 20
101.1000000000000938
 30
0.0
 11
126.2500000000000995
 21
103.0000000000000995
 31
0.0
  0
LINE
  5
1620B
  8
2
 10
123.750000000000199
 20
103.0000000000000995
 30
0.0
 11
123.750000000000199
 21
101.1000000000000938
 31
0.0
  0
LINE
  5
1620C
  8
2
 10
96.5981455491735943
 20
110.0000000000000995
 30
0.0
 11
96.5981455491735943
 21
109.0000000000000995
 31
0.0
  0
LINE
  5
1620D
  8
2
 10
103.5981455491733954
 20
109.0000000000000995
 30
0.0
 11
103.5981455491733954
 21
110.0000000000000995
 31
0.0
  0
ARC
  5
1620E
  8
2
 10
97.2481455491735858
 20
109.5500000000000966
 30
0.0
 40
0.5499999999999972
 50
125.0968012275827022
 51
270.0
  0
ARC
  5
1620F
  8
2
 10
102.9481455491736028
 20
109.5500000000000966
 30
0.0
 40
0.5499999999999972
 50
270.0
 51
54.9031987724173192
  0
LINE
  5
16210
  8
2
 10
147.4828076115493047
 20
110.0000000000000995
 30
0.0
 11
147.4828076115493047
 21
104.0000000000000995
 31
0.0
  0
LINE
  5
16211
  8
2
 10
151.4828076115493047
 20
104.0000000000000995
 30
0.0
 11
151.4828076115493047
 21
110.0000000000000995
 31
0.0
  0
ARC
  5
16212
  8
2
 10
97.8481455491735943
 20
109.5500000000000966
 30
0.0
 40
0.5499999999999972
 50
270.0
 51
90.0
  0
ARC
  5
16213
  8
2
 10
102.3481455491734948
 20
109.5500000000000966
 30
0.0
 40
0.5499999999999972
 50
90.0
 51
270.0
  0
LINE
  5
16214
  8
2
 10
97.9981455491735716
 20
109.0000000000000995
 30
0.0
 11
97.9981455491735716
 21
107.0000000000000995
 31
0.0
  0
LINE
  5
16215
  8
2
 10
102.1981455491735034
 20
107.0000000000000995
 30
0.0
 11
102.1981455491735034
 21
109.0000000000000995
 31
0.0
  0
LINE
  5
16216
  8
2
 10
96.0000000000000284
 20
110.0000000000000995
 30
0.0
 11
96.0000000000000284
 21
102.5000000000000995
 31
0.0
  0
LINE
  5
16217
  8
2
 10
101.0
 20
102.5000000000000995
 30
0.0
 11
101.0
 21
110.0000000000000995
 31
0.0
  0
LINE
  5
16218
  8
2
 10
137.1999999999999886
 20
108.4999999999684945
 30
0.0
 11
139.999999999999801
 21
105.6999999999679005
 31
0.0
  0
LINE
  5
16219
  8
2
 10
144.999999999999801
 20
105.6999999999679005
 30
0.0
 11
147.8000000000000114
 21
108.4999999999684945
 31
0.0
  0
LINE
  5
1621A
  8
2
 10
137.1999999999999886
 20
111.7999999999999972
 30
0.0
 11
137.1999999999999886
 21
108.5000000000000995
 31
0.0
  0
LINE
  5
1621B
  8
2
 10
147.8000000000000114
 20
108.5000000000000995
 30
0.0
 11
147.8000000000000114
 21
110.0000000000000995
 31
0.0
  0
LINE
  5
1621C
  8
2
 10
147.5
 20
108.2000000000001023
 30
0.0
 11
147.5
 21
108.5000000000000995
 31
0.0
  0
LINE
  5
1621D
  8
2
 10
137.499999999999801
 20
108.5000000000000995
 30
0.0
 11
137.499999999999801
 21
108.2000000000001023
 31
0.0
  0
LINE
  5
1621E
  8
2
 10
139.749999999999801
 20
105.9500000000001023
 30
0.0
 11
139.749999999999801
 21
100.0000000000000995
 31
0.0
  0
LINE
  5
1621F
  8
2
 10
145.25
 20
100.0000000000000995
 30
0.0
 11
145.25
 21
105.9500000000001023
 31
0.0
  0
LINE
  5
16220
  8
2
 10
144.999999999999801
 20
100.0000000000000995
 30
0.0
 11
144.999999999999801
 21
105.6999999999867015
 31
0.0
  0
LINE
  5
16221
  8
2
 10
139.999999999999801
 20
105.6999999999679005
 30
0.0
 11
139.999999999999801
 21
100.0
 31
0.0
  0
LINE
  5
16222
  8
2
 10
97.0171923884509511
 20
110.0000000000000995
 30
0.0
 11
97.0171923884509511
 21
109.0000000000000995
 31
0.0
  0
LINE
  5
16223
  8
2
 10
104.0171923884508942
 20
109.0000000000000995
 30
0.0
 11
104.0171923884508942
 21
110.0000000000000995
 31
0.0
  0
ARC
  5
16224
  8
2
 10
97.6671923884508004
 20
109.5500000000000966
 30
0.0
 40
0.5499999999999972
 50
90.0
 51
270.0
  0
ARC
  5
16225
  8
2
 10
103.3671923884508033
 20
109.5500000000000966
 30
0.0
 40
0.5500000000000053
 50
270.0
 51
54.9031987724173192
  0
ARC
  5
16226
  8
2
 10
98.2671923884508374
 20
109.5500000000000966
 30
0.0
 40
0.5499999999999972
 50
270.0
 51
90.0
  0
ARC
  5
16227
  8
2
 10
102.7671923884507947
 20
109.5500000000000966
 30
0.0
 40
0.5499999999999972
 50
90.0
 51
270.0
  0
LINE
  5
16228
  8
2
 10
98.4171923884508004
 20
109.0000000000000995
 30
0.0
 11
98.4171923884508004
 21
107.0000000000000995
 31
0.0
  0
LINE
  5
16229
  8
2
 10
102.6171923884508033
 20
107.0000000000000995
 30
0.0
 11
102.6171923884508033
 21
109.0000000000000995
 31
0.0
  0
LINE
  5
1622A
  8
0
 10
17.5
 20
102.5000000000000995
 30
0.0
 11
18.5
 21
101.5000000000000995
 31
0.0
  0
LINE
  5
1622B
  8
0
 10
81.5
 20
101.4999999999999005
 30
0.0
 11
82.5
 21
102.4999999999999005
 31
0.0
  0
LINE
  5
1622C
  8
0
 10
17.5
 20
109.5000000000000995
 30
0.0
 11
17.5
 21
102.5000000000000995
 31
0.0
  0
LINE
  5
1622D
  8
0
 10
82.5000000000001137
 20
102.4999999999999005
 30
0.0
 11
82.5000000000001137
 21
109.4999999999999005
 31
0.0
  0
LINE
  5
1622E
  8
0
 10
82.5000000000001137
 20
109.4999999999999005
 30
0.0
 11
82.0
 21
109.9999999999999005
 31
0.0
  0
LINE
  5
1622F
  8
0
 10
18.0000000000001101
 20
110.0000000000000995
 30
0.0
 11
17.5
 21
109.5000000000000995
 31
0.0
  0
POLYLINE
  5
16230
  8
0
 66
     1
 10
0.0
 20
0.0
 30
0.0
 70
   128
  0
VERTEX
  5
16E55
  8
0
 10
56.2135337981304701
 20
110.0999999999999943
 30
0.0
  0
VERTEX
  5
16E56
  8
0
 10
56.0030579103296304
 20
110.0581337428811963
 30
0.0
  0
VERTEX
  5
16E57
  8
0
 10
55.8973060321136401
 20
110.0
 30
0.0
  0
SEQEND
  5
16E58
  8
0
  0
POLYLINE
  5
16231
  8
0
 66
     1
 10
0.0
 20
0.0
 30
0.0
 70
   128
  0
VERTEX
  5
16E59
  8
0
 10
62.2297615641473385
 20
110.0
 30
0.0
  0
VERTEX
  5
16E5A
  8
0
 10
62.1240096859313624
 20
110.0581337428811963
 30
0.0
  0
VERTEX
  5
16E5B
  8
0
 10
61.9135337981304019
 20
110.0999999999999943
 30
0.0
  0
SEQEND
  5
16E5C
  8
0
  0
POLYLINE
  5
16232
  8
0
 66
     1
 10
0.0
 20
0.0
 30
0.0
 70
   128
  0
VERTEX
  5
16E5D
  8
0
 10
37.0088890423253503
 20
110.0999999999999943
 30
0.0
  0
VERTEX
  5
16E5E
  8
0
 10
36.79841315452461
 20
110.0581337428811963
 30
0.0
  0
VERTEX
  5
16E5F
  8
0
 10
36.692661276308641
 20
110.0000000000000995
 30
0.0
  0
SEQEND
  5
16E60
  8
0
  0
POLYLINE
  5
16233
  8
0
 66
     1
 10
0.0
 20
0.0
 30
0.0
 70
   128
  0
VERTEX
  5
16E61
  8
0
 10
43.0251168083421973
 20
110.0000000000000995
 30
0.0
  0
VERTEX
  5
16E62
  8
0
 10
42.9193649301260933
 20
110.0581337428811963
 30
0.0
  0
VERTEX
  5
16E63
  8
0
 10
42.7088890423253673
 20
110.0999999999999943
 30
0.0
  0
SEQEND
  5
16E64
  8
0
  0
LINE
  5
16234
  8
0
 10
22.5
 20
101.5000000000000995
 30
0.0
 11
24.0
 21
100.0000000000000995
 31
0.0
  0
LINE
  5
16235
  8
0
 10
76.0
 20
100.0
 30
0.0
 11
77.5000000000001137
 21
101.4999999999999005
 31
0.0
  0
LINE
  5
16236
  8
0
 10
35.0000000000000995
 20
92.5000000000001563
 30
0.0
 11
35.0000000000000995
 21
100.0000000000000995
 31
0.0
  0
LINE
  5
16237
  8
0
 10
30.0000000000001101
 20
100.0000000000000995
 30
0.0
 11
30.0000000000001101
 21
92.5000000000001421
 31
0.0
  0
LINE
  5
16238
  8
0
 10
70.0000000000001137
 20
92.5000000000002842
 30
0.0
 11
70.0
 21
100.0
 31
0.0
  0
LINE
  5
16239
  8
0
 10
65.0
 20
100.0
 30
0.0
 11
65.0000000000001137
 21
92.5000000000002416
 31
0.0
  0
LINE
  5
1623A
  8
0
 10
29.0000000000001101
 20
111.7999999999999972
 30
0.0
 11
29.0000000000001101
 21
110.0000000000000995
 31
0.0
  0
LINE
  5
1623B
  8
0
 10
71.0
 20
110.0
 30
0.0
 11
71.0
 21
111.7999999999997982
 31
0.0
  0
LINE
  5
1623C
  8
0
 10
29.0
 20
96.0000000000001279
 30
0.0
 11
29.0
 21
100.0000000000000995
 31
0.0
  0
LINE
  5
1623D
  8
0
 10
26.0
 20
100.0000000000000995
 30
0.0
 11
26.0
 21
96.0000000000001563
 31
0.0
  0
LINE
  5
1623E
  8
0
 10
73.9999999999998721
 20
95.9999999999999716
 30
0.0
 11
74.0
 21
100.0
 31
0.0
  0
LINE
  5
1623F
  8
0
 10
71.0
 20
100.0
 30
0.0
 11
70.9999999999998863
 21
95.9999999999999716
 31
0.0
  0
LINE
  5
16240
  8
0
 10
43.7499999999998792
 20
92.5000000000000284
 30
0.0
 11
43.7499999999998792
 21
100.0
 31
0.0
  0
LINE
  5
16241
  8
0
 10
38.7499999999998934
 20
100.0000000000000995
 30
0.0
 11
38.7499999999998934
 21
92.5000000000000284
 31
0.0
  0
LINE
  5
16242
  8
0
 10
18.5
 20
101.5000000000000995
 30
0.0
 11
81.5000000000001137
 21
101.4999999999999005
 31
0.0
  0
LINE
  5
16243
  8
0
 10
82.5
 20
102.4999999999999005
 30
0.0
 11
17.5
 21
102.5000000000000995
 31
0.0
  0
LINE
  5
16244
  8
0
 10
82.5000000000001137
 20
109.4999999999999005
 30
0.0
 11
17.5
 21
109.5000000000000995
 31
0.0
  0
LINE
  5
16245
  8
0
 10
82.0
 20
109.9999999999999005
 30
0.0
 11
18.0000000000001101
 21
110.0000000000000995
 31
0.0
  0
LINE
  5
16248
  8
0
 10
76.0
 20
99.9999999999999858
 30
0.0
 11
24.0
 21
100.0000000000000995
 31
0.0
  0
LINE
  5
16249
  8
0
 10
65.8428024228988988
 20
110.0
 30
0.0
 11
65.8428024228988988
 21
111.7999999999999972
 31
0.0
  0
LINE
  5
1624A
  8
0
 10
34.1571975771014493
 20
111.7999999999999972
 30
0.0
 11
34.1571975771014493
 21
110.0
 31
0.0
  0
LINE
  5
1624B
  8
0
 10
65.8428024228988988
 20
111.7999999999999972
 30
0.0
 11
34.1571975771014493
 21
111.7999999999999972
 31
0.0
  0
LINE
  5
1624C
  8
0
 10
29.4669167086132084
 20
110.0
 30
0.0
 11
29.4669167086132084
 21
111.7999999999999972
 31
0.0
  0
LINE
  5
1624D
  8
0
 10
29.4669167086132084
 20
111.7999999999999972
 30
0.0
 11
34.1571975771014493
 21
111.7999999999999972
 31
0.0
  0
LINE
  5
1624E
  8
0
 10
70.5330832913870154
 20
111.7999999999999972
 30
0.0
 11
70.5330832913870154
 21
110.0
 31
0.0
  0
LINE
  5
1624F
  8
0
 10
65.8428024228988988
 20
111.7999999999999972
 30
0.0
 11
70.5330832913870154
 21
111.7999999999999972
 31
0.0
  0
LINE
  5
16250
  8
0
 10
30.0000000000001101
 20
92.5000000000001421
 30
0.0
 11
35.0000000000000995
 21
92.5000000000001563
 31
0.0
  0
LINE
  5
16251
  8
0
 10
65.0000000000001137
 20
92.5000000000002416
 30
0.0
 11
70.0000000000001137
 21
92.5000000000002842
 31
0.0
  0
LINE
  5
16252
  8
0
 10
29.4669167086132084
 20
111.7999999999999972
 30
0.0
 11
29.0000000000001101
 21
111.7999999999999972
 31
0.0
  0
LINE
  5
16253
  8
0
 10
71.0
 20
111.7999999999999972
 30
0.0
 11
70.5330832913870154
 21
111.7999999999999972
 31
0.0
  0
LINE
  5
16254
  8
0
 10
29.0
 20
96.0000000000001279
 30
0.0
 11
26.0
 21
96.0000000000001563
 31
0.0
  0
LINE
  5
16255
  8
0
 10
74.0
 20
95.9999999999999716
 30
0.0
 11
71.0
 21
95.9999999999999716
 31
0.0
  0
LINE
  5
16256
  8
0
 10
38.7499999999998934
 20
92.5000000000000284
 30
0.0
 11
43.7499999999998792
 21
92.5000000000000284
 31
0.0
  0
CIRCLE
  5
16257
  8
0
 10
100.0981455491735943
 20
165.9364662018697061
 30
0.0
 40
3.3999999999999759
  0
CIRCLE
  5
16258
  8
0
 10
100.5171923884507947
 20
185.1411109576748117
 30
0.0
 40
3.4000000000000039
  0
CIRCLE
  5
16259
  8
0
 10
100.0981455491735943
 20
165.9364662018697061
 30
0.0
 40
1.699999999999988
  0
CIRCLE
  5
1625A
  8
0
 10
100.5171923884507947
 20
185.1411109576748117
 30
0.0
 40
1.7000000000000171
  0
ARC
  5
1625B
  8
0
 10
125.0
 20
175.0000000000001137
 30
0.0
 40
21.0000000000000604
 50
257.8952542778991983
 51
12.1047457221060206
  0
ARC
  5
1625C
  8
0
 10
116.2500000000000995
 20
157.5000000000001137
 30
0.0
 40
5.3000000000000211
 50
325.0906387306803822
 51
161.7792589151652862
  0
ARC
  5
1625D
  8
0
 10
125.0
 20
175.0000000000001137
 30
0.0
 40
21.0000000000000391
 50
131.0253566320533878
 51
228.9746433679511028
  0
ARC
  5
1625E
  8
0
 10
125.0
 20
175.0000000000001137
 30
0.0
 40
20.9999999999999893
 50
41.0253566320500767
 51
102.104745722107495
  0
ARC
  5
1625F
  8
0
 10
142.499999999999801
 20
183.7500000000001137
 30
0.0
 40
5.3000000000000522
 50
108.220741084834998
 51
304.90936126932462
  0
ARC
  5
16260
  8
0
 10
116.2499999999999005
 20
192.5
 30
0.0
 40
5.3000000000000753
 50
198.2207410848374138
 51
34.9093612693195112
  0
CIRCLE
  5
16279
  8
0
 10
100.5171923884507947
 20
185.1411109576748117
 30
0.0
 40
3.5
  0
CIRCLE
  5
1627A
  8
0
 10
100.0981455491735943
 20
165.9364662018697061
 30
0.0
 40
3.5
  0
CIRCLE
  5
1627B
  8
0
 10
125.0
 20
175.0000000000001137
 30
0.0
 40
32.0
  0
CIRCLE
  5
1627C
  8
0
 10
149.4828076115493047
 20
164.8588890423253872
 30
0.0
 40
2.0
  0
CIRCLE
  5
16285
  8
3
 10
138.2500000000003126
 20
152.0503267997127921
 30
0.0
 40
2.5
  0
CIRCLE
  5
16286
  8
3
 10
98.5000000000000284
 20
174.999999999999801
 30
0.0
 40
2.5
  0
CIRCLE
  5
16287
  8
3
 10
138.2499999999996874
 20
197.9496732002878048
 30
0.0
 40
2.5
  0
ARC
  5
1628A
  8
0
 10
142.499999999999801
 20
183.7500000000001137
 30
0.0
 40
5.3000000000000291
 50
304.90936126932462
 51
108.220741084834998
  0
ARC
  5
1628B
  8
0
 10
116.2500000000000995
 20
157.5000000000001137
 30
0.0
 40
5.3000000000000211
 50
161.7792589151652862
 51
325.0906387306803822
  0
ARC
  5
1628C
  8
0
 10
116.2499999999999005
 20
192.5
 30
0.0
 40
5.3000000000000753
 50
34.9093612693195112
 51
198.2207410848374138
  0
CIRCLE
  5
16290
  8
0
 10
125.0
 20
175.0000000000001137
 30
0.0
 40
32.5
  0
CIRCLE
  5
16291
  8
0
 10
116.2500000000000995
 20
157.5000000000001137
 30
0.0
 40
5.0000000000000284
  0
LINE
  5
16292
  8
0
 10
115.3839745962155945
 20
159.0000000000001137
 30
0.0
 11
114.5179491924312032
 21
157.5000000000001137
 31
0.0
  0
LINE
  5
16293
  8
0
 10
115.3839745962155945
 20
156.0000000000001137
 30
0.0
 11
114.5179491924312032
 21
157.5000000000001137
 31
0.0
  0
LINE
  5
16294
  8
0
 10
115.3839745962155945
 20
156.0000000000001137
 30
0.0
 11
117.1160254037846045
 21
156.0000000000001137
 31
0.0
  0
LINE
  5
16295
  8
0
 10
117.9820508075689958
 20
157.5000000000001137
 30
0.0
 11
117.1160254037846045
 21
156.0000000000001137
 31
0.0
  0
LINE
  5
16296
  8
0
 10
117.1160254037847039
 20
158.9999999999996874
 30
0.0
 11
117.9820508075689958
 21
157.5000000000001137
 31
0.0
  0
LINE
  5
16297
  8
0
 10
117.1160254037846045
 20
159.0000000000001137
 30
0.0
 11
115.3839745962155945
 21
159.0000000000001137
 31
0.0
  0
CIRCLE
  5
16298
  8
0
 10
116.2499999999999005
 20
192.5
 30
0.0
 40
4.9999999999999698
  0
LINE
  5
16299
  8
0
 10
115.3839745962153955
 20
194.0
 30
0.0
 11
114.5179491924310042
 21
192.5
 31
0.0
  0
LINE
  5
1629A
  8
0
 10
115.3839745962153955
 20
191.0
 30
0.0
 11
114.5179491924310042
 21
192.5
 31
0.0
  0
LINE
  5
1629B
  8
0
 10
115.3839745962153955
 20
191.0
 30
0.0
 11
117.116025403784306
 21
191.0
 31
0.0
  0
LINE
  5
1629C
  8
0
 10
117.9820508075687968
 20
192.5
 30
0.0
 11
117.116025403784306
 21
191.0
 31
0.0
  0
LINE
  5
1629D
  8
0
 10
117.1160254037844055
 20
193.9999999999996874
 30
0.0
 11
117.9820508075687968
 21
192.5
 31
0.0
  0
LINE
  5
1629E
  8
0
 10
117.116025403784306
 20
194.0
 30
0.0
 11
115.3839745962153955
 21
194.0
 31
0.0
  0
CIRCLE
  5
1629F
  8
0
 10
142.499999999999801
 20
183.7500000000001137
 30
0.0
 40
4.9999999999999698
  0
LINE
  5
162A0
  8
0
 10
144.0454259195203122
 20
182.9679138619854939
 30
0.0
 11
143.9500194232284116
 21
184.6973350369642901
 31
0.0
  0
LINE
  5
162A1
  8
0
 10
142.4045935037082984
 20
185.4794211749791089
 30
0.0
 11
143.9500194232284116
 21
184.6973350369642901
 31
0.0
  0
LINE
  5
162A2
  8
0
 10
142.4045935037082984
 20
185.4794211749791089
 30
0.0
 11
140.9545740804796026
 21
184.5320861380149893
 31
0.0
  0
LINE
  5
162A3
  8
0
 10
141.0499805767713042
 20
182.8026649630361078
 30
0.0
 11
140.9545740804796026
 21
184.5320861380149893
 31
0.0
  0
LINE
  5
162A4
  8
0
 10
142.5954064962915879
 20
182.0205788250214027
 30
0.0
 11
144.0454259195203122
 21
182.9679138619854939
 31
0.0
  0
LINE
  5
162A5
  8
0
 10
142.595406496291389
 20
182.0205788250214027
 30
0.0
 11
141.0499805767713042
 21
182.8026649630361078
 31
0.0
  0
CIRCLE
  5
162A6
  8
0
 10
124.9999999999999005
 20
37.5000000000000284
 30
0.0
 40
3.3999999999999981
  0
CIRCLE
  5
162A7
  8
0
 10
125.0000000000000995
 20
62.5000000000000284
 30
0.0
 40
3.3999999999999981
  0
CIRCLE
  5
162A8
  8
0
 10
124.9999999999999005
 20
37.5000000000000284
 30
0.0
 40
1.6999999999999991
  0
CIRCLE
  5
162A9
  8
0
 10
125.0000000000000995
 20
62.5000000000000284
 30
0.0
 40
1.7000000000000091
  0
CIRCLE
  5
162AA
  8
0
 10
142.499999999999801
 20
41.2499999999999218
 30
0.0
 40
2.5
  0
CIRCLE
  5
162AB
  8
0
 10
116.2499999999999005
 20
32.5000000000000995
 30
0.0
 40
2.5
  0
CIRCLE
  5
162AC
  8
0
 10
116.2500000000000995
 20
67.5000000000001137
 30
0.0
 40
2.5000000000000071
  0
CIRCLE
  5
162AD
  8
0
 10
129.000000000000199
 20
72.5
 30
0.0
 40
1.5
  0
CIRCLE
  5
162AE
  8
0
 10
128.999999999999801
 20
27.5000000000000213
 30
0.0
 40
1.5
  0
CIRCLE
  5
162B7
  8
0
 10
142.499999999999801
 20
41.2499999999999218
 30
0.0
 40
2.7500000000000031
  0
CIRCLE
  5
162B8
  8
0
 10
116.2499999999999005
 20
32.5000000000000995
 30
0.0
 40
2.75
  0
CIRCLE
  5
162B9
  8
0
 10
116.2500000000000995
 20
67.5000000000001137
 30
0.0
 40
2.75
  0
CIRCLE
  5
162BA
  8
0
 10
125.0000000000000995
 20
62.5000000000000284
 30
0.0
 40
3.5000000000000071
  0
CIRCLE
  5
162BB
  8
0
 10
124.9999999999999005
 20
37.5000000000000284
 30
0.0
 40
3.5000000000000031
  0
CIRCLE
  5
162BC
  8
0
 10
125.0
 20
50.0000000000000284
 30
0.0
 40
26.0
  0
CIRCLE
  5
162BD
  8
0
 10
125.0
 20
50.0000000000000497
 30
0.0
 40
27.5
  0
CIRCLE
  5
162BE
  8
0
 10
124.9999999999999005
 20
37.5000000000000284
 30
0.0
 40
1.249999999999984
  0
CIRCLE
  5
162BF
  8
0
 10
125.0000000000000995
 20
62.5000000000000284
 30
0.0
 40
1.249999999999992
  0
CIRCLE
  5
162C0
  8
0
 10
125.0
 20
50.0000000000000497
 30
0.0
 40
31.5
  0
CIRCLE
  5
162C1
  8
0
 10
125.0
 20
50.0000000000000497
 30
0.0
 40
32.5
  0
LINE
  5
162C2
  8
1
 10
32.5000000000000995
 20
89.4329999999997227
 30
0.0
 11
32.5000000000000995
 21
111.1329999999996971
 31
0.0
  0
LINE
  5
162C3
  8
3
 10
34.567000000000462
 20
99.9329999999898746
 30
0.0
 11
34.567000000000462
 21
92.4999999999997584
 31
0.0
  0
LINE
  5
162C4
  8
3
 10
30.433000000000451
 20
99.9329999999898746
 30
0.0
 11
30.433000000000451
 21
92.5000000000000284
 31
0.0
  0
LINE
  5
162C5
  8
1
 10
41.2499999999998792
 20
89.432999999999609
 30
0.0
 11
41.2499999999998792
 21
111.1329999999995977
 31
0.0
  0
LINE
  5
162C6
  8
3
 10
43.3170000000002204
 20
99.9329999999897609
 30
0.0
 11
43.3170000000002204
 21
92.4999999999996732
 31
0.0
  0
LINE
  5
162C7
  8
3
 10
39.1830000000002272
 20
99.9329999999897609
 30
0.0
 11
39.1830000000002272
 21
92.4999999999999147
 31
0.0
  0
LINE
  5
162C8
  8
1
 10
67.5000000000001137
 20
89.4329999999998222
 30
0.0
 11
67.5000000000001137
 21
111.1329999999997966
 31
0.0
  0
LINE
  5
162C9
  8
3
 10
69.567000000000462
 20
99.9329999999899883
 30
0.0
 11
69.567000000000462
 21
92.4999999999998721
 31
0.0
  0
LINE
  5
162CA
  8
3
 10
65.4330000000004333
 20
99.9329999999899883
 30
0.0
 11
65.4330000000004333
 21
92.5000000000001563
 31
0.0
  0
LINE
  5
162CB
  8
1
 10
124.9999999999999005
 20
12.5000000000001492
 30
0.0
 11
125.0
 21
87.4999999999999147
 31
0.0
  0
LINE
  5
162CC
  8
1
 10
87.5000000000001847
 20
50.0000000000001492
 30
0.0
 11
162.499999999999801
 21
50.0000000000000284
 31
0.0
  0
CIRCLE
  5
162CE
  8
1
 10
125.0
 20
175.0000000000001137
 30
0.0
 40
26.5
  0
LINE
  5
162CF
  8
1
 10
125.0
 20
212.5
 30
0.0
 11
125.0
 21
137.500000000000199
 31
0.0
  0
LINE
  5
162D0
  8
1
 10
162.499999999999801
 20
175.0000000000001137
 30
0.0
 11
87.5000000000001847
 21
175.0000000000001137
 31
0.0
  0
LINE
  5
162D1
  8
1
 10
106.5224093497741933
 20
182.6536686473019131
 30
0.0
 11
94.5119754271277372
 21
187.6285532680479946
 31
0.0
  0
LINE
  5
162D2
  8
1
 10
106.2061475842819931
 20
168.1595971334866135
 30
0.0
 11
93.9901435140649539
 21
163.7133352702527134
 31
0.0
  0
LINE
  5
162D3
  8
1
 10
116.25
 20
165.8000000000000114
 30
0.0
 11
116.25
 21
149.2000000000001023
 31
0.0
  0
LINE
  5
162D4
  8
1
 10
107.9500000000000028
 20
157.5000000000001137
 30
0.0
 11
124.5499999999999972
 21
157.5000000000001137
 31
0.0
  0
LINE
  5
162D5
  8
1
 10
116.25
 20
200.8000000000000114
 30
0.0
 11
116.25
 21
184.1999999999999886
 31
0.0
  0
LINE
  5
162D6
  8
1
 10
107.9500000000001023
 20
192.5
 30
0.0
 11
124.5499999999999972
 21
192.5
 31
0.0
  0
LINE
  5
162D7
  8
1
 10
142.5
 20
192.0500000000000114
 30
0.0
 11
142.5
 21
175.4500000000001023
 31
0.0
  0
LINE
  5
162D8
  8
1
 10
134.2000000000001023
 20
183.75
 30
0.0
 11
150.8000000000000114
 21
183.75
 31
0.0
  0
LINE
  5
162D9
  8
1
 10
135.500000000017792
 20
193.1865334796615059
 30
0.0
 11
140.9999999998960902
 21
202.7128129211621967
 31
0.0
  0
LINE
  5
162DA
  8
1
 10
144.863409948992711
 20
166.7723062041505102
 30
0.0
 11
154.1022052741055006
 21
162.9454718804996105
 31
0.0
  0
LINE
  5
162DB
  8
1
 10
135.4999999999897966
 20
156.8134665206351031
 30
0.0
 11
141.000000000059714
 21
147.2871870789325044
 31
0.0
  0
LINE
  5
162DC
  8
1
 10
142.499999999999801
 20
35.7499999999999218
 30
0.0
 11
142.499999999999801
 21
46.7500000000001421
 31
0.0
  0
LINE
  5
162DD
  8
1
 10
148.000000000000199
 20
41.2500000000000213
 30
0.0
 11
136.999999999999801
 21
41.2500000000000213
 31
0.0
  0
LINE
  5
162DE
  8
1
 10
131.499999999999801
 20
37.5000000000001634
 30
0.0
 11
118.4999999999999005
 21
37.5000000000001634
 31
0.0
  0
LINE
  5
162DF
  8
1
 10
118.4999999999999005
 20
62.5000000000001492
 30
0.0
 11
131.5000000000001137
 21
62.5000000000001492
 31
0.0
  0
LINE
  5
162E0
  8
1
 10
121.750000000000199
 20
67.5000000000001421
 30
0.0
 11
110.7499999999999005
 21
67.5000000000001421
 31
0.0
  0
LINE
  5
162E1
  8
1
 10
116.25
 20
61.9999999999999218
 30
0.0
 11
116.25
 21
73.0000000000001421
 31
0.0
  0
LINE
  5
162E2
  8
1
 10
116.2499999999999005
 20
38.0000000000001634
 30
0.0
 11
116.2499999999999005
 21
27.0000000000001492
 31
0.0
  0
LINE
  5
162E3
  8
1
 10
121.7499999999999005
 20
32.5000000000001492
 30
0.0
 11
110.7499999999999005
 21
32.5000000000001492
 31
0.0
  0
LINE
  5
162E4
  8
1
 10
124.4999999999999005
 20
27.5000000000001492
 30
0.0
 11
133.499999999999801
 21
27.5000000000000284
 31
0.0
  0
CIRCLE
  5
162E5
  8
0
 10
98.5000000000000284
 20
175.0000000000001137
 30
0.0
 40
2.066999999999998
  0
LINE
  5
162E6
  8
1
 10
27.5
 20
93.0000000000001421
 30
0.0
 11
27.5
 21
110.0000000000002984
 31
0.0
  0
LINE
  5
162E7
  8
1
 10
72.5
 20
92.9999999999999716
 30
0.0
 11
72.5
 21
110.0000000000000995
 31
0.0
  0
CIRCLE
  5
162E8
  8
0
 10
138.249999999999801
 20
197.949673200486103
 30
0.0
 40
2.066999999999998
  0
CIRCLE
  5
162E9
  8
0
 10
138.2500000000495106
 20
152.0503267997409864
 30
0.0
 40
2.066999999999998
  0
CIRCLE
  5
162EA
  8
3
 10
142.5
 20
41.2500000000000213
 30
0.0
 40
2.066999999999998
  0
CIRCLE
  5
162EB
  8
3
 10
116.2499999999999005
 20
32.5000000000001492
 30
0.0
 40
2.066999999999998
  0
CIRCLE
  5
162EC
  8
3
 10
116.25
 20
67.5000000000000284
 30
0.0
 40
2.066999999999998
  0
LINE
  5
162ED
  8
1
 10
133.5000000000001137
 20
72.5000000000000284
 30
0.0
 11
124.4999999999999005
 21
72.5000000000001421
 31
0.0
  0
LINE
  5
162EE
  8
1
 10
129.000000000000199
 20
77.0
 30
0.0
 11
129.0
 21
67.9999999999997726
 31
0.0
  0
LINE
  5
162EF
  8
1
 10
128.999999999999801
 20
32.0000000000002132
 30
0.0
 11
128.999999999999801
 21
22.9999999999999787
 31
0.0
  0
LINE
  5
162F0
  8
1
 10
116.2500000000000995
 20
89.4329999999999359
 30
0.0
 11
116.2500000000000995
 21
111.1329999999997966
 31
0.0
  0
LINE
  5
162F1
  8
3
 10
118.3170000000005047
 20
99.9329999999900735
 30
0.0
 11
118.3170000000005047
 21
92.4999999999999858
 31
0.0
  0
LINE
  5
162F2
  8
3
 10
114.1830000000005043
 20
99.9329999999900735
 30
0.0
 11
114.1830000000005043
 21
92.5000000000002416
 31
0.0
  0
LINE
  5
162F3
  8
1
 10
142.499999999999801
 20
89.4329999999996943
 30
0.0
 11
142.499999999999801
 21
111.1329999999996971
 31
0.0
  0
LINE
  5
162F4
  8
3
 10
144.5670000000002915
 20
99.932999999989832
 30
0.0
 11
144.5670000000002915
 21
92.4999999999997442
 31
0.0
  0
LINE
  5
162F5
  8
3
 10
140.4330000000001917
 20
99.932999999989832
 30
0.0
 11
140.4330000000001917
 21
92.5000000000000284
 31
0.0
  0
LINE
  5
162F6
  8
1
 10
129.000000000000199
 20
93.0000000000000142
 30
0.0
 11
129.000000000000199
 21
110.000000000000199
 31
0.0
  0
LINE
  5
162F7
  8
1
 10
50.0
 20
116.7999999999998977
 30
0.0
 11
50.0
 21
94.9999999999999147
 31
0.0
  0
LINE
  5
162F8
  8
1
 10
125.0
 20
116.7999999999999972
 30
0.0
 11
125.0
 21
95.0
 31
0.0
  0
POLYLINE
  5
1630F
  8
0
 66
     1
 10
0.0
 20
0.0
 30
0.0
  0
VERTEX
  5
16E65
  8
0
 10
124.9999999999999005
 20
35.2500000000000426
 30
0.0
  0
VERTEX
  5
16E66
  8
0
 10
125.0558672053395952
 20
35.2506929333242596
 30
0.0
  0
VERTEX
  5
16E67
  8
0
 10
125.1115684021879986
 20
35.2527653630875903
 30
0.0
  0
VERTEX
  5
16E68
  8
0
 10
125.1670805219760041
 20
35.2562077339759199
 30
0.0
  0
VERTEX
  5
16E69
  8
0
 10
125.2223804961350027
 20
35.2610104906751687
 30
0.0
  0
VERTEX
  5
16E6A
  8
0
 10
125.2774452560960015
 20
35.2671640778712714
 30
0.0
  0
VERTEX
  5
16E6B
  8
0
 10
125.3322517332902066
 20
35.2746589402501272
 30
0.0
  0
VERTEX
  5
16E6C
  8
0
 10
125.3867768591485969
 20
35.283485522497692
 30
0.0
  0
VERTEX
  5
16E6D
  8
0
 10
125.4409975651028049
 20
35.2936342692998508
 30
0.0
  0
VERTEX
  5
16E6E
  8
0
 10
125.494890782583596
 20
35.3050956253425525
 30
0.0
  0
VERTEX
  5
16E6F
  8
0
 10
125.5484334430222049
 20
35.3178600353117105
 30
0.0
  0
VERTEX
  5
16E70
  8
0
 10
125.601602477849795
 20
35.331917943893238
 30
0.0
  0
VERTEX
  5
16E71
  8
0
 10
125.654374818497601
 20
35.3472597957730628
 30
0.0
  0
VERTEX
  5
16E72
  8
0
 10
125.7067273963967011
 20
35.3638760356370909
 30
0.0
  0
VERTEX
  5
16E73
  8
0
 10
125.7586371429783014
 20
35.3817571081712785
 30
0.0
  0
VERTEX
  5
16E74
  8
0
 10
125.8100809896733949
 20
35.4008934580615175
 30
0.0
  0
VERTEX
  5
16E75
  8
0
 10
125.8610358679134009
 20
35.4212755299937427
 30
0.0
  0
VERTEX
  5
16E76
  8
0
 10
125.9114787091291987
 20
35.4428937686538603
 30
0.0
  0
VERTEX
  5
16E77
  8
0
 10
125.9613864447524065
 20
35.4657386187278121
 30
0.0
  0
VERTEX
  5
16E78
  8
0
 10
126.0107360062137047
 20
35.4898005249014901
 30
0.0
  0
VERTEX
  5
16E79
  8
0
 10
126.0595043249443989
 20
35.5150699318608432
 30
0.0
  0
VERTEX
  5
16E7A
  8
0
 10
126.1076683323755958
 20
35.5415372842917776
 30
0.0
  0
VERTEX
  5
16E7B
  8
0
 10
126.1552049599387004
 20
35.5691930268802281
 30
0.0
  0
VERTEX
  5
16E7C
  8
0
 10
126.2020911390647058
 20
35.598027604312108
 30
0.0
  0
VERTEX
  5
16E7D
  8
0
 10
126.2483038011847043
 20
35.6280314612733306
 30
0.0
  0
VERTEX
  5
16E7E
  8
0
 10
126.2938198777299021
 20
35.6591950424498307
 30
0.0
  0
VERTEX
  5
16E7F
  8
0
 10
126.3386163001315055
 20
35.6915087925275216
 30
0.0
  0
VERTEX
  5
16E80
  8
0
 10
126.3826699998206067
 20
35.7249631561923309
 30
0.0
  0
VERTEX
  5
16E81
  8
0
 10
126.4259579082283977
 20
35.7595485781301576
 30
0.0
  0
VERTEX
  5
16E82
  8
0
 10
126.468456956786099
 20
35.7952555030269579
 30
0.0
  0
VERTEX
  5
16E83
  8
0
 10
126.5101440769247034
 20
35.8320743755686308
 30
0.0
  0
VERTEX
  5
16E84
  8
0
 10
126.5509962000756019
 20
35.8699956404411111
 30
0.0
  0
VERTEX
  5
16E85
  8
0
 10
126.5909902576696027
 20
35.9090097423302907
 30
0.0
  0
VERTEX
  5
16E86
  8
0
 10
126.6300043595587965
 20
35.9490037999244407
 30
0.0
  0
VERTEX
  5
16E87
  8
0
 10
126.6679256244313052
 20
35.989855923075261
 30
0.0
  0
VERTEX
  5
16E88
  8
0
 10
126.7047444969729071
 20
36.0315430432139223
 30
0.0
  0
VERTEX
  5
16E89
  8
0
 10
126.7404514218695937
 20
36.0740420917715809
 30
0.0
  0
VERTEX
  5
16E8A
  8
0
 10
126.7750368438074986
 20
36.1173300001793791
 30
0.0
  0
VERTEX
  5
16E8B
  8
0
 10
126.8084912074724002
 20
36.1613836998684874
 30
0.0
  0
VERTEX
  5
16E8C
  8
0
 10
126.8408049575500058
 20
36.2061801222700907
 30
0.0
  0
VERTEX
  5
16E8D
  8
0
 10
126.8719685387266054
 20
36.2516961988153028
 30
0.0
  0
VERTEX
  5
16E8E
  8
0
 10
126.9019723956878067
 20
36.2979088609352871
 30
0.0
  0
VERTEX
  5
16E8F
  8
0
 10
126.9308069731196014
 20
36.3447950400612498
 30
0.0
  0
VERTEX
  5
16E90
  8
0
 10
126.958462715707995
 20
36.3923316676242905
 30
0.0
  0
VERTEX
  5
16E91
  8
0
 10
126.9849300681389934
 20
36.4404956750556011
 30
0.0
  0
VERTEX
  5
16E92
  8
0
 10
127.0101994750984034
 20
36.4892639937863166
 30
0.0
  0
VERTEX
  5
16E93
  8
0
 10
127.0342613812721027
 20
36.5386135552476219
 30
0.0
  0
VERTEX
  5
16E94
  8
0
 10
127.0571062313459976
 20
36.5885212908706592
 30
0.0
  0
VERTEX
  5
16E95
  8
0
 10
127.0787244700061933
 20
36.638964132086592
 30
0.0
  0
VERTEX
  5
16E96
  8
0
 10
127.0991065419383972
 20
36.6899190103265695
 30
0.0
  0
VERTEX
  5
16E97
  8
0
 10
127.1182428918286007
 20
36.7413628570217483
 30
0.0
  0
VERTEX
  5
16E98
  8
0
 10
127.1361239643627954
 20
36.7932726036033131
 30
0.0
  0
VERTEX
  5
16E99
  8
0
 10
127.1527402042268022
 20
36.845625181502399
 30
0.0
  0
VERTEX
  5
16E9A
  8
0
 10
127.168082056106698
 20
36.8983975221501694
 30
0.0
  0
VERTEX
  5
16E9B
  8
0
 10
127.1821399646881048
 20
36.9515665569777809
 30
0.0
  0
VERTEX
  5
16E9C
  8
0
 10
127.1949043746572983
 20
37.0051092174163827
 30
0.0
  0
VERTEX
  5
16E9D
  8
0
 10
127.2063657307
 20
37.0590024348971525
 30
0.0
  0
VERTEX
  5
16E9E
  8
0
 10
127.2165144775022014
 20
37.1132231408512396
 30
0.0
  0
VERTEX
  5
16E9F
  8
0
 10
127.2253410597497947
 20
37.1677482667098005
 30
0.0
  0
VERTEX
  5
16EA0
  8
0
 10
127.2328359221287002
 20
37.2225547439039985
 30
0.0
  0
VERTEX
  5
16EA1
  8
0
 10
127.2389895093247958
 20
37.2776195038649831
 30
0.0
  0
VERTEX
  5
16EA2
  8
0
 10
127.2437922660240019
 20
37.3329194780239177
 30
0.0
  0
VERTEX
  5
16EA3
  8
0
 10
127.2472346369121965
 20
37.388431597811973
 30
0.0
  0
VERTEX
  5
16EA4
  8
0
 10
127.2493070666755983
 20
37.4441327946602911
 30
0.0
  0
VERTEX
  5
16EA5
  8
0
 10
127.25
 20
37.5000000000000071
 30
0.0
  0
VERTEX
  5
16EA6
  8
0
 10
127.2493070666757973
 20
37.5558672053397515
 30
0.0
  0
VERTEX
  5
16EA7
  8
0
 10
127.2472346369123954
 20
37.6115684021880625
 30
0.0
  0
VERTEX
  5
16EA8
  8
0
 10
127.2437922660241014
 20
37.6670805219760965
 30
0.0
  0
VERTEX
  5
16EA9
  8
0
 10
127.2389895093248953
 20
37.7223804961350382
 30
0.0
  0
VERTEX
  5
16EAA
  8
0
 10
127.2328359221287997
 20
37.7774452560960228
 30
0.0
  0
VERTEX
  5
16EAB
  8
0
 10
127.2253410597498942
 20
37.8322517332902279
 30
0.0
  0
VERTEX
  5
16EAC
  8
0
 10
127.2165144775023009
 20
37.8867768591487888
 30
0.0
  0
VERTEX
  5
16EAD
  8
0
 10
127.2063657307001989
 20
37.940997565102883
 30
0.0
  0
VERTEX
  5
16EAE
  8
0
 10
127.1949043746574972
 20
37.9948907825836386
 30
0.0
  0
VERTEX
  5
16EAF
  8
0
 10
127.1821399646883037
 20
38.0484334430222475
 30
0.0
  0
VERTEX
  5
16EB0
  8
0
 10
127.1680820561067975
 20
38.1016024778498519
 30
0.0
  0
VERTEX
  5
16EB1
  8
0
 10
127.1527402042269017
 20
38.1543748184976224
 30
0.0
  0
VERTEX
  5
16EB2
  8
0
 10
127.1361239643629943
 20
38.2067273963967224
 30
0.0
  0
VERTEX
  5
16EB3
  8
0
 10
127.1182428918287002
 20
38.2586371429782801
 30
0.0
  0
VERTEX
  5
16EB4
  8
0
 10
127.0991065419384967
 20
38.3100809896734589
 30
0.0
  0
VERTEX
  5
16EB5
  8
0
 10
127.078724470006307
 20
38.3610358679134364
 30
0.0
  0
VERTEX
  5
16EB6
  8
0
 10
127.0571062313461965
 20
38.4114787091293692
 30
0.0
  0
VERTEX
  5
16EB7
  8
0
 10
127.0342613812722021
 20
38.4613864447524065
 30
0.0
  0
VERTEX
  5
16EB8
  8
0
 10
127.0101994750985028
 20
38.5107360062137118
 30
0.0
  0
VERTEX
  5
16EB9
  8
0
 10
126.9849300681392066
 20
38.5595043249444416
 30
0.0
  0
VERTEX
  5
16EBA
  8
0
 10
126.958462715708194
 20
38.6076683323757521
 30
0.0
  0
VERTEX
  5
16EBB
  8
0
 10
126.9308069731198003
 20
38.6552049599387928
 30
0.0
  0
VERTEX
  5
16EBC
  8
0
 10
126.9019723956879062
 20
38.7020911390647413
 30
0.0
  0
VERTEX
  5
16EBD
  8
0
 10
126.8719685387266054
 20
38.7483038011847327
 30
0.0
  0
VERTEX
  5
16EBE
  8
0
 10
126.8408049575501053
 20
38.7938198777299519
 30
0.0
  0
VERTEX
  5
16EBF
  8
0
 10
126.8084912074724997
 20
38.838616300131541
 30
0.0
  0
VERTEX
  5
16EC0
  8
0
 10
126.7750368438076976
 20
38.8826699998206635
 30
0.0
  0
VERTEX
  5
16EC1
  8
0
 10
126.7404514218698068
 20
38.925957908228483
 30
0.0
  0
VERTEX
  5
16EC2
  8
0
 10
126.7047444969730066
 20
38.9684569567861203
 30
0.0
  0
VERTEX
  5
16EC3
  8
0
 10
126.6679256244314047
 20
39.0101440769247887
 30
0.0
  0
VERTEX
  5
16EC4
  8
0
 10
126.6300043595587965
 20
39.0509962000756019
 30
0.0
  0
VERTEX
  5
16EC5
  8
0
 10
126.5909902576697021
 20
39.0909902576697519
 30
0.0
  0
VERTEX
  5
16EC6
  8
0
 10
126.5509962000756019
 20
39.1300043595589173
 30
0.0
  0
VERTEX
  5
16EC7
  8
0
 10
126.5101440769247034
 20
39.1679256244314118
 30
0.0
  0
VERTEX
  5
16EC8
  8
0
 10
126.468456956786099
 20
39.2047444969730918
 30
0.0
  0
VERTEX
  5
16EC9
  8
0
 10
126.4259579082283977
 20
39.2404514218698921
 30
0.0
  0
VERTEX
  5
16ECA
  8
0
 10
126.3826699998206067
 20
39.2750368438077189
 30
0.0
  0
VERTEX
  5
16ECB
  8
0
 10
126.3386163001315055
 20
39.3084912074725281
 30
0.0
  0
VERTEX
  5
16ECC
  8
0
 10
126.2938198777299021
 20
39.3408049575502119
 30
0.0
  0
VERTEX
  5
16ECD
  8
0
 10
126.2483038011847043
 20
39.371968538726712
 30
0.0
  0
VERTEX
  5
16ECE
  8
0
 10
126.2020911390647058
 20
39.4019723956879417
 30
0.0
  0
VERTEX
  5
16ECF
  8
0
 10
126.1552049599387004
 20
39.4308069731198216
 30
0.0
  0
VERTEX
  5
16ED0
  8
0
 10
126.1076683323755958
 20
39.4584627157082721
 30
0.0
  0
VERTEX
  5
16ED1
  8
0
 10
126.0595043249443989
 20
39.4849300681392066
 30
0.0
  0
VERTEX
  5
16ED2
  8
0
 10
126.0107360062137047
 20
39.5101994750985668
 30
0.0
  0
VERTEX
  5
16ED3
  8
0
 10
125.9613864447524065
 20
39.5342613812722519
 30
0.0
  0
VERTEX
  5
16ED4
  8
0
 10
125.9114787091291987
 20
39.5571062313462107
 30
0.0
  0
VERTEX
  5
16ED5
  8
0
 10
125.8610358679134009
 20
39.5787244700063212
 30
0.0
  0
VERTEX
  5
16ED6
  8
0
 10
125.8100809896733949
 20
39.5991065419385322
 30
0.0
  0
VERTEX
  5
16ED7
  8
0
 10
125.758637142978202
 20
39.6182428918287712
 30
0.0
  0
VERTEX
  5
16ED8
  8
0
 10
125.7067273963967011
 20
39.6361239643629588
 30
0.0
  0
VERTEX
  5
16ED9
  8
0
 10
125.654374818497601
 20
39.6527402042270012
 30
0.0
  0
VERTEX
  5
16EDA
  8
0
 10
125.601602477849795
 20
39.6680820561068188
 30
0.0
  0
VERTEX
  5
16EDB
  8
0
 10
125.5484334430222049
 20
39.6821399646883535
 30
0.0
  0
VERTEX
  5
16EDC
  8
0
 10
125.494890782583596
 20
39.6949043746575114
 30
0.0
  0
VERTEX
  5
16EDD
  8
0
 10
125.4409975651028049
 20
39.7063657307002273
 30
0.0
  0
VERTEX
  5
16EDE
  8
0
 10
125.3867768591485969
 20
39.716514477502372
 30
0.0
  0
VERTEX
  5
16EDF
  8
0
 10
125.3322517332900929
 20
39.7253410597499368
 30
0.0
  0
VERTEX
  5
16EE0
  8
0
 10
125.277445256095902
 20
39.7328359221287997
 30
0.0
  0
VERTEX
  5
16EE1
  8
0
 10
125.2223804961349032
 20
39.7389895093249024
 30
0.0
  0
VERTEX
  5
16EE2
  8
0
 10
125.1670805219760041
 20
39.7437922660241512
 30
0.0
  0
VERTEX
  5
16EE3
  8
0
 10
125.1115684021879986
 20
39.7472346369124807
 30
0.0
  0
VERTEX
  5
16EE4
  8
0
 10
125.0558672053395952
 20
39.7493070666757973
 30
0.0
  0
VERTEX
  5
16EE5
  8
0
 10
124.9999999999999005
 20
39.7500000000000426
 30
0.0
  0
SEQEND
  5
16EE6
  8
0
  0
POLYLINE
  5
16310
  8
0
 66
     1
 10
0.0
 20
0.0
 30
0.0
  0
VERTEX
  5
16EE7
  8
0
 10
124.9999999999999005
 20
39.7500000000000426
 30
0.0
  0
VERTEX
  5
16EE8
  8
0
 10
124.9419642751612969
 20
39.74926453345482
 30
0.0
  0
VERTEX
  5
16EE9
  8
0
 10
124.8842884921075012
 20
39.7470699528756128
 30
0.0
  0
VERTEX
  5
16EEA
  8
0
 10
124.8269903794231936
 20
39.7434339868470374
 30
0.0
  0
VERTEX
  5
16EEB
  8
0
 10
124.7700876656930973
 20
39.7383743639538309
 30
0.0
  0
VERTEX
  5
16EEC
  8
0
 10
124.7135980795018071
 20
39.7319088127806026
 30
0.0
  0
VERTEX
  5
16EED
  8
0
 10
124.6575393494340034
 20
39.7240550619120327
 30
0.0
  0
VERTEX
  5
16EEE
  8
0
 10
124.6019292040743949
 20
39.7148308399327874
 30
0.0
  0
VERTEX
  5
16EEF
  8
0
 10
124.546785372007605
 20
39.7042538754275185
 30
0.0
  0
VERTEX
  5
16EF0
  8
0
 10
124.4921255818182999
 20
39.6923418969809205
 30
0.0
  0
VERTEX
  5
16EF1
  8
0
 10
124.437967562091103
 20
39.6791126331776027
 30
0.0
  0
VERTEX
  5
16EF2
  8
0
 10
124.3843290414106946
 20
39.6645838126022809
 30
0.0
  0
VERTEX
  5
16EF3
  8
0
 10
124.3312277483617976
 20
39.6487731638395928
 30
0.0
  0
VERTEX
  5
16EF4
  8
0
 10
124.278681411529206
 20
39.6316984154742116
 30
0.0
  0
VERTEX
  5
16EF5
  8
0
 10
124.2267077594972022
 20
39.6133772960908104
 30
0.0
  0
VERTEX
  5
16EF6
  8
0
 10
124.1753245208507934
 20
39.5938275342740127
 30
0.0
  0
VERTEX
  5
16EF7
  8
0
 10
124.1245494241744041
 20
39.5730668586085272
 30
0.0
  0
VERTEX
  5
16EF8
  8
0
 10
124.0744001980528992
 20
39.551112997679013
 30
0.0
  0
VERTEX
  5
16EF9
  8
0
 10
124.0248945710709023
 20
39.5279836800700934
 30
0.0
  0
VERTEX
  5
16EFA
  8
0
 10
123.9760502718128947
 20
39.5036966343664915
 30
0.0
  0
VERTEX
  5
16EFB
  8
0
 10
123.9278850288637983
 20
39.4782695891528235
 30
0.0
  0
VERTEX
  5
16EFC
  8
0
 10
123.8804165708080944
 20
39.4517202730137697
 30
0.0
  0
VERTEX
  5
16EFD
  8
0
 10
123.833662626230506
 20
39.4240664145340105
 30
0.0
  0
VERTEX
  5
16EFE
  8
0
 10
123.7876409237156992
 20
39.3953257422981835
 30
0.0
  0
VERTEX
  5
16EFF
  8
0
 10
123.7423691918483968
 20
39.3655159848909619
 30
0.0
  0
VERTEX
  5
16F00
  8
0
 10
123.6978651592130944
 20
39.3346548708970118
 30
0.0
  0
VERTEX
  5
16F01
  8
0
 10
123.6541465543946998
 20
39.3027601289009922
 30
0.0
  0
VERTEX
  5
16F02
  8
0
 10
123.6112311059775948
 20
39.2698494874875621
 30
0.0
  0
VERTEX
  5
16F03
  8
0
 10
123.5691365425467012
 20
39.2359406752414088
 30
0.0
  0
VERTEX
  5
16F04
  8
0
 10
123.5278805926865999
 20
39.2010514207471772
 30
0.0
  0
VERTEX
  5
16F05
  8
0
 10
123.4874809849818007
 20
39.1651994525895333
 30
0.0
  0
VERTEX
  5
16F06
  8
0
 10
123.447955448017197
 20
39.1284024993531432
 30
0.0
  0
VERTEX
  5
16F07
  8
0
 10
123.4093217103771991
 20
39.0906782896226801
 30
0.0
  0
VERTEX
  5
16F08
  8
0
 10
123.3715975006468
 20
39.0520445519827817
 30
0.0
  0
VERTEX
  5
16F09
  8
0
 10
123.3348005474103957
 20
39.0125190150181425
 30
0.0
  0
VERTEX
  5
16F0A
  8
0
 10
123.2989485792527944
 20
38.9721194073134001
 30
0.0
  0
VERTEX
  5
16F0B
  8
0
 10
123.2640593247585059
 20
38.9308634574532206
 30
0.0
  0
VERTEX
  5
16F0C
  8
0
 10
123.2301505125123953
 20
38.8887688940222986
 30
0.0
  0
VERTEX
  5
16F0D
  8
0
 10
123.1972398710990007
 20
38.8458534456052718
 30
0.0
  0
VERTEX
  5
16F0E
  8
0
 10
123.1653451291029029
 20
38.802134840786799
 30
0.0
  0
VERTEX
  5
16F0F
  8
0
 10
123.1344840151089954
 20
38.7576308081515606
 30
0.0
  0
VERTEX
  5
16F10
  8
0
 10
123.1046742577018023
 20
38.7123590762842227
 30
0.0
  0
VERTEX
  5
16F11
  8
0
 10
123.0759335854660037
 20
38.6663373737694229
 30
0.0
  0
VERTEX
  5
16F12
  8
0
 10
123.0482797269861948
 20
38.6195834291918487
 30
0.0
  0
VERTEX
  5
16F13
  8
0
 10
123.0217304108470984
 20
38.5721149711361591
 30
0.0
  0
VERTEX
  5
16F14
  8
0
 10
122.9963033656333948
 20
38.52394972818702
 30
0.0
  0
VERTEX
  5
16F15
  8
0
 10
122.9720163199299066
 20
38.4751054289290906
 30
0.0
  0
VERTEX
  5
16F16
  8
0
 10
122.9488870023210012
 20
38.4255998019470226
 30
0.0
  0
VERTEX
  5
16F17
  8
0
 10
122.9269331413914017
 20
38.3754505758255107
 30
0.0
  0
VERTEX
  5
16F18
  8
0
 10
122.906172465725902
 20
38.3246754791491924
 30
0.0
  0
VERTEX
  5
16F19
  8
0
 10
122.8866227039090973
 20
38.2732922405027409
 30
0.0
  0
VERTEX
  5
16F1A
  8
0
 10
122.8683015845255966
 20
38.2213185884708224
 30
0.0
  0
VERTEX
  5
16F1B
  8
0
 10
122.851226836160393
 20
38.1687722516380816
 30
0.0
  0
VERTEX
  5
16F1C
  8
0
 10
122.8354161873976977
 20
38.1156709585892131
 30
0.0
  0
VERTEX
  5
16F1D
  8
0
 10
122.8208873668223049
 20
38.0620324379088615
 30
0.0
  0
VERTEX
  5
16F1E
  8
0
 10
122.8076581030189942
 20
38.007874418181693
 30
0.0
  0
VERTEX
  5
16F1F
  8
0
 10
122.7957461245724033
 20
37.9532146279923808
 30
0.0
  0
VERTEX
  5
16F20
  8
0
 10
122.7851691600671984
 20
37.8980707959255767
 30
0.0
  0
VERTEX
  5
16F21
  8
0
 10
122.7759449380879033
 20
37.8424606505659469
 30
0.0
  0
VERTEX
  5
16F22
  8
0
 10
122.7680911872192979
 20
37.7864019204981716
 30
0.0
  0
VERTEX
  5
16F23
  8
0
 10
122.7616256360461051
 20
37.7299123343068814
 30
0.0
  0
VERTEX
  5
16F24
  8
0
 10
122.7565660131529057
 20
37.6730096205767708
 30
0.0
  0
VERTEX
  5
16F25
  8
0
 10
122.7529300471242948
 20
37.6157115078924775
 30
0.0
  0
VERTEX
  5
16F26
  8
0
 10
122.7507354665450947
 20
37.5580357248387102
 30
0.0
  0
VERTEX
  5
16F27
  8
0
 10
122.75
 20
37.5000000000000568
 30
0.0
  0
VERTEX
  5
16F28
  8
0
 10
122.7507354665450947
 20
37.4419642751614319
 30
0.0
  0
VERTEX
  5
16F29
  8
0
 10
122.7529300471242948
 20
37.3842884921076504
 30
0.0
  0
VERTEX
  5
16F2A
  8
0
 10
122.7565660131529057
 20
37.3269903794233713
 30
0.0
  0
VERTEX
  5
16F2B
  8
0
 10
122.7616256360461051
 20
37.2700876656932465
 30
0.0
  0
VERTEX
  5
16F2C
  8
0
 10
122.7680911872192979
 20
37.2135980795019705
 30
0.0
  0
VERTEX
  5
16F2D
  8
0
 10
122.7759449380879033
 20
37.157539349434181
 30
0.0
  0
VERTEX
  5
16F2E
  8
0
 10
122.7851691600671984
 20
37.1019292040745512
 30
0.0
  0
VERTEX
  5
16F2F
  8
0
 10
122.7957461245724033
 20
37.0467853720077471
 30
0.0
  0
VERTEX
  5
16F30
  8
0
 10
122.8076581030189942
 20
36.9921255818184278
 30
0.0
  0
VERTEX
  5
16F31
  8
0
 10
122.8208873668223049
 20
36.9379675620912806
 30
0.0
  0
VERTEX
  5
16F32
  8
0
 10
122.8354161873976977
 20
36.8843290414109077
 30
0.0
  0
VERTEX
  5
16F33
  8
0
 10
122.851226836160393
 20
36.8312277483620392
 30
0.0
  0
VERTEX
  5
16F34
  8
0
 10
122.8683015845255966
 20
36.7786814115293126
 30
0.0
  0
VERTEX
  5
16F35
  8
0
 10
122.8866227039090973
 20
36.726707759497387
 30
0.0
  0
VERTEX
  5
16F36
  8
0
 10
122.906172465725902
 20
36.6753245208509426
 30
0.0
  0
VERTEX
  5
16F37
  8
0
 10
122.9269331413914017
 20
36.6245494241746172
 30
0.0
  0
VERTEX
  5
16F38
  8
0
 10
122.9488870023210012
 20
36.5744001980530911
 30
0.0
  0
VERTEX
  5
16F39
  8
0
 10
122.9720163199299066
 20
36.5248945710710373
 30
0.0
  0
VERTEX
  5
16F3A
  8
0
 10
122.9963033656333948
 20
36.4760502718131221
 30
0.0
  0
VERTEX
  5
16F3B
  8
0
 10
123.0217304108470984
 20
36.4278850288639617
 30
0.0
  0
VERTEX
  5
16F3C
  8
0
 10
123.0482797269861948
 20
36.3804165708082721
 30
0.0
  0
VERTEX
  5
16F3D
  8
0
 10
123.0759335854660037
 20
36.3336626262306979
 30
0.0
  0
VERTEX
  5
16F3E
  8
0
 10
123.1046742577018023
 20
36.2876409237159194
 30
0.0
  0
VERTEX
  5
16F3F
  8
0
 10
123.1344840151089954
 20
36.2423691918485602
 30
0.0
  0
VERTEX
  5
16F40
  8
0
 10
123.1653451291029029
 20
36.1978651592133218
 30
0.0
  0
VERTEX
  5
16F41
  8
0
 10
123.1972398710990007
 20
36.154146554394849
 30
0.0
  0
VERTEX
  5
16F42
  8
0
 10
123.2301505125123953
 20
36.1112311059778293
 30
0.0
  0
VERTEX
  5
16F43
  8
0
 10
123.2640593247585059
 20
36.0691365425468931
 30
0.0
  0
VERTEX
  5
16F44
  8
0
 10
123.2989485792527944
 20
36.0278805926867207
 30
0.0
  0
VERTEX
  5
16F45
  8
0
 10
123.3348005474103957
 20
35.9874809849819783
 30
0.0
  0
VERTEX
  5
16F46
  8
0
 10
123.3715975006468
 20
35.947955448017332
 30
0.0
  0
VERTEX
  5
16F47
  8
0
 10
123.4093217103771991
 20
35.9093217103774407
 30
0.0
  0
VERTEX
  5
16F48
  8
0
 10
123.447955448017197
 20
35.8715975006469705
 30
0.0
  0
VERTEX
  5
16F49
  8
0
 10
123.4874809849818007
 20
35.8348005474105804
 30
0.0
  0
VERTEX
  5
16F4A
  8
0
 10
123.5278805926865999
 20
35.7989485792529365
 30
0.0
  0
VERTEX
  5
16F4B
  8
0
 10
123.5691365425467012
 20
35.7640593247586978
 30
0.0
  0
VERTEX
  5
16F4C
  8
0
 10
123.6112311059775948
 20
35.7301505125125516
 30
0.0
  0
VERTEX
  5
16F4D
  8
0
 10
123.6541465543946998
 20
35.6972398710991214
 30
0.0
  0
VERTEX
  5
16F4E
  8
0
 10
123.6978651592130944
 20
35.6653451291031018
 30
0.0
  0
VERTEX
  5
16F4F
  8
0
 10
123.7423691918483968
 20
35.6344840151091518
 30
0.0
  0
VERTEX
  5
16F50
  8
0
 10
123.7876409237156992
 20
35.6046742577019231
 30
0.0
  0
VERTEX
  5
16F51
  8
0
 10
123.833662626230506
 20
35.5759335854661032
 30
0.0
  0
VERTEX
  5
16F52
  8
0
 10
123.8804165708080944
 20
35.5482797269863298
 30
0.0
  0
VERTEX
  5
16F53
  8
0
 10
123.9278850288637983
 20
35.5217304108472831
 30
0.0
  0
VERTEX
  5
16F54
  8
0
 10
123.9760502718128947
 20
35.4963033656336293
 30
0.0
  0
VERTEX
  5
16F55
  8
0
 10
124.0248945710709023
 20
35.4720163199299989
 30
0.0
  0
VERTEX
  5
16F56
  8
0
 10
124.0744001980528992
 20
35.4488870023210865
 30
0.0
  0
VERTEX
  5
16F57
  8
0
 10
124.1245494241744041
 20
35.4269331413915722
 30
0.0
  0
VERTEX
  5
16F58
  8
0
 10
124.1753245208507934
 20
35.4061724657260797
 30
0.0
  0
VERTEX
  5
16F59
  8
0
 10
124.2267077594972022
 20
35.3866227039093033
 30
0.0
  0
VERTEX
  5
16F5A
  8
0
 10
124.278681411529206
 20
35.3683015845258879
 30
0.0
  0
VERTEX
  5
16F5B
  8
0
 10
124.3312277483617976
 20
35.3512268361605067
 30
0.0
  0
VERTEX
  5
16F5C
  8
0
 10
124.3843290414106946
 20
35.3354161873978185
 30
0.0
  0
VERTEX
  5
16F5D
  8
0
 10
124.437967562091103
 20
35.3208873668224896
 30
0.0
  0
VERTEX
  5
16F5E
  8
0
 10
124.4921255818182999
 20
35.3076581030191932
 30
0.0
  0
VERTEX
  5
16F5F
  8
0
 10
124.546785372007605
 20
35.295746124572581
 30
0.0
  0
VERTEX
  5
16F60
  8
0
 10
124.6019292040743949
 20
35.2851691600673192
 30
0.0
  0
VERTEX
  5
16F61
  8
0
 10
124.6575393494340034
 20
35.2759449380880596
 30
0.0
  0
VERTEX
  5
16F62
  8
0
 10
124.7135980795018071
 20
35.2680911872194827
 30
0.0
  0
VERTEX
  5
16F63
  8
0
 10
124.7700876656930973
 20
35.2616256360462472
 30
0.0
  0
VERTEX
  5
16F64
  8
0
 10
124.8269903794231936
 20
35.2565660131530265
 30
0.0
  0
VERTEX
  5
16F65
  8
0
 10
124.8842884921075012
 20
35.2529300471244795
 30
0.0
  0
VERTEX
  5
16F66
  8
0
 10
124.9419642751612969
 20
35.2507354665452723
 30
0.0
  0
VERTEX
  5
16F67
  8
0
 10
125.0
 20
35.2500000000000426
 30
0.0
  0
SEQEND
  5
16F68
  8
0
  0
POLYLINE
  5
16311
  8
0
 66
     1
 10
0.0
 20
0.0
 30
0.0
  0
VERTEX
  5
16F69
  8
0
 10
124.9999999999999005
 20
40.3500000000000298
 30
0.0
  0
VERTEX
  5
16F6A
  8
0
 10
125.0707651267636038
 20
40.3491222844560085
 30
0.0
  0
VERTEX
  5
16F6B
  8
0
 10
125.1413199761047963
 20
40.3464972067557994
 30
0.0
  0
VERTEX
  5
16F6C
  8
0
 10
125.211635327836305
 20
40.3421368702972387
 30
0.0
  0
VERTEX
  5
16F6D
  8
0
 10
125.2816819617709996
 20
40.336053378478212
 30
0.0
  0
VERTEX
  5
16F6E
  8
0
 10
125.3514306577215933
 20
40.3282588346964701
 30
0.0
  0
VERTEX
  5
16F6F
  8
0
 10
125.420852195500899
 20
40.3187653423499128
 30
0.0
  0
VERTEX
  5
16F70
  8
0
 10
125.4899173549217011
 20
40.3075850048363407
 30
0.0
  0
VERTEX
  5
16F71
  8
0
 10
125.5585969157968975
 20
40.2947299255535896
 30
0.0
  0
VERTEX
  5
16F72
  8
0
 10
125.6268616579392017
 20
40.2802122078995097
 30
0.0
  0
VERTEX
  5
16F73
  8
0
 10
125.6946823611614974
 20
40.2640439552719016
 30
0.0
  0
VERTEX
  5
16F74
  8
0
 10
125.762029805276498
 20
40.2462372710686367
 30
0.0
  0
VERTEX
  5
16F75
  8
0
 10
125.8288747700969026
 20
40.2268042586875225
 30
0.0
  0
VERTEX
  5
16F76
  8
0
 10
125.8951880354357939
 20
40.2057570215264022
 30
0.0
  0
VERTEX
  5
16F77
  8
0
 10
125.9609403811058002
 20
40.1831076629831188
 30
0.0
  0
VERTEX
  5
16F78
  8
0
 10
126.0261025869197056
 20
40.1588682864554727
 30
0.0
  0
VERTEX
  5
16F79
  8
0
 10
126.0906454326902946
 20
40.1330509953413426
 30
0.0
  0
VERTEX
  5
16F7A
  8
0
 10
126.1545396982303942
 20
40.1056678930385218
 30
0.0
  0
VERTEX
  5
16F7B
  8
0
 10
126.2177561633530019
 20
40.0767310829448391
 30
0.0
  0
VERTEX
  5
16F7C
  8
0
 10
126.2802656078706036
 20
40.0462526684581803
 30
0.0
  0
VERTEX
  5
16F7D
  8
0
 10
126.3420388115962965
 20
40.0142447529763317
 30
0.0
  0
VERTEX
  5
16F7E
  8
0
 10
126.4030465543425947
 20
39.9807194398971433
 30
0.0
  0
VERTEX
  5
16F7F
  8
0
 10
126.463259615922496
 20
39.9456888326184512
 30
0.0
  0
VERTEX
  5
16F80
  8
0
 10
126.5226487761486993
 20
39.9091650345380629
 30
0.0
  0
VERTEX
  5
16F81
  8
0
 10
126.5811848148340033
 20
39.8711601490538428
 30
0.0
  0
VERTEX
  5
16F82
  8
0
 10
126.6388385117912065
 20
39.8316862795636126
 30
0.0
  0
VERTEX
  5
16F83
  8
0
 10
126.6955806468332071
 20
39.7907555294652013
 30
0.0
  0
VERTEX
  5
16F84
  8
0
 10
126.7513819997728035
 20
39.7483800021564377
 30
0.0
  0
VERTEX
  5
16F85
  8
0
 10
126.8062133504226949
 20
39.7045718010351933
 30
0.0
  0
VERTEX
  5
16F86
  8
0
 10
126.8600454785956941
 20
39.6593430294992402
 30
0.0
  0
VERTEX
  5
16F87
  8
0
 10
126.9128491641046992
 20
39.6127057909464568
 30
0.0
  0
VERTEX
  5
16F88
  8
0
 10
126.964595186762395
 20
39.564672188774658
 30
0.0
  0
VERTEX
  5
16F89
  8
0
 10
127.0152543263815943
 20
39.5152543263816867
 30
0.0
  0
VERTEX
  5
16F8A
  8
0
 10
127.0646721887744945
 20
39.4645951867624376
 30
0.0
  0
VERTEX
  5
16F8B
  8
0
 10
127.1127057909464071
 20
39.4128491641047276
 30
0.0
  0
VERTEX
  5
16F8C
  8
0
 10
127.1593430294991975
 20
39.3600454785957723
 30
0.0
  0
VERTEX
  5
16F8D
  8
0
 10
127.204571801035101
 20
39.3062133504227305
 30
0.0
  0
VERTEX
  5
16F8E
  8
0
 10
127.2483800021563951
 20
39.2513819997728532
 30
0.0
  0
VERTEX
  5
16F8F
  8
0
 10
127.2907555294652013
 20
39.1955806468332923
 30
0.0
  0
VERTEX
  5
16F90
  8
0
 10
127.3316862795635984
 20
39.1388385117912918
 30
0.0
  0
VERTEX
  5
16F91
  8
0
 10
127.371160149053793
 20
39.0811848148340104
 30
0.0
  0
VERTEX
  5
16F92
  8
0
 10
127.409165034538006
 20
39.022648776148678
 30
0.0
  0
VERTEX
  5
16F93
  8
0
 10
127.4456888326184014
 20
38.9632596159224818
 30
0.0
  0
VERTEX
  5
16F94
  8
0
 10
127.4807194398971006
 20
38.9030465543426232
 30
0.0
  0
VERTEX
  5
16F95
  8
0
 10
127.5142447529762961
 20
38.8420388115962965
 30
0.0
  0
VERTEX
  5
16F96
  8
0
 10
127.5462526684581945
 20
38.7802656078707102
 30
0.0
  0
VERTEX
  5
16F97
  8
0
 10
127.5767310829448036
 20
38.71775616335308
 30
0.0
  0
VERTEX
  5
16F98
  8
0
 10
127.6056678930385004
 20
38.6545396982305505
 30
0.0
  0
VERTEX
  5
16F99
  8
0
 10
127.633050995341307
 20
38.5906454326903727
 30
0.0
  0
VERTEX
  5
16F9A
  8
0
 10
127.6588682864554016
 20
38.5261025869197269
 30
0.0
  0
VERTEX
  5
16F9B
  8
0
 10
127.6831076629831045
 20
38.4609403811058215
 30
0.0
  0
VERTEX
  5
16F9C
  8
0
 10
127.7057570215263951
 20
38.3951880354358508
 30
0.0
  0
VERTEX
  5
16F9D
  8
0
 10
127.7268042586873946
 20
38.3288747700970092
 30
0.0
  0
VERTEX
  5
16F9E
  8
0
 10
127.7462372710685941
 20
38.2620298052764909
 30
0.0
  0
VERTEX
  5
16F9F
  8
0
 10
127.7640439552718021
 20
38.1946823611615329
 30
0.0
  0
VERTEX
  5
16FA0
  8
0
 10
127.7802122078994955
 20
38.1268616579392869
 30
0.0
  0
VERTEX
  5
16FA1
  8
0
 10
127.7947299255533977
 20
38.0585969157969828
 30
0.0
  0
VERTEX
  5
16FA2
  8
0
 10
127.8075850048361986
 20
37.9899173549218006
 30
0.0
  0
VERTEX
  5
16FA3
  8
0
 10
127.8187653423499057
 20
37.920852195500963
 30
0.0
  0
VERTEX
  5
16FA4
  8
0
 10
127.828258834696399
 20
37.8514306577216431
 30
0.0
  0
VERTEX
  5
16FA5
  8
0
 10
127.8360533784779989
 20
37.7816819617710635
 30
0.0
  0
VERTEX
  5
16FA6
  8
0
 10
127.8421368702971961
 20
37.7116353278364116
 30
0.0
  0
VERTEX
  5
16FA7
  8
0
 10
127.8464972067557994
 20
37.6413199761048816
 30
0.0
  0
VERTEX
  5
16FA8
  8
0
 10
127.8491222844559019
 20
37.5707651267636891
 30
0.0
  0
VERTEX
  5
16FA9
  8
0
 10
127.8499999999997954
 20
37.5000000000000213
 30
0.0
  0
VERTEX
  5
16FAA
  8
0
 10
127.8491222844559019
 20
37.4292348732363465
 30
0.0
  0
VERTEX
  5
16FAB
  8
0
 10
127.8464972067556999
 20
37.3586800238951611
 30
0.0
  0
VERTEX
  5
16FAC
  8
0
 10
127.8421368702970966
 20
37.288364672163631
 30
0.0
  0
VERTEX
  5
16FAD
  8
0
 10
127.8360533784779989
 20
37.2183180382289791
 30
0.0
  0
VERTEX
  5
16FAE
  8
0
 10
127.828258834696399
 20
37.1485693422783925
 30
0.0
  0
VERTEX
  5
16FAF
  8
0
 10
127.8187653423499057
 20
37.0791478044990797
 30
0.0
  0
VERTEX
  5
16FB0
  8
0
 10
127.8075850048361986
 20
37.0100826450782279
 30
0.0
  0
VERTEX
  5
16FB1
  8
0
 10
127.7947299255533977
 20
36.9414030842030598
 30
0.0
  0
VERTEX
  5
16FB2
  8
0
 10
127.7802122078994955
 20
36.8731383420607415
 30
0.0
  0
VERTEX
  5
16FB3
  8
0
 10
127.7640439552718021
 20
36.8053176388385097
 30
0.0
  0
VERTEX
  5
16FB4
  8
0
 10
127.7462372710685941
 20
36.7379701947235304
 30
0.0
  0
VERTEX
  5
16FB5
  8
0
 10
127.7268042586873946
 20
36.6711252299030335
 30
0.0
  0
VERTEX
  5
16FB6
  8
0
 10
127.7057570215263951
 20
36.6048119645641918
 30
0.0
  0
VERTEX
  5
16FB7
  8
0
 10
127.6831076629830051
 20
36.5390596188942069
 30
0.0
  0
VERTEX
  5
16FB8
  8
0
 10
127.6588682864554016
 20
36.4738974130803228
 30
0.0
  0
VERTEX
  5
16FB9
  8
0
 10
127.6330509953411934
 20
36.4093545673096699
 30
0.0
  0
VERTEX
  5
16FBA
  8
0
 10
127.605667893038401
 20
36.3454603017694922
 30
0.0
  0
VERTEX
  5
16FBB
  8
0
 10
127.5767310829448036
 20
36.2822438366469697
 30
0.0
  0
VERTEX
  5
16FBC
  8
0
 10
127.5462526684580951
 20
36.2197343921293324
 30
0.0
  0
VERTEX
  5
16FBD
  8
0
 10
127.5142447529761967
 20
36.1579611884037391
 30
0.0
  0
VERTEX
  5
16FBE
  8
0
 10
127.4807194398971006
 20
36.0969534456574195
 30
0.0
  0
VERTEX
  5
16FBF
  8
0
 10
127.4456888326183019
 20
36.0367403840775609
 30
0.0
  0
VERTEX
  5
16FC0
  8
0
 10
127.409165034538006
 20
35.9773512238513717
 30
0.0
  0
VERTEX
  5
16FC1
  8
0
 10
127.3711601490535941
 20
35.9188151851660322
 30
0.0
  0
VERTEX
  5
16FC2
  8
0
 10
127.3316862795634989
 20
35.8611614882087721
 30
0.0
  0
VERTEX
  5
16FC3
  8
0
 10
127.2907555294651019
 20
35.8044193531667503
 30
0.0
  0
VERTEX
  5
16FC4
  8
0
 10
127.2483800021562956
 20
35.7486180002271965
 30
0.0
  0
VERTEX
  5
16FC5
  8
0
 10
127.204571801035101
 20
35.6937866495773122
 30
0.0
  0
VERTEX
  5
16FC6
  8
0
 10
127.1593430294990981
 20
35.6399545214042774
 30
0.0
  0
VERTEX
  5
16FC7
  8
0
 10
127.1127057909462934
 20
35.5871508358953221
 30
0.0
  0
VERTEX
  5
16FC8
  8
0
 10
127.0646721887744945
 20
35.5354048132376121
 30
0.0
  0
VERTEX
  5
16FC9
  8
0
 10
127.0152543263815943
 20
35.4847456736183631
 30
0.0
  0
VERTEX
  5
16FCA
  8
0
 10
126.964595186762196
 20
35.4353278112253776
 30
0.0
  0
VERTEX
  5
16FCB
  8
0
 10
126.9128491641046992
 20
35.3872942090535929
 30
0.0
  0
VERTEX
  5
16FCC
  8
0
 10
126.8600454785956941
 20
35.3406569705008025
 30
0.0
  0
VERTEX
  5
16FCD
  8
0
 10
126.8062133504225955
 20
35.2954281989648635
 30
0.0
  0
VERTEX
  5
16FCE
  8
0
 10
126.7513819997728035
 20
35.2516199978435978
 30
0.0
  0
VERTEX
  5
16FCF
  8
0
 10
126.6955806468332071
 20
35.2092444705348413
 30
0.0
  0
VERTEX
  5
16FD0
  8
0
 10
126.6388385117911071
 20
35.1683137204364513
 30
0.0
  0
VERTEX
  5
16FD1
  8
0
 10
126.5811848148339038
 20
35.128839850946207
 30
0.0
  0
VERTEX
  5
16FD2
  8
0
 10
126.5226487761485998
 20
35.0908349654619869
 30
0.0
  0
VERTEX
  5
16FD3
  8
0
 10
126.463259615922297
 20
35.0543111673816128
 30
0.0
  0
VERTEX
  5
16FD4
  8
0
 10
126.4030465543424953
 20
35.0192805601029065
 30
0.0
  0
VERTEX
  5
16FD5
  8
0
 10
126.342038811596197
 20
34.9857552470237181
 30
0.0
  0
VERTEX
  5
16FD6
  8
0
 10
126.2802656078706036
 20
34.9537473315418694
 30
0.0
  0
VERTEX
  5
16FD7
  8
0
 10
126.2177561633530019
 20
34.9232689170552035
 30
0.0
  0
VERTEX
  5
16FD8
  8
0
 10
126.1545396982303942
 20
34.8943321069615422
 30
0.0
  0
VERTEX
  5
16FD9
  8
0
 10
126.0906454326902946
 20
34.8669490046587214
 30
0.0
  0
VERTEX
  5
16FDA
  8
0
 10
126.0261025869196061
 20
34.8411317135445699
 30
0.0
  0
VERTEX
  5
16FDB
  8
0
 10
125.9609403811057007
 20
34.816892337016931
 30
0.0
  0
VERTEX
  5
16FDC
  8
0
 10
125.8951880354356945
 20
34.7942429784736404
 30
0.0
  0
VERTEX
  5
16FDD
  8
0
 10
125.8288747700969026
 20
34.7731957413125272
 30
0.0
  0
VERTEX
  5
16FDE
  8
0
 10
125.7620298052763985
 20
34.7537627289314202
 30
0.0
  0
VERTEX
  5
16FDF
  8
0
 10
125.6946823611613979
 20
34.7359560447281481
 30
0.0
  0
VERTEX
  5
16FE0
  8
0
 10
125.6268616579392017
 20
34.7197877921005613
 30
0.0
  0
VERTEX
  5
16FE1
  8
0
 10
125.5585969157968975
 20
34.7052700744464673
 30
0.0
  0
VERTEX
  5
16FE2
  8
0
 10
125.4899173549217011
 20
34.6924149951637233
 30
0.0
  0
VERTEX
  5
16FE3
  8
0
 10
125.420852195500899
 20
34.6812346576501511
 30
0.0
  0
VERTEX
  5
16FE4
  8
0
 10
125.3514306577215933
 20
34.6717411653035867
 30
0.0
  0
VERTEX
  5
16FE5
  8
0
 10
125.2816819617709996
 20
34.6639466215218732
 30
0.0
  0
VERTEX
  5
16FE6
  8
0
 10
125.211635327836305
 20
34.6578631297028181
 30
0.0
  0
VERTEX
  5
16FE7
  8
0
 10
125.1413199761047963
 20
34.6535027932442787
 30
0.0
  0
VERTEX
  5
16FE8
  8
0
 10
125.0707651267636038
 20
34.6508777155440697
 30
0.0
  0
VERTEX
  5
16FE9
  8
0
 10
124.9999999999999005
 20
34.6500000000000412
 30
0.0
  0
SEQEND
  5
16FEA
  8
0
  0
POLYLINE
  5
16312
  8
0
 66
     1
 10
0.0
 20
0.0
 30
0.0
  0
VERTEX
  5
16FEB
  8
0
 10
124.9999999999999005
 20
34.6500000000000412
 30
0.0
  0
VERTEX
  5
16FEC
  8
0
 10
124.9264880818709003
 20
34.6509315909573203
 30
0.0
  0
VERTEX
  5
16FED
  8
0
 10
124.8534320900027978
 20
34.6537113930243166
 30
0.0
  0
VERTEX
  5
16FEE
  8
0
 10
124.7808544806025992
 20
34.6583169499938322
 30
0.0
  0
VERTEX
  5
16FEF
  8
0
 10
124.7087777098778929
 20
34.664725805658577
 30
0.0
  0
VERTEX
  5
16FF0
  8
0
 10
124.6372242340355996
 20
34.6729155038113319
 30
0.0
  0
VERTEX
  5
16FF1
  8
0
 10
124.5662165092830946
 20
34.6828635882448566
 30
0.0
  0
VERTEX
  5
16FF2
  8
0
 10
124.4957769918274977
 20
34.6945476027519106
 30
0.0
  0
VERTEX
  5
16FF3
  8
0
 10
124.4259281378761983
 20
34.7079450911252465
 30
0.0
  0
VERTEX
  5
16FF4
  8
0
 10
124.3566924036365009
 20
34.7230335971576309
 30
0.0
  0
VERTEX
  5
16FF5
  8
0
 10
124.2880922453153971
 20
34.7397906646418022
 30
0.0
  0
VERTEX
  5
16FF6
  8
0
 10
124.220150119120305
 20
34.7581938373705626
 30
0.0
  0
VERTEX
  5
16FF7
  8
0
 10
124.152888481258401
 20
34.7782206591366219
 30
0.0
  0
VERTEX
  5
16FF8
  8
0
 10
124.0863297879369043
 20
34.7998486737327895
 30
0.0
  0
VERTEX
  5
16FF9
  8
0
 10
124.0204964953631048
 20
34.8230554249517681
 30
0.0
  0
VERTEX
  5
16FFA
  8
0
 10
123.9554110597443071
 20
34.8478184565863529
 30
0.0
  0
VERTEX
  5
16FFB
  8
0
 10
123.8910959372876022
 20
34.8741153124293035
 30
0.0
  0
VERTEX
  5
16FFC
  8
0
 10
123.827573584200394
 20
34.9019235362733795
 30
0.0
  0
VERTEX
  5
16FFD
  8
0
 10
123.764866456689802
 20
34.9312206719113121
 30
0.0
  0
VERTEX
  5
16FFE
  8
0
 10
123.7029970109631023
 20
34.9619842631359035
 30
0.0
  0
VERTEX
  5
16FFF
  8
0
 10
123.6419877032274002
 20
34.9941918537398706
 30
0.0
  0
VERTEX
  5
17000
  8
0
 10
123.5818609896901989
 20
35.0278209875160016
 30
0.0
  0
VERTEX
  5
17001
  8
0
 10
123.5226393265587035
 20
35.0628492082570418
 30
0.0
  0
VERTEX
  5
17002
  8
0
 10
123.4643451700399055
 20
35.0992540597557721
 30
0.0
  0
VERTEX
  5
17003
  8
0
 10
123.4070009763411946
 20
35.1370130858049095
 30
0.0
  0
VERTEX
  5
17004
  8
0
 10
123.350629201670003
 20
35.1761038301972491
 30
0.0
  0
VERTEX
  5
17005
  8
0
 10
123.295252302233294
 20
35.2165038367255434
 30
0.0
  0
VERTEX
  5
17006
  8
0
 10
123.2408927342383009
 20
35.2581906491825379
 30
0.0
  0
VERTEX
  5
17007
  8
0
 10
123.1875729538924986
 20
35.3011418113609992
 30
0.0
  0
VERTEX
  5
17008
  8
0
 10
123.1353154174030067
 20
35.3453348670536869
 30
0.0
  0
VERTEX
  5
17009
  8
0
 10
123.0841425809769021
 20
35.390747360053382
 30
0.0
  0
VERTEX
  5
1700A
  8
0
 10
123.0340769008217023
 20
35.4373568341528085
 30
0.0
  0
VERTEX
  5
1700B
  8
0
 10
122.9851408331443992
 20
35.4851408331447402
 30
0.0
  0
VERTEX
  5
1700C
  8
0
 10
122.9373568341525953
 20
35.5340769008219368
 30
0.0
  0
VERTEX
  5
1700D
  8
0
 10
122.8907473600531972
 20
35.5841425809771579
 30
0.0
  0
VERTEX
  5
1700E
  8
0
 10
122.845334867053495
 20
35.635315417403163
 30
0.0
  0
VERTEX
  5
1700F
  8
0
 10
122.8011418113607931
 20
35.6875729538927118
 30
0.0
  0
VERTEX
  5
17010
  8
0
 10
122.7581906491821968
 20
35.7408927342385496
 30
0.0
  0
VERTEX
  5
17011
  8
0
 10
122.7165038367251952
 20
35.7952523022334574
 30
0.0
  0
VERTEX
  5
17012
  8
0
 10
122.6761038301969933
 20
35.8506292016701806
 30
0.0
  0
VERTEX
  5
17013
  8
0
 10
122.6370130858046963
 20
35.9070009763415001
 30
0.0
  0
VERTEX
  5
17014
  8
0
 10
122.5992540597555944
 20
35.9643451700401329
 30
0.0
  0
VERTEX
  5
17015
  8
0
 10
122.5628492082567931
 20
36.0226393265588598
 30
0.0
  0
VERTEX
  5
17016
  8
0
 10
122.5278209875157955
 20
36.0818609896904618
 30
0.0
  0
VERTEX
  5
17017
  8
0
 10
122.4941918537395935
 20
36.1419877032276702
 30
0.0
  0
VERTEX
  5
17018
  8
0
 10
122.4619842631357045
 20
36.2029970109632515
 30
0.0
  0
VERTEX
  5
17019
  8
0
 10
122.431220671911106
 20
36.2648664566899726
 30
0.0
  0
VERTEX
  5
1701A
  8
0
 10
122.4019235362732019
 20
36.3275735842005716
 30
0.0
  0
VERTEX
  5
1701B
  8
0
 10
122.374115312428998
 20
36.3910959372878366
 30
0.0
  0
VERTEX
  5
1701C
  8
0
 10
122.3478184565861966
 20
36.4554110597445202
 30
0.0
  0
VERTEX
  5
1701D
  8
0
 10
122.3230554249516047
 20
36.5204964953633606
 30
0.0
  0
VERTEX
  5
1701E
  8
0
 10
122.2998486737325976
 20
36.5863297879371103
 30
0.0
  0
VERTEX
  5
1701F
  8
0
 10
122.2782206591363945
 20
36.6528884812585574
 30
0.0
  0
VERTEX
  5
17020
  8
0
 10
122.2581938373702997
 20
36.7201501191204827
 30
0.0
  0
VERTEX
  5
17021
  8
0
 10
122.2397906646416033
 20
36.7880922453156032
 30
0.0
  0
VERTEX
  5
17022
  8
0
 10
122.2230335971573965
 20
36.8566924036366714
 30
0.0
  0
VERTEX
  5
17023
  8
0
 10
122.2079450911249978
 20
36.9259281378764825
 30
0.0
  0
VERTEX
  5
17024
  8
0
 10
122.1945476027516975
 20
36.9957769918277535
 30
0.0
  0
VERTEX
  5
17025
  8
0
 10
122.1828635882447003
 20
37.0662165092832794
 30
0.0
  0
VERTEX
  5
17026
  8
0
 10
122.172915503810998
 20
37.1372242340358127
 30
0.0
  0
VERTEX
  5
17027
  8
0
 10
122.1647258056584064
 20
37.2087777098780919
 30
0.0
  0
VERTEX
  5
17028
  8
0
 10
122.1583169499936048
 20
37.2808544806029118
 30
0.0
  0
VERTEX
  5
17029
  8
0
 10
122.1537113930240963
 20
37.3534320900029968
 30
0.0
  0
VERTEX
  5
1702A
  8
0
 10
122.1509315909571001
 20
37.4264880818711418
 30
0.0
  0
VERTEX
  5
1702B
  8
0
 10
122.1499999999999062
 20
37.5000000000000568
 30
0.0
  0
VERTEX
  5
1702C
  8
0
 10
122.1509315909571995
 20
37.5735119181290003
 30
0.0
  0
VERTEX
  5
1702D
  8
0
 10
122.1537113930241958
 20
37.6465679099971169
 30
0.0
  0
VERTEX
  5
1702E
  8
0
 10
122.1583169499937043
 20
37.7191455193972232
 30
0.0
  0
VERTEX
  5
1702F
  8
0
 10
122.1647258056585059
 20
37.7912222901220218
 30
0.0
  0
VERTEX
  5
17030
  8
0
 10
122.1729155038112964
 20
37.8627757659643223
 30
0.0
  0
VERTEX
  5
17031
  8
0
 10
122.1828635882447998
 20
37.9337834907168485
 30
0.0
  0
VERTEX
  5
17032
  8
0
 10
122.1945476027518964
 20
38.0042230081723815
 30
0.0
  0
VERTEX
  5
17033
  8
0
 10
122.2079450911251968
 20
38.0740718621236809
 30
0.0
  0
VERTEX
  5
17034
  8
0
 10
122.2230335971574959
 20
38.1433075963634707
 30
0.0
  0
VERTEX
  5
17035
  8
0
 10
122.2397906646417027
 20
38.2119077546845389
 30
0.0
  0
VERTEX
  5
17036
  8
0
 10
122.2581938373703991
 20
38.2798498808796523
 30
0.0
  0
VERTEX
  5
17037
  8
0
 10
122.2782206591363945
 20
38.3471115187415634
 30
0.0
  0
VERTEX
  5
17038
  8
0
 10
122.2998486737325976
 20
38.4136702120630105
 30
0.0
  0
VERTEX
  5
17039
  8
0
 10
122.3230554249517041
 20
38.4795035046367886
 30
0.0
  0
VERTEX
  5
1703A
  8
0
 10
122.3478184565861966
 20
38.5445889402556219
 30
0.0
  0
VERTEX
  5
1703B
  8
0
 10
122.3741153124291969
 20
38.6089040627122912
 30
0.0
  0
VERTEX
  5
1703C
  8
0
 10
122.4019235362733014
 20
38.6724264157995421
 30
0.0
  0
VERTEX
  5
1703D
  8
0
 10
122.4312206719112055
 20
38.7351335433101625
 30
0.0
  0
VERTEX
  5
1703E
  8
0
 10
122.461984263135804
 20
38.7970029890368835
 30
0.0
  0
VERTEX
  5
1703F
  8
0
 10
122.494191853739693
 20
38.8580122967724577
 30
0.0
  0
VERTEX
  5
17040
  8
0
 10
122.5278209875157955
 20
38.9181390103096803
 30
0.0
  0
VERTEX
  5
17041
  8
0
 10
122.5628492082569068
 20
38.9773606734412468
 30
0.0
  0
VERTEX
  5
17042
  8
0
 10
122.5992540597556939
 20
39.0356548299600021
 30
0.0
  0
VERTEX
  5
17043
  8
0
 10
122.6370130858047958
 20
39.092999023658642
 30
0.0
  0
VERTEX
  5
17044
  8
0
 10
122.6761038301972064
 20
39.1493707983299402
 30
0.0
  0
VERTEX
  5
17045
  8
0
 10
122.7165038367253942
 20
39.2047476977666634
 30
0.0
  0
VERTEX
  5
17046
  8
0
 10
122.7581906491823958
 20
39.2591072657615712
 30
0.0
  0
VERTEX
  5
17047
  8
0
 10
122.8011418113609068
 20
39.312427046107409
 30
0.0
  0
VERTEX
  5
17048
  8
0
 10
122.8453348670535945
 20
39.3646845825969578
 30
0.0
  0
VERTEX
  5
17049
  8
0
 10
122.8907473600531972
 20
39.4158574190229629
 30
0.0
  0
VERTEX
  5
1704A
  8
0
 10
122.9373568341526948
 20
39.4659230991781769
 30
0.0
  0
VERTEX
  5
1704B
  8
0
 10
122.9851408331445981
 20
39.5148591668553806
 30
0.0
  0
VERTEX
  5
1704C
  8
0
 10
123.0340769008218018
 20
39.5626431658473123
 30
0.0
  0
VERTEX
  5
1704D
  8
0
 10
123.084142580977101
 20
39.6092526399467317
 30
0.0
  0
VERTEX
  5
1704E
  8
0
 10
123.1353154174031062
 20
39.6546651329464126
 30
0.0
  0
VERTEX
  5
1704F
  8
0
 10
123.1875729538925981
 20
39.6988581886391074
 30
0.0
  0
VERTEX
  5
17050
  8
0
 10
123.2408927342384004
 20
39.74180935081759
 30
0.0
  0
VERTEX
  5
17051
  8
0
 10
123.2952523022333935
 20
39.7834961632745632
 30
0.0
  0
VERTEX
  5
17052
  8
0
 10
123.3506292016701025
 20
39.8238961698028575
 30
0.0
  0
VERTEX
  5
17053
  8
0
 10
123.4070009763413935
 20
39.8629869141951971
 30
0.0
  0
VERTEX
  5
17054
  8
0
 10
123.4643451700401044
 20
39.9007459402443487
 30
0.0
  0
VERTEX
  5
17055
  8
0
 10
123.522639326558803
 20
39.9371507917430719
 30
0.0
  0
VERTEX
  5
17056
  8
0
 10
123.5818609896901989
 20
39.9721790124841121
 30
0.0
  0
VERTEX
  5
17057
  8
0
 10
123.6419877032275991
 20
40.0058081462602217
 30
0.0
  0
VERTEX
  5
17058
  8
0
 10
123.7029970109632018
 20
40.0380157368642031
 30
0.0
  0
VERTEX
  5
17059
  8
0
 10
123.7648664566899015
 20
40.0687793280887874
 30
0.0
  0
VERTEX
  5
1705A
  8
0
 10
123.8275735842004934
 20
40.0980764637267271
 30
0.0
  0
VERTEX
  5
1705B
  8
0
 10
123.8910959372878011
 20
40.1258846875707889
 30
0.0
  0
VERTEX
  5
1705C
  8
0
 10
123.9554110597444065
 20
40.1521815434137466
 30
0.0
  0
VERTEX
  5
1705D
  8
0
 10
124.0204964953632043
 20
40.1769445750483172
 30
0.0
  0
VERTEX
  5
1705E
  8
0
 10
124.0863297879370037
 20
40.2001513262673171
 30
0.0
  0
VERTEX
  5
1705F
  8
0
 10
124.1528884812585005
 20
40.2217793408634705
 30
0.0
  0
VERTEX
  5
17060
  8
0
 10
124.2201501191204045
 20
40.2418061626295298
 30
0.0
  0
VERTEX
  5
17061
  8
0
 10
124.2880922453154966
 20
40.2602093353582831
 30
0.0
  0
VERTEX
  5
17062
  8
0
 10
124.3566924036366004
 20
40.2769664028424614
 30
0.0
  0
VERTEX
  5
17063
  8
0
 10
124.4259281378763973
 20
40.2920549088748317
 30
0.0
  0
VERTEX
  5
17064
  8
0
 10
124.4957769918275972
 20
40.3054523972481817
 30
0.0
  0
VERTEX
  5
17065
  8
0
 10
124.5662165092831941
 20
40.3171364117552429
 30
0.0
  0
VERTEX
  5
17066
  8
0
 10
124.6372242340356991
 20
40.3270844961887391
 30
0.0
  0
VERTEX
  5
17067
  8
0
 10
124.7087777098780066
 20
40.335274194341487
 30
0.0
  0
VERTEX
  5
17068
  8
0
 10
124.7808544806027982
 20
40.3416830500062389
 30
0.0
  0
VERTEX
  5
17069
  8
0
 10
124.8534320900028973
 20
40.3462886069757474
 30
0.0
  0
VERTEX
  5
1706A
  8
0
 10
124.9264880818710992
 20
40.3490684090427578
 30
0.0
  0
VERTEX
  5
1706B
  8
0
 10
124.9999999999999005
 20
40.3500000000000227
 30
0.0
  0
SEQEND
  5
1706C
  8
0
  0
POLYLINE
  5
16313
  8
0
 66
     1
 10
0.0
 20
0.0
 30
0.0
  0
VERTEX
  5
1706D
  8
0
 10
125.0000000000000995
 20
60.2500000000000284
 30
0.0
  0
VERTEX
  5
1706E
  8
0
 10
125.0558672053397942
 20
60.2506929333242596
 30
0.0
  0
VERTEX
  5
1706F
  8
0
 10
125.1115684021881975
 20
60.2527653630875903
 30
0.0
  0
VERTEX
  5
17070
  8
0
 10
125.167080521976203
 20
60.2562077339759128
 30
0.0
  0
VERTEX
  5
17071
  8
0
 10
125.2223804961351021
 20
60.2610104906751616
 30
0.0
  0
VERTEX
  5
17072
  8
0
 10
125.2774452560961009
 20
60.2671640778712572
 30
0.0
  0
VERTEX
  5
17073
  8
0
 10
125.3322517332903061
 20
60.2746589402501272
 30
0.0
  0
VERTEX
  5
17074
  8
0
 10
125.3867768591487959
 20
60.2834855224976707
 30
0.0
  0
VERTEX
  5
17075
  8
0
 10
125.4409975651030038
 20
60.2936342692998508
 30
0.0
  0
VERTEX
  5
17076
  8
0
 10
125.4948907825836955
 20
60.3050956253425525
 30
0.0
  0
VERTEX
  5
17077
  8
0
 10
125.5484334430223043
 20
60.3178600353117034
 30
0.0
  0
VERTEX
  5
17078
  8
0
 10
125.6016024778498945
 20
60.331917943893238
 30
0.0
  0
VERTEX
  5
17079
  8
0
 10
125.6543748184977005
 20
60.3472597957730414
 30
0.0
  0
VERTEX
  5
1707A
  8
0
 10
125.7067273963968006
 20
60.3638760356370909
 30
0.0
  0
VERTEX
  5
1707B
  8
0
 10
125.7586371429783014
 20
60.3817571081712785
 30
0.0
  0
VERTEX
  5
1707C
  8
0
 10
125.8100809896734944
 20
60.4008934580615104
 30
0.0
  0
VERTEX
  5
1707D
  8
0
 10
125.8610358679135004
 20
60.4212755299937285
 30
0.0
  0
VERTEX
  5
1707E
  8
0
 10
125.9114787091293977
 20
60.4428937686538532
 30
0.0
  0
VERTEX
  5
1707F
  8
0
 10
125.961386444752506
 20
60.4657386187277908
 30
0.0
  0
VERTEX
  5
17080
  8
0
 10
126.0107360062138042
 20
60.4898005249014687
 30
0.0
  0
VERTEX
  5
17081
  8
0
 10
126.0595043249444984
 20
60.5150699318608432
 30
0.0
  0
VERTEX
  5
17082
  8
0
 10
126.1076683323757948
 20
60.5415372842917634
 30
0.0
  0
VERTEX
  5
17083
  8
0
 10
126.1552049599388994
 20
60.5691930268802068
 30
0.0
  0
VERTEX
  5
17084
  8
0
 10
126.2020911390648052
 20
60.5980276043120867
 30
0.0
  0
VERTEX
  5
17085
  8
0
 10
126.2483038011848038
 20
60.6280314612733306
 30
0.0
  0
VERTEX
  5
17086
  8
0
 10
126.2938198777300016
 20
60.6591950424498094
 30
0.0
  0
VERTEX
  5
17087
  8
0
 10
126.3386163001316049
 20
60.6915087925275074
 30
0.0
  0
VERTEX
  5
17088
  8
0
 10
126.3826699998207062
 20
60.7249631561923167
 30
0.0
  0
VERTEX
  5
17089
  8
0
 10
126.4259579082284972
 20
60.7595485781301576
 30
0.0
  0
VERTEX
  5
1708A
  8
0
 10
126.4684569567861985
 20
60.7952555030269579
 30
0.0
  0
VERTEX
  5
1708B
  8
0
 10
126.5101440769248029
 20
60.8320743755686166
 30
0.0
  0
VERTEX
  5
1708C
  8
0
 10
126.5509962000757014
 20
60.8699956404410898
 30
0.0
  0
VERTEX
  5
1708D
  8
0
 10
126.5909902576698016
 20
60.9090097423302907
 30
0.0
  0
VERTEX
  5
1708E
  8
0
 10
126.6300043595587965
 20
60.9490037999244407
 30
0.0
  0
VERTEX
  5
1708F
  8
0
 10
126.6679256244314047
 20
60.9898559230752468
 30
0.0
  0
VERTEX
  5
17090
  8
0
 10
126.704744496973106
 20
61.0315430432139223
 30
0.0
  0
VERTEX
  5
17091
  8
0
 10
126.7404514218699063
 20
61.0740420917715809
 30
0.0
  0
VERTEX
  5
17092
  8
0
 10
126.7750368438076976
 20
61.1173300001793791
 30
0.0
  0
VERTEX
  5
17093
  8
0
 10
126.8084912074724997
 20
61.1613836998684874
 30
0.0
  0
VERTEX
  5
17094
  8
0
 10
126.8408049575502048
 20
61.2061801222700907
 30
0.0
  0
VERTEX
  5
17095
  8
0
 10
126.8719685387267049
 20
61.2516961988152815
 30
0.0
  0
VERTEX
  5
17096
  8
0
 10
126.9019723956879062
 20
61.29790886093528
 30
0.0
  0
VERTEX
  5
17097
  8
0
 10
126.9308069731198003
 20
61.3447950400612285
 30
0.0
  0
VERTEX
  5
17098
  8
0
 10
126.9584627157082934
 20
61.3923316676242834
 30
0.0
  0
VERTEX
  5
17099
  8
0
 10
126.9849300681392066
 20
61.4404956750555868
 30
0.0
  0
VERTEX
  5
1709A
  8
0
 10
127.0101994750986023
 20
61.4892639937863095
 30
0.0
  0
VERTEX
  5
1709B
  8
0
 10
127.0342613812723016
 20
61.5386135552476077
 30
0.0
  0
VERTEX
  5
1709C
  8
0
 10
127.0571062313461965
 20
61.5885212908706521
 30
0.0
  0
VERTEX
  5
1709D
  8
0
 10
127.078724470006307
 20
61.6389641320865707
 30
0.0
  0
VERTEX
  5
1709E
  8
0
 10
127.0991065419384967
 20
61.6899190103265482
 30
0.0
  0
VERTEX
  5
1709F
  8
0
 10
127.1182428918287997
 20
61.7413628570217483
 30
0.0
  0
VERTEX
  5
170A0
  8
0
 10
127.1361239643629943
 20
61.7932726036033131
 30
0.0
  0
VERTEX
  5
170A1
  8
0
 10
127.1527402042271007
 20
61.845625181502399
 30
0.0
  0
VERTEX
  5
170A2
  8
0
 10
127.168082056106897
 20
61.8983975221501481
 30
0.0
  0
VERTEX
  5
170A3
  8
0
 10
127.1821399646884032
 20
61.9515665569777596
 30
0.0
  0
VERTEX
  5
170A4
  8
0
 10
127.1949043746575967
 20
62.0051092174163827
 30
0.0
  0
VERTEX
  5
170A5
  8
0
 10
127.2063657307001989
 20
62.0590024348971667
 30
0.0
  0
VERTEX
  5
170A6
  8
0
 10
127.2165144775024999
 20
62.1132231408512467
 30
0.0
  0
VERTEX
  5
170A7
  8
0
 10
127.2253410597499936
 20
62.1677482667098076
 30
0.0
  0
VERTEX
  5
170A8
  8
0
 10
127.2328359221287997
 20
62.2225547439039985
 30
0.0
  0
VERTEX
  5
170A9
  8
0
 10
127.2389895093249947
 20
62.2776195038649831
 30
0.0
  0
VERTEX
  5
170AA
  8
0
 10
127.2437922660242009
 20
62.3329194780239177
 30
0.0
  0
VERTEX
  5
170AB
  8
0
 10
127.2472346369123954
 20
62.388431597811973
 30
0.0
  0
VERTEX
  5
170AC
  8
0
 10
127.2493070666757973
 20
62.4441327946602627
 30
0.0
  0
VERTEX
  5
170AD
  8
0
 10
127.2500000000000995
 20
62.5000000000000071
 30
0.0
  0
VERTEX
  5
170AE
  8
0
 10
127.2493070666757973
 20
62.5558672053397302
 30
0.0
  0
VERTEX
  5
170AF
  8
0
 10
127.2472346369125944
 20
62.6115684021880483
 30
0.0
  0
VERTEX
  5
170B0
  8
0
 10
127.2437922660243004
 20
62.6670805219760894
 30
0.0
  0
VERTEX
  5
170B1
  8
0
 10
127.2389895093249947
 20
62.7223804961350169
 30
0.0
  0
VERTEX
  5
170B2
  8
0
 10
127.2328359221288991
 20
62.7774452560960228
 30
0.0
  0
VERTEX
  5
170B3
  8
0
 10
127.2253410597499936
 20
62.8322517332902208
 30
0.0
  0
VERTEX
  5
170B4
  8
0
 10
127.2165144775024999
 20
62.8867768591487675
 30
0.0
  0
VERTEX
  5
170B5
  8
0
 10
127.2063657307003979
 20
62.9409975651028617
 30
0.0
  0
VERTEX
  5
170B6
  8
0
 10
127.1949043746575967
 20
62.9948907825836315
 30
0.0
  0
VERTEX
  5
170B7
  8
0
 10
127.1821399646885027
 20
63.0484334430222404
 30
0.0
  0
VERTEX
  5
170B8
  8
0
 10
127.1680820561069964
 20
63.1016024778498519
 30
0.0
  0
VERTEX
  5
170B9
  8
0
 10
127.1527402042271007
 20
63.1543748184976224
 30
0.0
  0
VERTEX
  5
170BA
  8
0
 10
127.1361239643629943
 20
63.2067273963967082
 30
0.0
  0
VERTEX
  5
170BB
  8
0
 10
127.1182428918288991
 20
63.2586371429782801
 30
0.0
  0
VERTEX
  5
170BC
  8
0
 10
127.0991065419386956
 20
63.3100809896734518
 30
0.0
  0
VERTEX
  5
170BD
  8
0
 10
127.0787244700064065
 20
63.3610358679134364
 30
0.0
  0
VERTEX
  5
170BE
  8
0
 10
127.0571062313463955
 20
63.4114787091293692
 30
0.0
  0
VERTEX
  5
170BF
  8
0
 10
127.0342613812724011
 20
63.4613864447524065
 30
0.0
  0
VERTEX
  5
170C0
  8
0
 10
127.0101994750987018
 20
63.5107360062136905
 30
0.0
  0
VERTEX
  5
170C1
  8
0
 10
126.9849300681393061
 20
63.5595043249444132
 30
0.0
  0
VERTEX
  5
170C2
  8
0
 10
126.9584627157083929
 20
63.6076683323757308
 30
0.0
  0
VERTEX
  5
170C3
  8
0
 10
126.9308069731198998
 20
63.6552049599387786
 30
0.0
  0
VERTEX
  5
170C4
  8
0
 10
126.9019723956881052
 20
63.70209113906472
 30
0.0
  0
VERTEX
  5
170C5
  8
0
 10
126.8719685387269038
 20
63.7483038011847185
 30
0.0
  0
VERTEX
  5
170C6
  8
0
 10
126.8408049575503043
 20
63.7938198777299306
 30
0.0
  0
VERTEX
  5
170C7
  8
0
 10
126.8084912074725992
 20
63.838616300131541
 30
0.0
  0
VERTEX
  5
170C8
  8
0
 10
126.775036843807797
 20
63.8826699998206422
 30
0.0
  0
VERTEX
  5
170C9
  8
0
 10
126.7404514218700058
 20
63.9259579082284475
 30
0.0
  0
VERTEX
  5
170CA
  8
0
 10
126.7047444969732055
 20
63.968456956786099
 30
0.0
  0
VERTEX
  5
170CB
  8
0
 10
126.6679256244316036
 20
64.0101440769247745
 30
0.0
  0
VERTEX
  5
170CC
  8
0
 10
126.630004359559095
 20
64.0509962000755735
 30
0.0
  0
VERTEX
  5
170CD
  8
0
 10
126.5909902576699011
 20
64.0909902576697448
 30
0.0
  0
VERTEX
  5
170CE
  8
0
 10
126.5509962000757014
 20
64.1300043595589244
 30
0.0
  0
VERTEX
  5
170CF
  8
0
 10
126.5101440769249024
 20
64.1679256244314047
 30
0.0
  0
VERTEX
  5
170D0
  8
0
 10
126.468456956786298
 20
64.2047444969730776
 30
0.0
  0
VERTEX
  5
170D1
  8
0
 10
126.4259579082285967
 20
64.2404514218698495
 30
0.0
  0
VERTEX
  5
170D2
  8
0
 10
126.3826699998208056
 20
64.2750368438077118
 30
0.0
  0
VERTEX
  5
170D3
  8
0
 10
126.3386163001316049
 20
64.3084912074725281
 30
0.0
  0
VERTEX
  5
170D4
  8
0
 10
126.2938198777300016
 20
64.340804957550219
 30
0.0
  0
VERTEX
  5
170D5
  8
0
 10
126.2483038011849033
 20
64.3719685387267191
 30
0.0
  0
VERTEX
  5
170D6
  8
0
 10
126.2020911390648052
 20
64.4019723956879488
 30
0.0
  0
VERTEX
  5
170D7
  8
0
 10
126.1552049599388994
 20
64.4308069731198145
 30
0.0
  0
VERTEX
  5
170D8
  8
0
 10
126.1076683323757948
 20
64.4584627157082508
 30
0.0
  0
VERTEX
  5
170D9
  8
0
 10
126.0595043249444984
 20
64.4849300681392066
 30
0.0
  0
VERTEX
  5
170DA
  8
0
 10
126.0107360062138042
 20
64.5101994750985455
 30
0.0
  0
VERTEX
  5
170DB
  8
0
 10
125.9613864447526055
 20
64.534261381272259
 30
0.0
  0
VERTEX
  5
170DC
  8
0
 10
125.9114787091293977
 20
64.5571062313461965
 30
0.0
  0
VERTEX
  5
170DD
  8
0
 10
125.8610358679135999
 20
64.5787244700063212
 30
0.0
  0
VERTEX
  5
170DE
  8
0
 10
125.8100809896735939
 20
64.5991065419385393
 30
0.0
  0
VERTEX
  5
170DF
  8
0
 10
125.7586371429784009
 20
64.6182428918287854
 30
0.0
  0
VERTEX
  5
170E0
  8
0
 10
125.7067273963968006
 20
64.6361239643629659
 30
0.0
  0
VERTEX
  5
170E1
  8
0
 10
125.6543748184978
 20
64.6527402042270012
 30
0.0
  0
VERTEX
  5
170E2
  8
0
 10
125.601602477849994
 20
64.6680820561068259
 30
0.0
  0
VERTEX
  5
170E3
  8
0
 10
125.5484334430224038
 20
64.6821399646883606
 30
0.0
  0
VERTEX
  5
170E4
  8
0
 10
125.4948907825837949
 20
64.6949043746575114
 30
0.0
  0
VERTEX
  5
170E5
  8
0
 10
125.4409975651030038
 20
64.7063657307002131
 30
0.0
  0
VERTEX
  5
170E6
  8
0
 10
125.3867768591487959
 20
64.7165144775023862
 30
0.0
  0
VERTEX
  5
170E7
  8
0
 10
125.3322517332904056
 20
64.7253410597499368
 30
0.0
  0
VERTEX
  5
170E8
  8
0
 10
125.2774452560962004
 20
64.7328359221287855
 30
0.0
  0
VERTEX
  5
170E9
  8
0
 10
125.2223804961352016
 20
64.7389895093249095
 30
0.0
  0
VERTEX
  5
170EA
  8
0
 10
125.167080521976203
 20
64.7437922660241441
 30
0.0
  0
VERTEX
  5
170EB
  8
0
 10
125.1115684021881975
 20
64.7472346369124807
 30
0.0
  0
VERTEX
  5
170EC
  8
0
 10
125.0558672053397942
 20
64.7493070666757973
 30
0.0
  0
VERTEX
  5
170ED
  8
0
 10
125.0000000000000995
 20
64.7500000000000284
 30
0.0
  0
SEQEND
  5
170EE
  8
0
  0
POLYLINE
  5
16314
  8
0
 66
     1
 10
0.0
 20
0.0
 30
0.0
  0
VERTEX
  5
170EF
  8
0
 10
125.0000000000000995
 20
64.7500000000000284
 30
0.0
  0
VERTEX
  5
170F0
  8
0
 10
124.9419642751613964
 20
64.74926453345482
 30
0.0
  0
VERTEX
  5
170F1
  8
0
 10
124.8842884921077001
 20
64.7470699528755915
 30
0.0
  0
VERTEX
  5
170F2
  8
0
 10
124.8269903794235063
 20
64.7434339868470516
 30
0.0
  0
VERTEX
  5
170F3
  8
0
 10
124.7700876656932962
 20
64.7383743639538238
 30
0.0
  0
VERTEX
  5
170F4
  8
0
 10
124.713598079502006
 20
64.7319088127805884
 30
0.0
  0
VERTEX
  5
170F5
  8
0
 10
124.6575393494342023
 20
64.7240550619120256
 30
0.0
  0
VERTEX
  5
170F6
  8
0
 10
124.6019292040745938
 20
64.7148308399327732
 30
0.0
  0
VERTEX
  5
170F7
  8
0
 10
124.546785372007804
 20
64.7042538754275114
 30
0.0
  0
VERTEX
  5
170F8
  8
0
 10
124.4921255818184989
 20
64.6923418969809063
 30
0.0
  0
VERTEX
  5
170F9
  8
0
 10
124.4379675620913019
 20
64.6791126331775956
 30
0.0
  0
VERTEX
  5
170FA
  8
0
 10
124.384329041410993
 20
64.6645838126022596
 30
0.0
  0
VERTEX
  5
170FB
  8
0
 10
124.331227748362096
 20
64.6487731638395928
 30
0.0
  0
VERTEX
  5
170FC
  8
0
 10
124.278681411529405
 20
64.6316984154742045
 30
0.0
  0
VERTEX
  5
170FD
  8
0
 10
124.2267077594974012
 20
64.6133772960907891
 30
0.0
  0
VERTEX
  5
170FE
  8
0
 10
124.1753245208510066
 20
64.5938275342740127
 30
0.0
  0
VERTEX
  5
170FF
  8
0
 10
124.1245494241747025
 20
64.5730668586085272
 30
0.0
  0
VERTEX
  5
17100
  8
0
 10
124.0744001980531976
 20
64.5511129976789704
 30
0.0
  0
VERTEX
  5
17101
  8
0
 10
124.0248945710711013
 20
64.5279836800701077
 30
0.0
  0
VERTEX
  5
17102
  8
0
 10
123.9760502718130937
 20
64.5036966343664915
 30
0.0
  0
VERTEX
  5
17103
  8
0
 10
123.9278850288639973
 20
64.4782695891528306
 30
0.0
  0
VERTEX
  5
17104
  8
0
 10
123.8804165708082934
 20
64.4517202730137768
 30
0.0
  0
VERTEX
  5
17105
  8
0
 10
123.833662626230705
 20
64.4240664145339963
 30
0.0
  0
VERTEX
  5
17106
  8
0
 10
123.7876409237158981
 20
64.3953257422981693
 30
0.0
  0
VERTEX
  5
17107
  8
0
 10
123.7423691918485957
 20
64.3655159848909619
 30
0.0
  0
VERTEX
  5
17108
  8
0
 10
123.6978651592134071
 20
64.3346548708969976
 30
0.0
  0
VERTEX
  5
17109
  8
0
 10
123.6541465543948988
 20
64.3027601289009851
 30
0.0
  0
VERTEX
  5
1710A
  8
0
 10
123.6112311059778932
 20
64.2698494874875621
 30
0.0
  0
VERTEX
  5
1710B
  8
0
 10
123.5691365425469002
 20
64.2359406752414088
 30
0.0
  0
VERTEX
  5
1710C
  8
0
 10
123.5278805926867989
 20
64.201051420747163
 30
0.0
  0
VERTEX
  5
1710D
  8
0
 10
123.4874809849820991
 20
64.1651994525895333
 30
0.0
  0
VERTEX
  5
1710E
  8
0
 10
123.447955448017396
 20
64.1284024993531432
 30
0.0
  0
VERTEX
  5
1710F
  8
0
 10
123.4093217103773981
 20
64.090678289622673
 30
0.0
  0
VERTEX
  5
17110
  8
0
 10
123.3715975006469989
 20
64.0520445519827746
 30
0.0
  0
VERTEX
  5
17111
  8
0
 10
123.3348005474106941
 20
64.0125190150181282
 30
0.0
  0
VERTEX
  5
17112
  8
0
 10
123.2989485792529933
 20
63.972119407313393
 30
0.0
  0
VERTEX
  5
17113
  8
0
 10
123.2640593247587049
 20
63.9308634574532206
 30
0.0
  0
VERTEX
  5
17114
  8
0
 10
123.2301505125125942
 20
63.8887688940222773
 30
0.0
  0
VERTEX
  5
17115
  8
0
 10
123.1972398710991996
 20
63.8458534456052718
 30
0.0
  0
VERTEX
  5
17116
  8
0
 10
123.1653451291031018
 20
63.802134840786799
 30
0.0
  0
VERTEX
  5
17117
  8
0
 10
123.1344840151091944
 20
63.7576308081515677
 30
0.0
  0
VERTEX
  5
17118
  8
0
 10
123.1046742577020012
 20
63.7123590762842014
 30
0.0
  0
VERTEX
  5
17119
  8
0
 10
123.0759335854662027
 20
63.6663373737694229
 30
0.0
  0
VERTEX
  5
1711A
  8
0
 10
123.0482797269863937
 20
63.6195834291918487
 30
0.0
  0
VERTEX
  5
1711B
  8
0
 10
123.0217304108472973
 20
63.572114971136152
 30
0.0
  0
VERTEX
  5
1711C
  8
0
 10
122.9963033656336933
 20
63.5239497281869987
 30
0.0
  0
VERTEX
  5
1711D
  8
0
 10
122.972016319930006
 20
63.4751054289290906
 30
0.0
  0
VERTEX
  5
1711E
  8
0
 10
122.9488870023211007
 20
63.4255998019470226
 30
0.0
  0
VERTEX
  5
1711F
  8
0
 10
122.9269331413916007
 20
63.3754505758254894
 30
0.0
  0
VERTEX
  5
17120
  8
0
 10
122.906172465726101
 20
63.3246754791491924
 30
0.0
  0
VERTEX
  5
17121
  8
0
 10
122.8866227039091967
 20
63.2732922405027409
 30
0.0
  0
VERTEX
  5
17122
  8
0
 10
122.8683015845257955
 20
63.2213185884708082
 30
0.0
  0
VERTEX
  5
17123
  8
0
 10
122.8512268361605067
 20
63.1687722516380816
 30
0.0
  0
VERTEX
  5
17124
  8
0
 10
122.8354161873977972
 20
63.1156709585891988
 30
0.0
  0
VERTEX
  5
17125
  8
0
 10
122.8208873668225039
 20
63.0620324379088615
 30
0.0
  0
VERTEX
  5
17126
  8
0
 10
122.8076581030191932
 20
63.007874418181693
 30
0.0
  0
VERTEX
  5
17127
  8
0
 10
122.7957461245726023
 20
62.9532146279923666
 30
0.0
  0
VERTEX
  5
17128
  8
0
 10
122.7851691600671984
 20
62.8980707959255696
 30
0.0
  0
VERTEX
  5
17129
  8
0
 10
122.7759449380881023
 20
62.8424606505659398
 30
0.0
  0
VERTEX
  5
1712A
  8
0
 10
122.7680911872193974
 20
62.7864019204981716
 30
0.0
  0
VERTEX
  5
1712B
  8
0
 10
122.7616256360463041
 20
62.7299123343068672
 30
0.0
  0
VERTEX
  5
1712C
  8
0
 10
122.7565660131531047
 20
62.6730096205767424
 30
0.0
  0
VERTEX
  5
1712D
  8
0
 10
122.7529300471244937
 20
62.6157115078924704
 30
0.0
  0
VERTEX
  5
1712E
  8
0
 10
122.7507354665452937
 20
62.5580357248386818
 30
0.0
  0
VERTEX
  5
1712F
  8
0
 10
122.750000000000199
 20
62.5000000000000497
 30
0.0
  0
VERTEX
  5
17130
  8
0
 10
122.7507354665453931
 20
62.4419642751614319
 30
0.0
  0
VERTEX
  5
17131
  8
0
 10
122.7529300471245932
 20
62.3842884921076291
 30
0.0
  0
VERTEX
  5
17132
  8
0
 10
122.7565660131531047
 20
62.32699037942335
 30
0.0
  0
VERTEX
  5
17133
  8
0
 10
122.7616256360464035
 20
62.2700876656932465
 30
0.0
  0
VERTEX
  5
17134
  8
0
 10
122.7680911872195963
 20
62.2135980795019705
 30
0.0
  0
VERTEX
  5
17135
  8
0
 10
122.7759449380881023
 20
62.157539349434181
 30
0.0
  0
VERTEX
  5
17136
  8
0
 10
122.7851691600673973
 20
62.101929204074537
 30
0.0
  0
VERTEX
  5
17137
  8
0
 10
122.7957461245727018
 20
62.04678537200774
 30
0.0
  0
VERTEX
  5
17138
  8
0
 10
122.8076581030193069
 20
61.9921255818184207
 30
0.0
  0
VERTEX
  5
17139
  8
0
 10
122.8208873668226033
 20
61.9379675620912806
 30
0.0
  0
VERTEX
  5
1713A
  8
0
 10
122.8354161873978967
 20
61.8843290414109077
 30
0.0
  0
VERTEX
  5
1713B
  8
0
 10
122.8512268361606061
 20
61.8312277483620321
 30
0.0
  0
VERTEX
  5
1713C
  8
0
 10
122.8683015845257955
 20
61.7786814115293197
 30
0.0
  0
VERTEX
  5
1713D
  8
0
 10
122.8866227039091967
 20
61.726707759497387
 30
0.0
  0
VERTEX
  5
1713E
  8
0
 10
122.906172465726101
 20
61.6753245208509426
 30
0.0
  0
VERTEX
  5
1713F
  8
0
 10
122.9269331413916007
 20
61.624549424174603
 30
0.0
  0
VERTEX
  5
17140
  8
0
 10
122.9488870023212002
 20
61.5744001980530911
 30
0.0
  0
VERTEX
  5
17141
  8
0
 10
122.9720163199301055
 20
61.5248945710710373
 30
0.0
  0
VERTEX
  5
17142
  8
0
 10
122.9963033656336933
 20
61.4760502718131008
 30
0.0
  0
VERTEX
  5
17143
  8
0
 10
123.0217304108473968
 20
61.4278850288639617
 30
0.0
  0
VERTEX
  5
17144
  8
0
 10
123.0482797269863937
 20
61.3804165708082721
 30
0.0
  0
VERTEX
  5
17145
  8
0
 10
123.0759335854662027
 20
61.3336626262306979
 30
0.0
  0
VERTEX
  5
17146
  8
0
 10
123.1046742577020012
 20
61.287640923715891
 30
0.0
  0
VERTEX
  5
17147
  8
0
 10
123.1344840151091944
 20
61.2423691918485602
 30
0.0
  0
VERTEX
  5
17148
  8
0
 10
123.1653451291031018
 20
61.1978651592133005
 30
0.0
  0
VERTEX
  5
17149
  8
0
 10
123.1972398710991996
 20
61.1541465543948632
 30
0.0
  0
VERTEX
  5
1714A
  8
0
 10
123.2301505125125942
 20
61.1112311059778008
 30
0.0
  0
VERTEX
  5
1714B
  8
0
 10
123.2640593247587049
 20
61.0691365425469002
 30
0.0
  0
VERTEX
  5
1714C
  8
0
 10
123.2989485792529933
 20
61.0278805926867207
 30
0.0
  0
VERTEX
  5
1714D
  8
0
 10
123.3348005474106941
 20
60.9874809849819783
 30
0.0
  0
VERTEX
  5
1714E
  8
0
 10
123.3715975006469989
 20
60.947955448017332
 30
0.0
  0
VERTEX
  5
1714F
  8
0
 10
123.4093217103773981
 20
60.9093217103774478
 30
0.0
  0
VERTEX
  5
17150
  8
0
 10
123.447955448017396
 20
60.8715975006469634
 30
0.0
  0
VERTEX
  5
17151
  8
0
 10
123.4874809849820991
 20
60.8348005474105733
 30
0.0
  0
VERTEX
  5
17152
  8
0
 10
123.5278805926867989
 20
60.7989485792529223
 30
0.0
  0
VERTEX
  5
17153
  8
0
 10
123.5691365425469002
 20
60.7640593247586978
 30
0.0
  0
VERTEX
  5
17154
  8
0
 10
123.6112311059778932
 20
60.7301505125125303
 30
0.0
  0
VERTEX
  5
17155
  8
0
 10
123.6541465543948988
 20
60.6972398710991214
 30
0.0
  0
VERTEX
  5
17156
  8
0
 10
123.6978651592134071
 20
60.6653451291031018
 30
0.0
  0
VERTEX
  5
17157
  8
0
 10
123.7423691918485957
 20
60.6344840151091375
 30
0.0
  0
VERTEX
  5
17158
  8
0
 10
123.7876409237159976
 20
60.6046742577019231
 30
0.0
  0
VERTEX
  5
17159
  8
0
 10
123.8336626262308044
 20
60.575933585466089
 30
0.0
  0
VERTEX
  5
1715A
  8
0
 10
123.8804165708084071
 20
60.5482797269863298
 30
0.0
  0
VERTEX
  5
1715B
  8
0
 10
123.9278850288639973
 20
60.5217304108472831
 30
0.0
  0
VERTEX
  5
1715C
  8
0
 10
123.9760502718131931
 20
60.496303365633608
 30
0.0
  0
VERTEX
  5
1715D
  8
0
 10
124.0248945710711013
 20
60.4720163199299989
 30
0.0
  0
VERTEX
  5
1715E
  8
0
 10
124.0744001980531976
 20
60.4488870023210865
 30
0.0
  0
VERTEX
  5
1715F
  8
0
 10
124.1245494241747025
 20
60.4269331413915722
 30
0.0
  0
VERTEX
  5
17160
  8
0
 10
124.1753245208510066
 20
60.4061724657260797
 30
0.0
  0
VERTEX
  5
17161
  8
0
 10
124.2267077594975007
 20
60.3866227039092891
 30
0.0
  0
VERTEX
  5
17162
  8
0
 10
124.278681411529405
 20
60.3683015845258808
 30
0.0
  0
VERTEX
  5
17163
  8
0
 10
124.331227748362096
 20
60.3512268361604995
 30
0.0
  0
VERTEX
  5
17164
  8
0
 10
124.384329041410993
 20
60.3354161873978114
 30
0.0
  0
VERTEX
  5
17165
  8
0
 10
124.4379675620914014
 20
60.3208873668224896
 30
0.0
  0
VERTEX
  5
17166
  8
0
 10
124.4921255818185983
 20
60.307658103019179
 30
0.0
  0
VERTEX
  5
17167
  8
0
 10
124.5467853720079034
 20
60.2957461245725597
 30
0.0
  0
VERTEX
  5
17168
  8
0
 10
124.6019292040746933
 20
60.2851691600672979
 30
0.0
  0
VERTEX
  5
17169
  8
0
 10
124.6575393494343018
 20
60.2759449380880525
 30
0.0
  0
VERTEX
  5
1716A
  8
0
 10
124.7135980795021055
 20
60.2680911872194827
 30
0.0
  0
VERTEX
  5
1716B
  8
0
 10
124.7700876656932962
 20
60.2616256360462472
 30
0.0
  0
VERTEX
  5
1716C
  8
0
 10
124.8269903794235063
 20
60.2565660131530265
 30
0.0
  0
VERTEX
  5
1716D
  8
0
 10
124.8842884921077996
 20
60.2529300471244795
 30
0.0
  0
VERTEX
  5
1716E
  8
0
 10
124.9419642751613964
 20
60.250735466545251
 30
0.0
  0
VERTEX
  5
1716F
  8
0
 10
125.000000000000199
 20
60.2500000000000284
 30
0.0
  0
SEQEND
  5
17170
  8
0
  0
POLYLINE
  5
16315
  8
0
 66
     1
 10
0.0
 20
0.0
 30
0.0
  0
VERTEX
  5
17171
  8
0
 10
125.0000000000000995
 20
65.3500000000000512
 30
0.0
  0
VERTEX
  5
17172
  8
0
 10
125.0707651267638028
 20
65.3491222844560156
 30
0.0
  0
VERTEX
  5
17173
  8
0
 10
125.1413199761049952
 20
65.3464972067558136
 30
0.0
  0
VERTEX
  5
17174
  8
0
 10
125.211635327836504
 20
65.3421368702972387
 30
0.0
  0
VERTEX
  5
17175
  8
0
 10
125.2816819617711985
 20
65.336053378478212
 30
0.0
  0
VERTEX
  5
17176
  8
0
 10
125.3514306577218065
 20
65.3282588346964701
 30
0.0
  0
VERTEX
  5
17177
  8
0
 10
125.4208521955009985
 20
65.3187653423499199
 30
0.0
  0
VERTEX
  5
17178
  8
0
 10
125.4899173549219
 20
65.3075850048363407
 30
0.0
  0
VERTEX
  5
17179
  8
0
 10
125.558596915796997
 20
65.2947299255535967
 30
0.0
  0
VERTEX
  5
1717A
  8
0
 10
125.6268616579394006
 20
65.2802122078995097
 30
0.0
  0
VERTEX
  5
1717B
  8
0
 10
125.6946823611615969
 20
65.26404395527193
 30
0.0
  0
VERTEX
  5
1717C
  8
0
 10
125.7620298052765975
 20
65.2462372710686509
 30
0.0
  0
VERTEX
  5
1717D
  8
0
 10
125.8288747700971015
 20
65.2268042586875367
 30
0.0
  0
VERTEX
  5
1717E
  8
0
 10
125.8951880354358934
 20
65.2057570215263951
 30
0.0
  0
VERTEX
  5
1717F
  8
0
 10
125.9609403811058996
 20
65.1831076629831188
 30
0.0
  0
VERTEX
  5
17180
  8
0
 10
126.026102586919805
 20
65.1588682864554869
 30
0.0
  0
VERTEX
  5
17181
  8
0
 10
126.090645432690394
 20
65.1330509953413355
 30
0.0
  0
VERTEX
  5
17182
  8
0
 10
126.1545396982305931
 20
65.1056678930385146
 30
0.0
  0
VERTEX
  5
17183
  8
0
 10
126.2177561633531013
 20
65.0767310829448462
 30
0.0
  0
VERTEX
  5
17184
  8
0
 10
126.2802656078708026
 20
65.0462526684581803
 30
0.0
  0
VERTEX
  5
17185
  8
0
 10
126.3420388115962965
 20
65.0142447529763245
 30
0.0
  0
VERTEX
  5
17186
  8
0
 10
126.4030465543425947
 20
64.9807194398971433
 30
0.0
  0
VERTEX
  5
17187
  8
0
 10
126.463259615922496
 20
64.9456888326184156
 30
0.0
  0
VERTEX
  5
17188
  8
0
 10
126.5226487761486993
 20
64.9091650345380629
 30
0.0
  0
VERTEX
  5
17189
  8
0
 10
126.5811848148340033
 20
64.8711601490538357
 30
0.0
  0
VERTEX
  5
1718A
  8
0
 10
126.638838511791306
 20
64.8316862795635842
 30
0.0
  0
VERTEX
  5
1718B
  8
0
 10
126.6955806468333066
 20
64.7907555294652013
 30
0.0
  0
VERTEX
  5
1718C
  8
0
 10
126.751381999772903
 20
64.7483800021564377
 30
0.0
  0
VERTEX
  5
1718D
  8
0
 10
126.8062133504227944
 20
64.7045718010351862
 30
0.0
  0
VERTEX
  5
1718E
  8
0
 10
126.8600454785957936
 20
64.6593430294992402
 30
0.0
  0
VERTEX
  5
1718F
  8
0
 10
126.9128491641047987
 20
64.6127057909464355
 30
0.0
  0
VERTEX
  5
17190
  8
0
 10
126.964595186762395
 20
64.5646721887746367
 30
0.0
  0
VERTEX
  5
17191
  8
0
 10
127.0152543263815943
 20
64.5152543263816796
 30
0.0
  0
VERTEX
  5
17192
  8
0
 10
127.0646721887746935
 20
64.4645951867624518
 30
0.0
  0
VERTEX
  5
17193
  8
0
 10
127.1127057909465066
 20
64.4128491641047276
 30
0.0
  0
VERTEX
  5
17194
  8
0
 10
127.159343029499297
 20
64.3600454785957652
 30
0.0
  0
VERTEX
  5
17195
  8
0
 10
127.2045718010352999
 20
64.3062133504227376
 30
0.0
  0
VERTEX
  5
17196
  8
0
 10
127.2483800021564946
 20
64.2513819997728461
 30
0.0
  0
VERTEX
  5
17197
  8
0
 10
127.2907555294653008
 20
64.1955806468332923
 30
0.0
  0
VERTEX
  5
17198
  8
0
 10
127.3316862795636979
 20
64.1388385117912776
 30
0.0
  0
VERTEX
  5
17199
  8
0
 10
127.3711601490539067
 20
64.0811848148340175
 30
0.0
  0
VERTEX
  5
1719A
  8
0
 10
127.4091650345381055
 20
64.0226487761486851
 30
0.0
  0
VERTEX
  5
1719B
  8
0
 10
127.4456888326185009
 20
63.9632596159224818
 30
0.0
  0
VERTEX
  5
1719C
  8
0
 10
127.4807194398972001
 20
63.9030465543426303
 30
0.0
  0
VERTEX
  5
1719D
  8
0
 10
127.5142447529764951
 20
63.8420388115962965
 30
0.0
  0
VERTEX
  5
1719E
  8
0
 10
127.546252668458294
 20
63.7802656078707173
 30
0.0
  0
VERTEX
  5
1719F
  8
0
 10
127.5767310829450025
 20
63.7177561633530729
 30
0.0
  0
VERTEX
  5
171A0
  8
0
 10
127.6056678930385999
 20
63.6545396982305505
 30
0.0
  0
VERTEX
  5
171A1
  8
0
 10
127.633050995341506
 20
63.5906454326903798
 30
0.0
  0
VERTEX
  5
171A2
  8
0
 10
127.6588682864556006
 20
63.5261025869197269
 30
0.0
  0
VERTEX
  5
171A3
  8
0
 10
127.683107662983204
 20
63.4609403811058286
 30
0.0
  0
VERTEX
  5
171A4
  8
0
 10
127.7057570215264946
 20
63.3951880354358508
 30
0.0
  0
VERTEX
  5
171A5
  8
0
 10
127.726804258687693
 20
63.3288747700970234
 30
0.0
  0
VERTEX
  5
171A6
  8
0
 10
127.746237271068793
 20
63.262029805276498
 30
0.0
  0
VERTEX
  5
171A7
  8
0
 10
127.7640439552721006
 20
63.1946823611615187
 30
0.0
  0
VERTEX
  5
171A8
  8
0
 10
127.7802122078996945
 20
63.1268616579392869
 30
0.0
  0
VERTEX
  5
171A9
  8
0
 10
127.7947299255537956
 20
63.0585969157969828
 30
0.0
  0
VERTEX
  5
171AA
  8
0
 10
127.807585004836497
 20
62.9899173549218006
 30
0.0
  0
VERTEX
  5
171AB
  8
0
 10
127.8187653423501047
 20
62.920852195500963
 30
0.0
  0
VERTEX
  5
171AC
  8
0
 10
127.828258834696598
 20
62.8514306577216431
 30
0.0
  0
VERTEX
  5
171AD
  8
0
 10
127.8360533784781978
 20
62.7816819617710493
 30
0.0
  0
VERTEX
  5
171AE
  8
0
 10
127.842136870297395
 20
62.7116353278363974
 30
0.0
  0
VERTEX
  5
171AF
  8
0
 10
127.8464972067559984
 20
62.6413199761048816
 30
0.0
  0
VERTEX
  5
171B0
  8
0
 10
127.8491222844562003
 20
62.5707651267637033
 30
0.0
  0
VERTEX
  5
171B1
  8
0
 10
127.8500000000001933
 20
62.5000000000000071
 30
0.0
  0
VERTEX
  5
171B2
  8
0
 10
127.8491222844561008
 20
62.4292348732363394
 30
0.0
  0
VERTEX
  5
171B3
  8
0
 10
127.8464972067557994
 20
62.3586800238951611
 30
0.0
  0
VERTEX
  5
171B4
  8
0
 10
127.842136870297395
 20
62.288364672163631
 30
0.0
  0
VERTEX
  5
171B5
  8
0
 10
127.8360533784781978
 20
62.218318038228972
 30
0.0
  0
VERTEX
  5
171B6
  8
0
 10
127.828258834696598
 20
62.1485693422783996
 30
0.0
  0
VERTEX
  5
171B7
  8
0
 10
127.8187653423500052
 20
62.0791478044990725
 30
0.0
  0
VERTEX
  5
171B8
  8
0
 10
127.807585004836497
 20
62.0100826450782279
 30
0.0
  0
VERTEX
  5
171B9
  8
0
 10
127.7947299255536961
 20
61.9414030842030598
 30
0.0
  0
VERTEX
  5
171BA
  8
0
 10
127.780212207899595
 20
61.8731383420607628
 30
0.0
  0
VERTEX
  5
171BB
  8
0
 10
127.7640439552720011
 20
61.8053176388385026
 30
0.0
  0
VERTEX
  5
171BC
  8
0
 10
127.7462372710685941
 20
61.7379701947235304
 30
0.0
  0
VERTEX
  5
171BD
  8
0
 10
127.7268042586875936
 20
61.6711252299030193
 30
0.0
  0
VERTEX
  5
171BE
  8
0
 10
127.7057570215264946
 20
61.6048119645641918
 30
0.0
  0
VERTEX
  5
171BF
  8
0
 10
127.683107662983204
 20
61.5390596188942069
 30
0.0
  0
VERTEX
  5
171C0
  8
0
 10
127.6588682864556006
 20
61.4738974130803086
 30
0.0
  0
VERTEX
  5
171C1
  8
0
 10
127.633050995341506
 20
61.4093545673096699
 30
0.0
  0
VERTEX
  5
171C2
  8
0
 10
127.6056678930385999
 20
61.3454603017694922
 30
0.0
  0
VERTEX
  5
171C3
  8
0
 10
127.5767310829449031
 20
61.2822438366469626
 30
0.0
  0
VERTEX
  5
171C4
  8
0
 10
127.546252668458294
 20
61.2197343921293324
 30
0.0
  0
VERTEX
  5
171C5
  8
0
 10
127.5142447529763956
 20
61.1579611884037391
 30
0.0
  0
VERTEX
  5
171C6
  8
0
 10
127.4807194398972001
 20
61.0969534456574195
 30
0.0
  0
VERTEX
  5
171C7
  8
0
 10
127.4456888326185009
 20
61.0367403840775467
 30
0.0
  0
VERTEX
  5
171C8
  8
0
 10
127.4091650345381055
 20
60.9773512238513575
 30
0.0
  0
VERTEX
  5
171C9
  8
0
 10
127.3711601490539067
 20
60.9188151851660322
 30
0.0
  0
VERTEX
  5
171CA
  8
0
 10
127.3316862795636979
 20
60.8611614882087579
 30
0.0
  0
VERTEX
  5
171CB
  8
0
 10
127.2907555294653008
 20
60.8044193531667432
 30
0.0
  0
VERTEX
  5
171CC
  8
0
 10
127.2483800021564946
 20
60.7486180002271965
 30
0.0
  0
VERTEX
  5
171CD
  8
0
 10
127.2045718010352999
 20
60.6937866495773122
 30
0.0
  0
VERTEX
  5
171CE
  8
0
 10
127.159343029499297
 20
60.6399545214042774
 30
0.0
  0
VERTEX
  5
171CF
  8
0
 10
127.1127057909465066
 20
60.5871508358953221
 30
0.0
  0
VERTEX
  5
171D0
  8
0
 10
127.0646721887746935
 20
60.5354048132376121
 30
0.0
  0
VERTEX
  5
171D1
  8
0
 10
127.0152543263815943
 20
60.4847456736183631
 30
0.0
  0
VERTEX
  5
171D2
  8
0
 10
126.964595186762395
 20
60.4353278112253705
 30
0.0
  0
VERTEX
  5
171D3
  8
0
 10
126.9128491641047987
 20
60.3872942090535787
 30
0.0
  0
VERTEX
  5
171D4
  8
0
 10
126.8600454785957936
 20
60.3406569705007882
 30
0.0
  0
VERTEX
  5
171D5
  8
0
 10
126.8062133504227944
 20
60.2954281989648493
 30
0.0
  0
VERTEX
  5
171D6
  8
0
 10
126.751381999772903
 20
60.2516199978435907
 30
0.0
  0
VERTEX
  5
171D7
  8
0
 10
126.6955806468333066
 20
60.2092444705348271
 30
0.0
  0
VERTEX
  5
171D8
  8
0
 10
126.638838511791306
 20
60.16831372043643
 30
0.0
  0
VERTEX
  5
171D9
  8
0
 10
126.5811848148340033
 20
60.1288398509461999
 30
0.0
  0
VERTEX
  5
171DA
  8
0
 10
126.5226487761486993
 20
60.0908349654619798
 30
0.0
  0
VERTEX
  5
171DB
  8
0
 10
126.463259615922496
 20
60.0543111673816128
 30
0.0
  0
VERTEX
  5
171DC
  8
0
 10
126.4030465543425947
 20
60.0192805601028994
 30
0.0
  0
VERTEX
  5
171DD
  8
0
 10
126.3420388115962965
 20
59.985755247023711
 30
0.0
  0
VERTEX
  5
171DE
  8
0
 10
126.2802656078708026
 20
59.9537473315418623
 30
0.0
  0
VERTEX
  5
171DF
  8
0
 10
126.2177561633531013
 20
59.9232689170552035
 30
0.0
  0
VERTEX
  5
171E0
  8
0
 10
126.1545396982305931
 20
59.8943321069615209
 30
0.0
  0
VERTEX
  5
171E1
  8
0
 10
126.090645432690394
 20
59.8669490046587072
 30
0.0
  0
VERTEX
  5
171E2
  8
0
 10
126.026102586919805
 20
59.8411317135445628
 30
0.0
  0
VERTEX
  5
171E3
  8
0
 10
125.9609403811058996
 20
59.8168923370169168
 30
0.0
  0
VERTEX
  5
171E4
  8
0
 10
125.8951880354358934
 20
59.7942429784736404
 30
0.0
  0
VERTEX
  5
171E5
  8
0
 10
125.8288747700971015
 20
59.7731957413125272
 30
0.0
  0
VERTEX
  5
171E6
  8
0
 10
125.7620298052765975
 20
59.7537627289313988
 30
0.0
  0
VERTEX
  5
171E7
  8
0
 10
125.6946823611615969
 20
59.7359560447281623
 30
0.0
  0
VERTEX
  5
171E8
  8
0
 10
125.6268616579394006
 20
59.7197877921005471
 30
0.0
  0
VERTEX
  5
171E9
  8
0
 10
125.558596915796997
 20
59.7052700744464815
 30
0.0
  0
VERTEX
  5
171EA
  8
0
 10
125.4899173549219
 20
59.6924149951637233
 30
0.0
  0
VERTEX
  5
171EB
  8
0
 10
125.4208521955009985
 20
59.6812346576501511
 30
0.0
  0
VERTEX
  5
171EC
  8
0
 10
125.3514306577218065
 20
59.6717411653035796
 30
0.0
  0
VERTEX
  5
171ED
  8
0
 10
125.2816819617711985
 20
59.663946621521859
 30
0.0
  0
VERTEX
  5
171EE
  8
0
 10
125.211635327836504
 20
59.6578631297028181
 30
0.0
  0
VERTEX
  5
171EF
  8
0
 10
125.1413199761049952
 20
59.6535027932442787
 30
0.0
  0
VERTEX
  5
171F0
  8
0
 10
125.0707651267638028
 20
59.6508777155440768
 30
0.0
  0
VERTEX
  5
171F1
  8
0
 10
125.0000000000000995
 20
59.6500000000000412
 30
0.0
  0
SEQEND
  5
171F2
  8
0
  0
POLYLINE
  5
16316
  8
0
 66
     1
 10
0.0
 20
0.0
 30
0.0
  0
VERTEX
  5
171F3
  8
0
 10
125.0000000000000995
 20
59.6500000000000412
 30
0.0
  0
VERTEX
  5
171F4
  8
0
 10
124.9264880818712982
 20
59.6509315909573274
 30
0.0
  0
VERTEX
  5
171F5
  8
0
 10
124.8534320900030963
 20
59.6537113930243308
 30
0.0
  0
VERTEX
  5
171F6
  8
0
 10
124.7808544806029971
 20
59.6583169499938322
 30
0.0
  0
VERTEX
  5
171F7
  8
0
 10
124.7087777098782055
 20
59.664725805658577
 30
0.0
  0
VERTEX
  5
171F8
  8
0
 10
124.6372242340357985
 20
59.6729155038113319
 30
0.0
  0
VERTEX
  5
171F9
  8
0
 10
124.5662165092833931
 20
59.6828635882448495
 30
0.0
  0
VERTEX
  5
171FA
  8
0
 10
124.4957769918278956
 20
59.6945476027519106
 30
0.0
  0
VERTEX
  5
171FB
  8
0
 10
124.4259281378764967
 20
59.7079450911252465
 30
0.0
  0
VERTEX
  5
171FC
  8
0
 10
124.3566924036367993
 20
59.7230335971576309
 30
0.0
  0
VERTEX
  5
171FD
  8
0
 10
124.2880922453155961
 20
59.7397906646418022
 30
0.0
  0
VERTEX
  5
171FE
  8
0
 10
124.2201501191206034
 20
59.7581938373705484
 30
0.0
  0
VERTEX
  5
171FF
  8
0
 10
124.1528884812586995
 20
59.778220659136629
 30
0.0
  0
VERTEX
  5
17200
  8
0
 10
124.0863297879372027
 20
59.7998486737327823
 30
0.0
  0
VERTEX
  5
17201
  8
0
 10
124.0204964953633038
 20
59.823055424951761
 30
0.0
  0
VERTEX
  5
17202
  8
0
 10
123.9554110597446055
 20
59.8478184565863529
 30
0.0
  0
VERTEX
  5
17203
  8
0
 10
123.8910959372879006
 20
59.8741153124293035
 30
0.0
  0
VERTEX
  5
17204
  8
0
 10
123.8275735842005929
 20
59.9019235362733724
 30
0.0
  0
VERTEX
  5
17205
  8
0
 10
123.764866456690001
 20
59.9312206719113192
 30
0.0
  0
VERTEX
  5
17206
  8
0
 10
123.7029970109633012
 20
59.9619842631359035
 30
0.0
  0
VERTEX
  5
17207
  8
0
 10
123.6419877032275991
 20
59.9941918537398706
 30
0.0
  0
VERTEX
  5
17208
  8
0
 10
123.5818609896903979
 20
60.0278209875160087
 30
0.0
  0
VERTEX
  5
17209
  8
0
 10
123.5226393265589024
 20
60.0628492082570276
 30
0.0
  0
VERTEX
  5
1720A
  8
0
 10
123.4643451700402039
 20
60.0992540597557507
 30
0.0
  0
VERTEX
  5
1720B
  8
0
 10
123.4070009763416067
 20
60.1370130858049023
 30
0.0
  0
VERTEX
  5
1720C
  8
0
 10
123.3506292016703014
 20
60.1761038301972491
 30
0.0
  0
VERTEX
  5
1720D
  8
0
 10
123.295252302233493
 20
60.2165038367255292
 30
0.0
  0
VERTEX
  5
1720E
  8
0
 10
123.2408927342385994
 20
60.2581906491825379
 30
0.0
  0
VERTEX
  5
1720F
  8
0
 10
123.187572953892797
 20
60.3011418113609992
 30
0.0
  0
VERTEX
  5
17210
  8
0
 10
123.1353154174032056
 20
60.3453348670536869
 30
0.0
  0
VERTEX
  5
17211
  8
0
 10
123.0841425809772005
 20
60.3907473600533891
 30
0.0
  0
VERTEX
  5
17212
  8
0
 10
123.0340769008220008
 20
60.4373568341528085
 30
0.0
  0
VERTEX
  5
17213
  8
0
 10
122.9851408331447971
 20
60.4851408331447331
 30
0.0
  0
VERTEX
  5
17214
  8
0
 10
122.9373568341527942
 20
60.5340769008219368
 30
0.0
  0
VERTEX
  5
17215
  8
0
 10
122.8907473600533962
 20
60.5841425809771579
 30
0.0
  0
VERTEX
  5
17216
  8
0
 10
122.8453348670537935
 20
60.6353154174031488
 30
0.0
  0
VERTEX
  5
17217
  8
0
 10
122.8011418113611057
 20
60.6875729538927118
 30
0.0
  0
VERTEX
  5
17218
  8
0
 10
122.7581906491825947
 20
60.7408927342385425
 30
0.0
  0
VERTEX
  5
17219
  8
0
 10
122.7165038367255931
 20
60.7952523022334574
 30
0.0
  0
VERTEX
  5
1721A
  8
0
 10
122.6761038301973059
 20
60.8506292016701593
 30
0.0
  0
VERTEX
  5
1721B
  8
0
 10
122.6370130858049947
 20
60.9070009763414717
 30
0.0
  0
VERTEX
  5
1721C
  8
0
 10
122.5992540597559071
 20
60.9643451700401329
 30
0.0
  0
VERTEX
  5
1721D
  8
0
 10
122.5628492082571057
 20
61.0226393265588598
 30
0.0
  0
VERTEX
  5
1721E
  8
0
 10
122.527820987516094
 20
61.081860989690469
 30
0.0
  0
VERTEX
  5
1721F
  8
0
 10
122.4941918537400056
 20
61.1419877032276631
 30
0.0
  0
VERTEX
  5
17220
  8
0
 10
122.4619842631360029
 20
61.2029970109632515
 30
0.0
  0
VERTEX
  5
17221
  8
0
 10
122.4312206719114045
 20
61.2648664566899583
 30
0.0
  0
VERTEX
  5
17222
  8
0
 10
122.4019235362735003
 20
61.3275735842005574
 30
0.0
  0
VERTEX
  5
17223
  8
0
 10
122.3741153124293959
 20
61.3910959372878224
 30
0.0
  0
VERTEX
  5
17224
  8
0
 10
122.347818456586495
 20
61.4554110597444989
 30
0.0
  0
VERTEX
  5
17225
  8
0
 10
122.3230554249519031
 20
61.5204964953633322
 30
0.0
  0
VERTEX
  5
17226
  8
0
 10
122.2998486737327966
 20
61.5863297879371103
 30
0.0
  0
VERTEX
  5
17227
  8
0
 10
122.2782206591365934
 20
61.6528884812585574
 30
0.0
  0
VERTEX
  5
17228
  8
0
 10
122.2581938373705981
 20
61.7201501191204827
 30
0.0
  0
VERTEX
  5
17229
  8
0
 10
122.2397906646419017
 20
61.7880922453155819
 30
0.0
  0
VERTEX
  5
1722A
  8
0
 10
122.2230335971577944
 20
61.856692403636643
 30
0.0
  0
VERTEX
  5
1722B
  8
0
 10
122.2079450911253957
 20
61.925928137876447
 30
0.0
  0
VERTEX
  5
1722C
  8
0
 10
122.1945476027519959
 20
61.9957769918277393
 30
0.0
  0
VERTEX
  5
1722D
  8
0
 10
122.1828635882449987
 20
62.0662165092832794
 30
0.0
  0
VERTEX
  5
1722E
  8
0
 10
122.1729155038112964
 20
62.1372242340357985
 30
0.0
  0
VERTEX
  5
1722F
  8
0
 10
122.1647258056587049
 20
62.2087777098780919
 30
0.0
  0
VERTEX
  5
17230
  8
0
 10
122.1583169499940027
 20
62.2808544806029118
 30
0.0
  0
VERTEX
  5
17231
  8
0
 10
122.1537113930244942
 20
62.3534320900029968
 30
0.0
  0
VERTEX
  5
17232
  8
0
 10
122.1509315909573985
 20
62.4264880818711134
 30
0.0
  0
VERTEX
  5
17233
  8
0
 10
122.1500000000001052
 20
62.5000000000000497
 30
0.0
  0
VERTEX
  5
17234
  8
0
 10
122.150931590957498
 20
62.5735119181289718
 30
0.0
  0
VERTEX
  5
17235
  8
0
 10
122.1537113930244942
 20
62.6465679099971098
 30
0.0
  0
VERTEX
  5
17236
  8
0
 10
122.1583169499940027
 20
62.7191455193971876
 30
0.0
  0
VERTEX
  5
17237
  8
0
 10
122.1647258056587049
 20
62.7912222901220076
 30
0.0
  0
VERTEX
  5
17238
  8
0
 10
122.1729155038114953
 20
62.8627757659643009
 30
0.0
  0
VERTEX
  5
17239
  8
0
 10
122.1828635882449987
 20
62.9337834907168414
 30
0.0
  0
VERTEX
  5
1723A
  8
0
 10
122.1945476027520954
 20
63.0042230081723673
 30
0.0
  0
VERTEX
  5
1723B
  8
0
 10
122.2079450911253957
 20
63.0740718621236525
 30
0.0
  0
VERTEX
  5
1723C
  8
0
 10
122.2230335971577944
 20
63.1433075963634423
 30
0.0
  0
VERTEX
  5
1723D
  8
0
 10
122.2397906646420012
 20
63.2119077546845105
 30
0.0
  0
VERTEX
  5
1723E
  8
0
 10
122.2581938373705981
 20
63.2798498808796381
 30
0.0
  0
VERTEX
  5
1723F
  8
0
 10
122.2782206591365934
 20
63.3471115187415208
 30
0.0
  0
VERTEX
  5
17240
  8
0
 10
122.2998486737327966
 20
63.413670212062982
 30
0.0
  0
VERTEX
  5
17241
  8
0
 10
122.3230554249519031
 20
63.4795035046367602
 30
0.0
  0
VERTEX
  5
17242
  8
0
 10
122.347818456586495
 20
63.5445889402556006
 30
0.0
  0
VERTEX
  5
17243
  8
0
 10
122.3741153124293959
 20
63.6089040627122699
 30
0.0
  0
VERTEX
  5
17244
  8
0
 10
122.4019235362735003
 20
63.6724264157995208
 30
0.0
  0
VERTEX
  5
17245
  8
0
 10
122.4312206719115039
 20
63.7351335433101411
 30
0.0
  0
VERTEX
  5
17246
  8
0
 10
122.4619842631360029
 20
63.797002989036848
 30
0.0
  0
VERTEX
  5
17247
  8
0
 10
122.4941918537400056
 20
63.8580122967724506
 30
0.0
  0
VERTEX
  5
17248
  8
0
 10
122.5278209875161934
 20
63.9181390103096376
 30
0.0
  0
VERTEX
  5
17249
  8
0
 10
122.5628492082572052
 20
63.9773606734412397
 30
0.0
  0
VERTEX
  5
1724A
  8
0
 10
122.5992540597559071
 20
64.0356548299599808
 30
0.0
  0
VERTEX
  5
1724B
  8
0
 10
122.6370130858049947
 20
64.0929990236586207
 30
0.0
  0
VERTEX
  5
1724C
  8
0
 10
122.6761038301974054
 20
64.1493707983299259
 30
0.0
  0
VERTEX
  5
1724D
  8
0
 10
122.7165038367255931
 20
64.2047476977666491
 30
0.0
  0
VERTEX
  5
1724E
  8
0
 10
122.7581906491825947
 20
64.2591072657615427
 30
0.0
  0
VERTEX
  5
1724F
  8
0
 10
122.8011418113611057
 20
64.3124270461073735
 30
0.0
  0
VERTEX
  5
17250
  8
0
 10
122.8453348670537935
 20
64.3646845825969365
 30
0.0
  0
VERTEX
  5
17251
  8
0
 10
122.8907473600533962
 20
64.4158574190229558
 30
0.0
  0
VERTEX
  5
17252
  8
0
 10
122.9373568341529932
 20
64.4659230991781698
 30
0.0
  0
VERTEX
  5
17253
  8
0
 10
122.9851408331448965
 20
64.5148591668553593
 30
0.0
  0
VERTEX
  5
17254
  8
0
 10
123.0340769008220008
 20
64.562643165847291
 30
0.0
  0
VERTEX
  5
17255
  8
0
 10
123.0841425809773
 20
64.6092526399467033
 30
0.0
  0
VERTEX
  5
17256
  8
0
 10
123.1353154174033051
 20
64.6546651329464055
 30
0.0
  0
VERTEX
  5
17257
  8
0
 10
123.187572953892797
 20
64.6988581886390932
 30
0.0
  0
VERTEX
  5
17258
  8
0
 10
123.2408927342386988
 20
64.7418093508175616
 30
0.0
  0
VERTEX
  5
17259
  8
0
 10
123.2952523022336067
 20
64.7834961632745632
 30
0.0
  0
VERTEX
  5
1725A
  8
0
 10
123.3506292016703014
 20
64.8238961698028504
 30
0.0
  0
VERTEX
  5
1725B
  8
0
 10
123.4070009763416067
 20
64.86298691419519
 30
0.0
  0
VERTEX
  5
1725C
  8
0
 10
123.4643451700403034
 20
64.9007459402443345
 30
0.0
  0
VERTEX
  5
1725D
  8
0
 10
123.5226393265590019
 20
64.9371507917430506
 30
0.0
  0
VERTEX
  5
1725E
  8
0
 10
123.5818609896905969
 20
64.9721790124840766
 30
0.0
  0
VERTEX
  5
1725F
  8
0
 10
123.6419877032277981
 20
65.0058081462602217
 30
0.0
  0
VERTEX
  5
17260
  8
0
 10
123.7029970109634007
 20
65.0380157368642102
 30
0.0
  0
VERTEX
  5
17261
  8
0
 10
123.7648664566901004
 20
65.0687793280887803
 30
0.0
  0
VERTEX
  5
17262
  8
0
 10
123.8275735842007066
 20
65.0980764637267271
 30
0.0
  0
VERTEX
  5
17263
  8
0
 10
123.8910959372880001
 20
65.1258846875707889
 30
0.0
  0
VERTEX
  5
17264
  8
0
 10
123.955411059744705
 20
65.1521815434137324
 30
0.0
  0
VERTEX
  5
17265
  8
0
 10
124.0204964953635027
 20
65.1769445750483243
 30
0.0
  0
VERTEX
  5
17266
  8
0
 10
124.0863297879372027
 20
65.2001513262672887
 30
0.0
  0
VERTEX
  5
17267
  8
0
 10
124.1528884812586995
 20
65.2217793408634634
 30
0.0
  0
VERTEX
  5
17268
  8
0
 10
124.2201501191206034
 20
65.241806162629544
 30
0.0
  0
VERTEX
  5
17269
  8
0
 10
124.2880922453155961
 20
65.2602093353582831
 30
0.0
  0
VERTEX
  5
1726A
  8
0
 10
124.3566924036367993
 20
65.2769664028424756
 30
0.0
  0
VERTEX
  5
1726B
  8
0
 10
124.4259281378765962
 20
65.2920549088748601
 30
0.0
  0
VERTEX
  5
1726C
  8
0
 10
124.4957769918278956
 20
65.3054523972481746
 30
0.0
  0
VERTEX
  5
1726D
  8
0
 10
124.5662165092833931
 20
65.3171364117552287
 30
0.0
  0
VERTEX
  5
1726E
  8
0
 10
124.6372242340357985
 20
65.3270844961887605
 30
0.0
  0
VERTEX
  5
1726F
  8
0
 10
124.7087777098782055
 20
65.3352741943414941
 30
0.0
  0
VERTEX
  5
17270
  8
0
 10
124.7808544806029971
 20
65.3416830500062531
 30
0.0
  0
VERTEX
  5
17271
  8
0
 10
124.8534320900030963
 20
65.3462886069757616
 30
0.0
  0
VERTEX
  5
17272
  8
0
 10
124.9264880818712982
 20
65.349068409042772
 30
0.0
  0
VERTEX
  5
17273
  8
0
 10
125.0000000000000995
 20
65.3500000000000512
 30
0.0
  0
SEQEND
  5
17274
  8
0
  0
POLYLINE
  5
16320
  8
0
 66
     1
 10
0.0
 20
0.0
 30
0.0
  0
VERTEX
  5
17275
  8
0
 10
100.5171923884507947
 20
187.9911109576748061
 30
0.0
  0
VERTEX
  5
17276
  8
0
 10
100.587957515214498
 20
187.9902332421306994
 30
0.0
  0
VERTEX
  5
17277
  8
0
 10
100.6585123645557047
 20
187.9876081644306112
 30
0.0
  0
VERTEX
  5
17278
  8
0
 10
100.7288277162871992
 20
187.9832478279720078
 30
0.0
  0
VERTEX
  5
17279
  8
0
 10
100.7988743502217943
 20
187.9771643361530096
 30
0.0
  0
VERTEX
  5
1727A
  8
0
 10
100.8686230461724023
 20
187.9693697923711966
 30
0.0
  0
VERTEX
  5
1727B
  8
0
 10
100.9380445839517932
 20
187.959876300024689
 30
0.0
  0
VERTEX
  5
1727C
  8
0
 10
101.0071097433725953
 20
187.9486959625110103
 30
0.0
  0
VERTEX
  5
1727D
  8
0
 10
101.0757893042478059
 20
187.9358408832283942
 30
0.0
  0
VERTEX
  5
1727E
  8
0
 10
101.1440540463900959
 20
187.9213231655743073
 30
0.0
  0
VERTEX
  5
1727F
  8
0
 10
101.2118747496123063
 20
187.9051549129466991
 30
0.0
  0
VERTEX
  5
17280
  8
0
 10
101.2792221937273069
 20
187.8873482287434058
 30
0.0
  0
VERTEX
  5
17281
  8
0
 10
101.3460671585477968
 20
187.8679152163622064
 30
0.0
  0
VERTEX
  5
17282
  8
0
 10
101.4123804238866029
 20
187.8468679792011926
 30
0.0
  0
VERTEX
  5
17283
  8
0
 10
101.4781327695565949
 20
187.8242186206578879
 30
0.0
  0
VERTEX
  5
17284
  8
0
 10
101.5432949753705003
 20
187.7999792441302134
 30
0.0
  0
VERTEX
  5
17285
  8
0
 10
101.607837821141203
 20
187.7741619530160051
 30
0.0
  0
VERTEX
  5
17286
  8
0
 10
101.6717320866813026
 20
187.7467788507132127
 30
0.0
  0
VERTEX
  5
17287
  8
0
 10
101.7349485518038961
 20
187.7178420406195016
 30
0.0
  0
VERTEX
  5
17288
  8
0
 10
101.7974579963213984
 20
187.6873636261327931
 30
0.0
  0
VERTEX
  5
17289
  8
0
 10
101.8592312000470059
 20
187.6553557106510937
 30
0.0
  0
VERTEX
  5
1728A
  8
0
 10
101.9202389427934037
 20
187.6218303975718129
 30
0.0
  0
VERTEX
  5
1728B
  8
0
 10
101.9804520043732055
 20
187.5867997902932132
 30
0.0
  0
VERTEX
  5
1728C
  8
0
 10
102.0398411645993946
 20
187.5502759922127893
 30
0.0
  0
VERTEX
  5
1728D
  8
0
 10
102.0983772032845991
 20
187.5122711067286048
 30
0.0
  0
VERTEX
  5
1728E
  8
0
 10
102.1560309002420013
 20
187.4727972372384102
 30
0.0
  0
VERTEX
  5
1728F
  8
0
 10
102.2127730352840018
 20
187.4318664871400131
 30
0.0
  0
VERTEX
  5
17290
  8
0
 10
102.2685743882235982
 20
187.3894909598313063
 30
0.0
  0
VERTEX
  5
17291
  8
0
 10
102.3234057388735039
 20
187.3456827587100122
 30
0.0
  0
VERTEX
  5
17292
  8
0
 10
102.3772378670465031
 20
187.3004539871739951
 30
0.0
  0
VERTEX
  5
17293
  8
0
 10
102.4300415525554939
 20
187.2538167486212899
 30
0.0
  0
VERTEX
  5
17294
  8
0
 10
102.4817875752132039
 20
187.2057831464495052
 30
0.0
  0
VERTEX
  5
17295
  8
0
 10
102.5324467148325027
 20
187.1563652840563918
 30
0.0
  0
VERTEX
  5
17296
  8
0
 10
102.581864577225403
 20
187.1057061444373062
 30
0.0
  0
VERTEX
  5
17297
  8
0
 10
102.6298981793973013
 20
187.0539601217795962
 30
0.0
  0
VERTEX
  5
17298
  8
0
 10
102.676535417950106
 20
187.0011564362706054
 30
0.0
  0
VERTEX
  5
17299
  8
0
 10
102.7217641894859952
 20
186.9473243080975919
 30
0.0
  0
VERTEX
  5
1729A
  8
0
 10
102.7655723906073035
 20
186.8924929574475868
 30
0.0
  0
VERTEX
  5
1729B
  8
0
 10
102.8079479179159961
 20
186.8366916045081041
 30
0.0
  0
VERTEX
  5
1729C
  8
0
 10
102.8488786680143932
 20
186.7799494694660893
 30
0.0
  0
VERTEX
  5
1729D
  8
0
 10
102.8883525375047014
 20
186.7222957725088861
 30
0.0
  0
VERTEX
  5
1729E
  8
0
 10
102.9263574229889002
 20
186.6637597338234968
 30
0.0
  0
VERTEX
  5
1729F
  8
0
 10
102.9628812210692956
 20
186.6043705735972935
 30
0.0
  0
VERTEX
  5
172A0
  8
0
 10
102.9979118283479949
 20
186.544157512017307
 30
0.0
  0
VERTEX
  5
172A1
  8
0
 10
103.0314371414272046
 20
186.4831497692709945
 30
0.0
  0
VERTEX
  5
172A2
  8
0
 10
103.0634450569090035
 20
186.4213765655455859
 30
0.0
  0
VERTEX
  5
172A3
  8
0
 10
103.0939234713955983
 20
186.3588671210279131
 30
0.0
  0
VERTEX
  5
172A4
  8
0
 10
103.1228602814892952
 20
186.2956506559054048
 30
0.0
  0
VERTEX
  5
172A5
  8
0
 10
103.1502433837922013
 20
186.2317563903650921
 30
0.0
  0
VERTEX
  5
172A6
  8
0
 10
103.1760606749062958
 20
186.1672135445946026
 30
0.0
  0
VERTEX
  5
172A7
  8
0
 10
103.2003000514339988
 20
186.1020513387807114
 30
0.0
  0
VERTEX
  5
172A8
  8
0
 10
103.222949409977204
 20
186.0362989931107052
 30
0.0
  0
VERTEX
  5
172A9
  8
0
 10
103.243996647138303
 20
185.9699857277718991
 30
0.0
  0
VERTEX
  5
172AA
  8
0
 10
103.2634296595195025
 20
185.9031407629512955
 30
0.0
  0
VERTEX
  5
172AB
  8
0
 10
103.2812363437226963
 20
185.8357933188362097
 30
0.0
  0
VERTEX
  5
172AC
  8
0
 10
103.2974045963503045
 20
185.7679726156140134
 30
0.0
  0
VERTEX
  5
172AD
  8
0
 10
103.3119223140044056
 20
185.6997078734717093
 30
0.0
  0
VERTEX
  5
172AE
  8
0
 10
103.3247773932872065
 20
185.6310283125966123
 30
0.0
  0
VERTEX
  5
172AF
  8
0
 10
103.3359577308007005
 20
185.5619631531758102
 30
0.0
  0
VERTEX
  5
172B0
  8
0
 10
103.3454512231472933
 20
185.4925416153965045
 30
0.0
  0
VERTEX
  5
172B1
  8
0
 10
103.3532457669290068
 20
185.4227929194458966
 30
0.0
  0
VERTEX
  5
172B2
  8
0
 10
103.3593292587481045
 20
185.3527462855113015
 30
0.0
  0
VERTEX
  5
172B3
  8
0
 10
103.3636895952065942
 20
185.2824309337796933
 30
0.0
  0
VERTEX
  5
172B4
  8
0
 10
103.3663146729067961
 20
185.2118760844383871
 30
0.0
  0
VERTEX
  5
172B5
  8
0
 10
103.3671923884508033
 20
185.1411109576748117
 30
0.0
  0
VERTEX
  5
172B6
  8
0
 10
103.3663146729067961
 20
185.0703458309112079
 30
0.0
  0
VERTEX
  5
172B7
  8
0
 10
103.3636895952065942
 20
184.999790981569987
 30
0.0
  0
VERTEX
  5
172B8
  8
0
 10
103.3593292587481045
 20
184.9294756298384073
 30
0.0
  0
VERTEX
  5
172B9
  8
0
 10
103.3532457669290068
 20
184.8594289959038122
 30
0.0
  0
VERTEX
  5
172BA
  8
0
 10
103.3454512231472933
 20
184.7896802999532042
 30
0.0
  0
VERTEX
  5
172BB
  8
0
 10
103.3359577308007005
 20
184.7202587621738985
 30
0.0
  0
VERTEX
  5
172BC
  8
0
 10
103.3247773932872065
 20
184.6511936027530112
 30
0.0
  0
VERTEX
  5
172BD
  8
0
 10
103.3119223140044056
 20
184.5825140418778858
 30
0.0
  0
VERTEX
  5
172BE
  8
0
 10
103.2974045963503045
 20
184.5142492997356101
 30
0.0
  0
VERTEX
  5
172BF
  8
0
 10
103.2812363437226963
 20
184.4464285965134138
 30
0.0
  0
VERTEX
  5
172C0
  8
0
 10
103.2634296595195025
 20
184.3790811523984132
 30
0.0
  0
VERTEX
  5
172C1
  8
0
 10
103.243996647138303
 20
184.3122361875778097
 30
0.0
  0
VERTEX
  5
172C2
  8
0
 10
103.222949409977204
 20
184.2459229222390036
 30
0.0
  0
VERTEX
  5
172C3
  8
0
 10
103.2003000514339988
 20
184.1801705765691111
 30
0.0
  0
VERTEX
  5
172C4
  8
0
 10
103.1760606749062958
 20
184.1150083707551062
 30
0.0
  0
VERTEX
  5
172C5
  8
0
 10
103.1502433837922013
 20
184.0504655249843893
 30
0.0
  0
VERTEX
  5
172C6
  8
0
 10
103.1228602814893947
 20
183.9865712594443039
 30
0.0
  0
VERTEX
  5
172C7
  8
0
 10
103.0939234713955983
 20
183.9233547943217957
 30
0.0
  0
VERTEX
  5
172C8
  8
0
 10
103.0634450569090035
 20
183.8608453498040944
 30
0.0
  0
VERTEX
  5
172C9
  8
0
 10
103.0314371414272046
 20
183.7990721460786006
 30
0.0
  0
VERTEX
  5
172CA
  8
0
 10
102.9979118283479949
 20
183.7380644033322881
 30
0.0
  0
VERTEX
  5
172CB
  8
0
 10
102.9628812210692956
 20
183.6778513417523016
 30
0.0
  0
VERTEX
  5
172CC
  8
0
 10
102.9263574229889002
 20
183.6184621815262119
 30
0.0
  0
VERTEX
  5
172CD
  8
0
 10
102.8883525375047014
 20
183.5599261428409079
 30
0.0
  0
VERTEX
  5
172CE
  8
0
 10
102.8488786680145068
 20
183.502272445883591
 30
0.0
  0
VERTEX
  5
172CF
  8
0
 10
102.8079479179159961
 20
183.4455303108416047
 30
0.0
  0
VERTEX
  5
172D0
  8
0
 10
102.7655723906073035
 20
183.3897289579020082
 30
0.0
  0
VERTEX
  5
172D1
  8
0
 10
102.7217641894859952
 20
183.3348976072520884
 30
0.0
  0
VERTEX
  5
172D2
  8
0
 10
102.676535417950106
 20
183.2810654790791034
 30
0.0
  0
VERTEX
  5
172D3
  8
0
 10
102.6298981793973013
 20
183.2282617935701126
 30
0.0
  0
VERTEX
  5
172D4
  8
0
 10
102.5818645772255024
 20
183.1765157709124026
 30
0.0
  0
VERTEX
  5
172D5
  8
0
 10
102.5324467148325027
 20
183.1258566312930895
 30
0.0
  0
VERTEX
  5
172D6
  8
0
 10
102.4817875752132039
 20
183.0764387689002035
 30
0.0
  0
VERTEX
  5
172D7
  8
0
 10
102.4300415525554939
 20
183.0284051667283904
 30
0.0
  0
VERTEX
  5
172D8
  8
0
 10
102.3772378670465031
 20
182.9817679281756
 30
0.0
  0
VERTEX
  5
172D9
  8
0
 10
102.3234057388735039
 20
182.9365391566396966
 30
0.0
  0
VERTEX
  5
172DA
  8
0
 10
102.2685743882235982
 20
182.8927309555184024
 30
0.0
  0
VERTEX
  5
172DB
  8
0
 10
102.2127730352841013
 20
182.8503554282096104
 30
0.0
  0
VERTEX
  5
172DC
  8
0
 10
102.1560309002421008
 20
182.8094246781112133
 30
0.0
  0
VERTEX
  5
172DD
  8
0
 10
102.098377203284798
 20
182.769950808621104
 30
0.0
  0
VERTEX
  5
172DE
  8
0
 10
102.0398411645993946
 20
182.7319459231368057
 30
0.0
  0
VERTEX
  5
172DF
  8
0
 10
101.9804520043733049
 20
182.6954221250564103
 30
0.0
  0
VERTEX
  5
172E0
  8
0
 10
101.9202389427934037
 20
182.6603915177776116
 30
0.0
  0
VERTEX
  5
172E1
  8
0
 10
101.8592312000471054
 20
182.6268662046985867
 30
0.0
  0
VERTEX
  5
172E2
  8
0
 10
101.7974579963213984
 20
182.594858289216603
 30
0.0
  0
VERTEX
  5
172E3
  8
0
 10
101.7349485518038961
 20
182.5643798747298945
 30
0.0
  0
VERTEX
  5
172E4
  8
0
 10
101.6717320866814021
 20
182.5354430646364108
 30
0.0
  0
VERTEX
  5
172E5
  8
0
 10
101.607837821141203
 20
182.5080599623335047
 30
0.0
  0
VERTEX
  5
172E6
  8
0
 10
101.5432949753705998
 20
182.4822426712194101
 30
0.0
  0
VERTEX
  5
172E7
  8
0
 10
101.4781327695565949
 20
182.4580032946917072
 30
0.0
  0
VERTEX
  5
172E8
  8
0
 10
101.4123804238867024
 20
182.4353539361484877
 30
0.0
  0
VERTEX
  5
172E9
  8
0
 10
101.3460671585477968
 20
182.4143066989873887
 30
0.0
  0
VERTEX
  5
172EA
  8
0
 10
101.2792221937274064
 20
182.394873686606104
 30
0.0
  0
VERTEX
  5
172EB
  8
0
 10
101.2118747496124058
 20
182.3770670024030096
 30
0.0
  0
VERTEX
  5
172EC
  8
0
 10
101.1440540463900959
 20
182.3608987497752878
 30
0.0
  0
VERTEX
  5
172ED
  8
0
 10
101.0757893042478059
 20
182.3463810321212861
 30
0.0
  0
VERTEX
  5
172EE
  8
0
 10
101.0071097433725953
 20
182.3335259528383858
 30
0.0
  0
VERTEX
  5
172EF
  8
0
 10
100.9380445839517932
 20
182.3223456153247923
 30
0.0
  0
VERTEX
  5
172F0
  8
0
 10
100.8686230461725017
 20
182.3128521229783985
 30
0.0
  0
VERTEX
  5
172F1
  8
0
 10
100.7988743502218938
 20
182.3050575791966992
 30
0.0
  0
VERTEX
  5
172F2
  8
0
 10
100.7288277162872987
 20
182.2989740873775872
 30
0.0
  0
VERTEX
  5
172F3
  8
0
 10
100.6585123645557047
 20
182.2946137509190123
 30
0.0
  0
VERTEX
  5
172F4
  8
0
 10
100.587957515214498
 20
182.2919886732188104
 30
0.0
  0
VERTEX
  5
172F5
  8
0
 10
100.5171923884507947
 20
182.291110957674789
 30
0.0
  0
SEQEND
  5
172F6
  8
0
  0
POLYLINE
  5
16321
  8
0
 66
     1
 10
0.0
 20
0.0
 30
0.0
  0
VERTEX
  5
172F7
  8
0
 10
100.5171923884507947
 20
182.291110957674789
 30
0.0
  0
VERTEX
  5
172F8
  8
0
 10
100.4436804703219934
 20
182.2920425486319971
 30
0.0
  0
VERTEX
  5
172F9
  8
0
 10
100.3706244784538058
 20
182.2948223506990075
 30
0.0
  0
VERTEX
  5
172FA
  8
0
 10
100.2980468690538061
 20
182.2994279076685018
 30
0.0
  0
VERTEX
  5
172FB
  8
0
 10
100.2259700983289008
 20
182.3058367633333887
 30
0.0
  0
VERTEX
  5
172FC
  8
0
 10
100.1544166224865933
 20
182.3140264614860939
 30
0.0
  0
VERTEX
  5
172FD
  8
0
 10
100.0834088977341025
 20
182.3239745459196115
 30
0.0
  0
VERTEX
  5
172FE
  8
0
 10
100.0129693802786051
 20
182.3356585604267082
 30
0.0
  0
VERTEX
  5
172FF
  8
0
 10
99.9431205263273199
 20
182.3490560488000085
 30
0.0
  0
VERTEX
  5
17300
  8
0
 10
99.8738847920874946
 20
182.3641445548323929
 30
0.0
  0
VERTEX
  5
17301
  8
0
 10
99.805284633766405
 20
182.3809016223164861
 30
0.0
  0
VERTEX
  5
17302
  8
0
 10
99.7373425075713129
 20
182.3993047950453104
 30
0.0
  0
VERTEX
  5
17303
  8
0
 10
99.6700808697094232
 20
182.4193316168114052
 30
0.0
  0
VERTEX
  5
17304
  8
0
 10
99.6035221763879832
 20
182.4409596314075088
 30
0.0
  0
VERTEX
  5
17305
  8
0
 10
99.5376888838141554
 20
182.4641663826265017
 30
0.0
  0
VERTEX
  5
17306
  8
0
 10
99.4726034481953434
 20
182.4889294142610936
 30
0.0
  0
VERTEX
  5
17307
  8
0
 10
99.4082883257386953
 20
182.5152262701039945
 30
0.0
  0
VERTEX
  5
17308
  8
0
 10
99.3447659726514445
 20
182.5430344939481131
 30
0.0
  0
VERTEX
  5
17309
  8
0
 10
99.2820588451407957
 20
182.5723316295859888
 30
0.0
  0
VERTEX
  5
1730A
  8
0
 10
99.220189399414096
 20
182.603095220810701
 30
0.0
  0
VERTEX
  5
1730B
  8
0
 10
99.1591800916784933
 20
182.6353028114145047
 30
0.0
  0
VERTEX
  5
1730C
  8
0
 10
99.0990533781412637
 20
182.6689319451907068
 30
0.0
  0
VERTEX
  5
1730D
  8
0
 10
99.0398317150097256
 20
182.7039601659317896
 30
0.0
  0
VERTEX
  5
1730E
  8
0
 10
98.981537558490956
 20
182.7403650174304062
 30
0.0
  0
VERTEX
  5
1730F
  8
0
 10
98.9241933647922735
 20
182.7781240434796075
 30
0.0
  0
VERTEX
  5
17310
  8
0
 10
98.8678215901210251
 20
182.8172147878719898
 30
0.0
  0
VERTEX
  5
17311
  8
0
 10
98.8124446906842877
 20
182.8576147944002912
 30
0.0
  0
VERTEX
  5
17312
  8
0
 10
98.7580851226894083
 20
182.899301606857307
 30
0.0
  0
VERTEX
  5
17313
  8
0
 10
98.7047653423435207
 20
182.9422527690358038
 30
0.0
  0
VERTEX
  5
17314
  8
0
 10
98.6525078058539862
 20
182.9864458247284063
 30
0.0
  0
VERTEX
  5
17315
  8
0
 10
98.6013349694279668
 20
183.0318583177279947
 30
0.0
  0
VERTEX
  5
17316
  8
0
 10
98.5512692892728239
 20
183.0784677918275065
 30
0.0
  0
VERTEX
  5
17317
  8
0
 10
98.5023332215955492
 20
183.1262517908195093
 30
0.0
  0
VERTEX
  5
17318
  8
0
 10
98.45454922260366
 20
183.175187858496713
 30
0.0
  0
VERTEX
  5
17319
  8
0
 10
98.4079397485042051
 20
183.2252535386519128
 30
0.0
  0
VERTEX
  5
1731A
  8
0
 10
98.3625272555045029
 20
183.2764263750779037
 30
0.0
  0
VERTEX
  5
1731B
  8
0
 10
98.3183341998118436
 20
183.3286839115673956
 30
0.0
  0
VERTEX
  5
1731C
  8
0
 10
98.2753830376334037
 20
183.3820036919132122
 30
0.0
  0
VERTEX
  5
1731D
  8
0
 10
98.233696225176331
 20
183.4363632599082052
 30
0.0
  0
VERTEX
  5
1731E
  8
0
 10
98.1932962186480864
 20
183.4917401593448858
 30
0.0
  0
VERTEX
  5
1731F
  8
0
 10
98.1542054742557184
 20
183.5481119340161058
 30
0.0
  0
VERTEX
  5
17320
  8
0
 10
98.1164464482066023
 20
183.6054561277148025
 30
0.0
  0
VERTEX
  5
17321
  8
0
 10
98.080041596707872
 20
183.6637502842336005
 30
0.0
  0
VERTEX
  5
17322
  8
0
 10
98.0450133759668461
 20
183.722971947365096
 30
0.0
  0
VERTEX
  5
17323
  8
0
 10
98.0113842421907293
 20
183.7830986609023967
 30
0.0
  0
VERTEX
  5
17324
  8
0
 10
97.9791766515867124
 20
183.8441079686380135
 30
0.0
  0
VERTEX
  5
17325
  8
0
 10
97.9484130603621566
 20
183.9059774143647132
 30
0.0
  0
VERTEX
  5
17326
  8
0
 10
97.919115924724224
 20
183.9686845418752057
 30
0.0
  0
VERTEX
  5
17327
  8
0
 10
97.8913077008801338
 20
184.0322068949625987
 30
0.0
  0
VERTEX
  5
17328
  8
0
 10
97.8650108450371903
 20
184.0965220174192041
 30
0.0
  0
VERTEX
  5
17329
  8
0
 10
97.8402478134025557
 20
184.1616074530379876
 30
0.0
  0
VERTEX
  5
1732A
  8
0
 10
97.8170410621836055
 20
184.2274407456118013
 30
0.0
  0
VERTEX
  5
1732B
  8
0
 10
97.7954130475874877
 20
184.2939994389332128
 30
0.0
  0
VERTEX
  5
1732C
  8
0
 10
97.7753862258214212
 20
184.3612610767951878
 30
0.0
  0
VERTEX
  5
1732D
  8
0
 10
97.7569830530926396
 20
184.4292032029902941
 30
0.0
  0
VERTEX
  5
1732E
  8
0
 10
97.740225985608447
 20
184.4978033613114121
 30
0.0
  0
VERTEX
  5
1732F
  8
0
 10
97.7251374795760626
 20
184.5670390955511948
 30
0.0
  0
VERTEX
  5
17330
  8
0
 10
97.711739991202748
 20
184.6368879495024089
 30
0.0
  0
VERTEX
  5
17331
  8
0
 10
97.700055976695694
 20
184.7073274669579916
 30
0.0
  0
VERTEX
  5
17332
  8
0
 10
97.6901078922621622
 20
184.7783351917103971
 30
0.0
  0
VERTEX
  5
17333
  8
0
 10
97.6819181941094143
 20
184.8498886675527899
 30
0.0
  0
VERTEX
  5
17334
  8
0
 10
97.6755093384446837
 20
184.9219654382775957
 30
0.0
  0
VERTEX
  5
17335
  8
0
 10
97.6709037814751468
 20
184.9945430476776949
 30
0.0
  0
VERTEX
  5
17336
  8
0
 10
97.6681239794081648
 20
185.067599039545911
 30
0.0
  0
VERTEX
  5
17337
  8
0
 10
97.6671923884508857
 20
185.1411109576748117
 30
0.0
  0
VERTEX
  5
17338
  8
0
 10
97.6681239794081648
 20
185.2146228758035988
 30
0.0
  0
VERTEX
  5
17339
  8
0
 10
97.6709037814751468
 20
185.2876788676717013
 30
0.0
  0
VERTEX
  5
1733A
  8
0
 10
97.6755093384446837
 20
185.3602564770719141
 30
0.0
  0
VERTEX
  5
1733B
  8
0
 10
97.6819181941094143
 20
185.4323332477966915
 30
0.0
  0
VERTEX
  5
1733C
  8
0
 10
97.6901078922621338
 20
185.5038867236391127
 30
0.0
  0
VERTEX
  5
1733D
  8
0
 10
97.700055976695694
 20
185.5748944483916034
 30
0.0
  0
VERTEX
  5
1733E
  8
0
 10
97.7117399912027054
 20
185.6453339658471009
 30
0.0
  0
VERTEX
  5
1733F
  8
0
 10
97.7251374795760626
 20
185.7151828197984003
 30
0.0
  0
VERTEX
  5
17340
  8
0
 10
97.740225985608447
 20
185.7844185540382114
 30
0.0
  0
VERTEX
  5
17341
  8
0
 10
97.7569830530926254
 20
185.8530187123593009
 30
0.0
  0
VERTEX
  5
17342
  8
0
 10
97.7753862258213644
 20
185.9209608385544072
 30
0.0
  0
VERTEX
  5
17343
  8
0
 10
97.795413047587445
 20
185.9882224764162117
 30
0.0
  0
VERTEX
  5
17344
  8
0
 10
97.8170410621836055
 20
186.0547811697377085
 30
0.0
  0
VERTEX
  5
17345
  8
0
 10
97.8402478134025273
 20
186.1206144623114085
 30
0.0
  0
VERTEX
  5
17346
  8
0
 10
97.8650108450371334
 20
186.185699897930391
 30
0.0
  0
VERTEX
  5
17347
  8
0
 10
97.8913077008800769
 20
186.2500150203869111
 30
0.0
  0
VERTEX
  5
17348
  8
0
 10
97.9191159247241529
 20
186.3135373734743041
 30
0.0
  0
VERTEX
  5
17349
  8
0
 10
97.9484130603621139
 20
186.3762445009849102
 30
0.0
  0
VERTEX
  5
1734A
  8
0
 10
97.9791766515866698
 20
186.43811394671161
 30
0.0
  0
VERTEX
  5
1734B
  8
0
 10
98.0113842421907009
 20
186.4991232544471984
 30
0.0
  0
VERTEX
  5
1734C
  8
0
 10
98.0450133759668034
 20
186.5592499679843002
 30
0.0
  0
VERTEX
  5
1734D
  8
0
 10
98.0800415967078152
 20
186.6184716311159946
 30
0.0
  0
VERTEX
  5
1734E
  8
0
 10
98.1164464482065455
 20
186.6767657876347073
 30
0.0
  0
VERTEX
  5
1734F
  8
0
 10
98.1542054742556758
 20
186.734109981333404
 30
0.0
  0
VERTEX
  5
17350
  8
0
 10
98.1932962186480154
 20
186.7904817560047093
 30
0.0
  0
VERTEX
  5
17351
  8
0
 10
98.2336962251762884
 20
186.8458586554413046
 30
0.0
  0
VERTEX
  5
17352
  8
0
 10
98.2753830376333042
 20
186.9002182234362976
 30
0.0
  0
VERTEX
  5
17353
  8
0
 10
98.3183341998117868
 20
186.9535380037821142
 30
0.0
  0
VERTEX
  5
17354
  8
0
 10
98.3625272555044603
 20
187.0057955402716061
 30
0.0
  0
VERTEX
  5
17355
  8
0
 10
98.4079397485041341
 20
187.056968376697597
 30
0.0
  0
VERTEX
  5
17356
  8
0
 10
98.4545492226035464
 20
187.1070340568527968
 30
0.0
  0
VERTEX
  5
17357
  8
0
 10
98.5023332215955065
 20
187.1559701245301142
 30
0.0
  0
VERTEX
  5
17358
  8
0
 10
98.551269289272696
 20
187.2037541235220033
 30
0.0
  0
VERTEX
  5
17359
  8
0
 10
98.6013349694279242
 20
187.2503635976214866
 30
0.0
  0
VERTEX
  5
1735A
  8
0
 10
98.6525078058539435
 20
187.2957760906211888
 30
0.0
  0
VERTEX
  5
1735B
  8
0
 10
98.7047653423434923
 20
187.339969146313905
 30
0.0
  0
VERTEX
  5
1735C
  8
0
 10
98.7580851226892804
 20
187.3829203084922881
 30
0.0
  0
VERTEX
  5
1735D
  8
0
 10
98.8124446906842309
 20
187.4246071209493039
 30
0.0
  0
VERTEX
  5
1735E
  8
0
 10
98.8678215901209541
 20
187.4650071274776053
 30
0.0
  0
VERTEX
  5
1735F
  8
0
 10
98.9241933647922451
 20
187.5040978718699876
 30
0.0
  0
VERTEX
  5
17360
  8
0
 10
98.9815375584908992
 20
187.5418568979191036
 30
0.0
  0
VERTEX
  5
17361
  8
0
 10
99.0398317150096403
 20
187.5782617494176918
 30
0.0
  0
VERTEX
  5
17362
  8
0
 10
99.0990533781411926
 20
187.613289970158803
 30
0.0
  0
VERTEX
  5
17363
  8
0
 10
99.1591800916784081
 20
187.6469191039350051
 30
0.0
  0
VERTEX
  5
17364
  8
0
 10
99.2201893994139965
 20
187.6791266945390078
 30
0.0
  0
VERTEX
  5
17365
  8
0
 10
99.2820588451407389
 20
187.7098902857636062
 30
0.0
  0
VERTEX
  5
17366
  8
0
 10
99.3447659726513308
 20
187.7391874214015104
 30
0.0
  0
VERTEX
  5
17367
  8
0
 10
99.4082883257385532
 20
187.7669956452454016
 30
0.0
  0
VERTEX
  5
17368
  8
0
 10
99.4726034481952723
 20
187.7932925010883878
 30
0.0
  0
VERTEX
  5
17369
  8
0
 10
99.5376888838141127
 20
187.8180555327230081
 30
0.0
  0
VERTEX
  5
1736A
  8
0
 10
99.6035221763878553
 20
187.8412622839420862
 30
0.0
  0
VERTEX
  5
1736B
  8
0
 10
99.6700808697093663
 20
187.8628902985381899
 30
0.0
  0
VERTEX
  5
1736C
  8
0
 10
99.7373425075711992
 20
187.8829171203043131
 30
0.0
  0
VERTEX
  5
1736D
  8
0
 10
99.8052846337663766
 20
187.9013202930329101
 30
0.0
  0
VERTEX
  5
1736E
  8
0
 10
99.8738847920874377
 20
187.9180773605170884
 30
0.0
  0
VERTEX
  5
1736F
  8
0
 10
99.9431205263272204
 20
187.9331658665495866
 30
0.0
  0
VERTEX
  5
17370
  8
0
 10
100.0129693802785056
 20
187.9465633549228016
 30
0.0
  0
VERTEX
  5
17371
  8
0
 10
100.0834088977340031
 20
187.958247369430012
 30
0.0
  0
VERTEX
  5
17372
  8
0
 10
100.1544166224863943
 20
187.9681954538635011
 30
0.0
  0
VERTEX
  5
17373
  8
0
 10
100.2259700983288013
 20
187.9763851520162916
 30
0.0
  0
VERTEX
  5
17374
  8
0
 10
100.2980468690537066
 20
187.982794007681008
 30
0.0
  0
VERTEX
  5
17375
  8
0
 10
100.3706244784537063
 20
187.9873995646505023
 30
0.0
  0
VERTEX
  5
17376
  8
0
 10
100.4436804703218939
 20
187.9901793667175127
 30
0.0
  0
VERTEX
  5
17377
  8
0
 10
100.5171923884507947
 20
187.9911109576748061
 30
0.0
  0
SEQEND
  5
17378
  8
0
  0
POLYLINE
  5
16322
  8
0
 66
     1
 10
0.0
 20
0.0
 30
0.0
  0
VERTEX
  5
17379
  8
0
 10
100.5171923884507947
 20
182.8911109576748117
 30
0.0
  0
VERTEX
  5
1737A
  8
0
 10
100.5730595937905036
 20
182.8918038909990003
 30
0.0
  0
VERTEX
  5
1737B
  8
0
 10
100.6287607906387933
 20
182.8938763207623879
 30
0.0
  0
VERTEX
  5
1737C
  8
0
 10
100.6842729104267988
 20
182.8973186916506961
 30
0.0
  0
VERTEX
  5
1737D
  8
0
 10
100.7395728845857974
 20
182.9021214483499023
 30
0.0
  0
VERTEX
  5
1737E
  8
0
 10
100.7946376445467962
 20
182.9082750355460121
 30
0.0
  0
VERTEX
  5
1737F
  8
0
 10
100.8494441217410014
 20
182.9157698979248039
 30
0.0
  0
VERTEX
  5
17380
  8
0
 10
100.9039692475996048
 20
182.9245964801725108
 30
0.0
  0
VERTEX
  5
17381
  8
0
 10
100.9581899535536991
 20
182.9347452269745133
 30
0.0
  0
VERTEX
  5
17382
  8
0
 10
101.0120831710344049
 20
182.9462065830171866
 30
0.0
  0
VERTEX
  5
17383
  8
0
 10
101.0656258314730991
 20
182.9589709929863943
 30
0.0
  0
VERTEX
  5
17384
  8
0
 10
101.1187948663007035
 20
182.973028901568
 30
0.0
  0
VERTEX
  5
17385
  8
0
 10
101.1715672069484953
 20
182.9883707534478106
 30
0.0
  0
VERTEX
  5
17386
  8
0
 10
101.2239197848474959
 20
183.0049869933118032
 30
0.0
  0
VERTEX
  5
17387
  8
0
 10
101.2758295314290962
 20
183.0228680658460121
 30
0.0
  0
VERTEX
  5
17388
  8
0
 10
101.3272733781243033
 20
183.0420044157363009
 30
0.0
  0
VERTEX
  5
17389
  8
0
 10
101.3782282563642951
 20
183.0623864876685047
 30
0.0
  0
VERTEX
  5
1738A
  8
0
 10
101.4286710975802066
 20
183.0840047263284873
 30
0.0
  0
VERTEX
  5
1738B
  8
0
 10
101.4785788332033007
 20
183.1068495764025101
 30
0.0
  0
VERTEX
  5
1738C
  8
0
 10
101.527928394664599
 20
183.1309114825762947
 30
0.0
  0
VERTEX
  5
1738D
  8
0
 10
101.5766967133952932
 20
183.1561808895355909
 30
0.0
  0
VERTEX
  5
1738E
  8
0
 10
101.6248607208266037
 20
183.1826482419666036
 30
0.0
  0
VERTEX
  5
1738F
  8
0
 10
101.6723973483895946
 20
183.2103039845549972
 30
0.0
  0
VERTEX
  5
17390
  8
0
 10
101.7192835275156
 20
183.2391385619868061
 30
0.0
  0
VERTEX
  5
17391
  8
0
 10
101.7654961896355985
 20
183.2691424189480927
 30
0.0
  0
VERTEX
  5
17392
  8
0
 10
101.8110122661807964
 20
183.300306000124607
 30
0.0
  0
VERTEX
  5
17393
  8
0
 10
101.8558086885823997
 20
183.3326197502022978
 30
0.0
  0
VERTEX
  5
17394
  8
0
 10
101.8998623882715009
 20
183.3660741138671142
 30
0.0
  0
VERTEX
  5
17395
  8
0
 10
101.9431502966793062
 20
183.400659535804806
 30
0.0
  0
VERTEX
  5
17396
  8
0
 10
101.9856493452369932
 20
183.4363664607018052
 30
0.0
  0
VERTEX
  5
17397
  8
0
 10
102.0273364653755976
 20
183.4731853332432934
 30
0.0
  0
VERTEX
  5
17398
  8
0
 10
102.0681885885264961
 20
183.5111065981159015
 30
0.0
  0
VERTEX
  5
17399
  8
0
 10
102.1081826461205964
 20
183.5501207000050954
 30
0.0
  0
VERTEX
  5
1739A
  8
0
 10
102.1471967480098044
 20
183.5901147575991956
 30
0.0
  0
VERTEX
  5
1739B
  8
0
 10
102.1851180128822989
 20
183.6309668807500941
 30
0.0
  0
VERTEX
  5
1739C
  8
0
 10
102.2219368854239008
 20
183.6726540008887127
 30
0.0
  0
VERTEX
  5
1739D
  8
0
 10
102.257643810320701
 20
183.7151530494463998
 30
0.0
  0
VERTEX
  5
1739E
  8
0
 10
102.292229232258606
 20
183.7584409578541056
 30
0.0
  0
VERTEX
  5
1739F
  8
0
 10
102.3256835959233939
 20
183.8024946575432921
 30
0.0
  0
VERTEX
  5
173A0
  8
0
 10
102.3579973460009995
 20
183.8472910799449096
 30
0.0
  0
VERTEX
  5
173A1
  8
0
 10
102.3891609271774996
 20
183.8928071564899938
 30
0.0
  0
VERTEX
  5
173A2
  8
0
 10
102.4191647841388004
 20
183.9390198186102054
 30
0.0
  0
VERTEX
  5
173A3
  8
0
 10
102.4479993615705951
 20
183.9859059977360118
 30
0.0
  0
VERTEX
  5
173A4
  8
0
 10
102.4756551041591024
 20
184.0334426252991875
 30
0.0
  0
VERTEX
  5
173A5
  8
0
 10
102.5021224565901008
 20
184.0816066327303986
 30
0.0
  0
VERTEX
  5
173A6
  8
0
 10
102.527391863549397
 20
184.130374951461107
 30
0.0
  0
VERTEX
  5
173A7
  8
0
 10
102.5514537697229969
 20
184.1797245129224905
 30
0.0
  0
VERTEX
  5
173A8
  8
0
 10
102.5742986197971049
 20
184.2296322485454141
 30
0.0
  0
VERTEX
  5
173A9
  8
0
 10
102.5959168584572012
 20
184.2800750897613113
 30
0.0
  0
VERTEX
  5
173AA
  8
0
 10
102.6162989303894051
 20
184.3310299680013031
 30
0.0
  0
VERTEX
  5
173AB
  8
0
 10
102.6354352802795944
 20
184.3824738146965103
 30
0.0
  0
VERTEX
  5
173AC
  8
0
 10
102.6533163528138033
 20
184.4343835612781106
 30
0.0
  0
VERTEX
  5
173AD
  8
0
 10
102.6699325926777959
 20
184.4867361391771965
 30
0.0
  0
VERTEX
  5
173AE
  8
0
 10
102.6852744445577059
 20
184.5395084798250025
 30
0.0
  0
VERTEX
  5
173AF
  8
0
 10
102.6993323531391979
 20
184.5926775146525074
 30
0.0
  0
VERTEX
  5
173B0
  8
0
 10
102.7120967631083062
 20
184.6462201750912016
 30
0.0
  0
VERTEX
  5
173B1
  8
0
 10
102.7235581191510931
 20
184.7001133925720069
 30
0.0
  0
VERTEX
  5
173B2
  8
0
 10
102.7337068659531951
 20
184.7543340985261011
 30
0.0
  0
VERTEX
  5
173B3
  8
0
 10
102.7425334482008026
 20
184.8088592243846051
 30
0.0
  0
VERTEX
  5
173B4
  8
0
 10
102.7500283105796939
 20
184.8636657015788103
 30
0.0
  0
VERTEX
  5
173B5
  8
0
 10
102.7561818977758037
 20
184.9187304615398091
 30
0.0
  0
VERTEX
  5
173B6
  8
0
 10
102.7609846544749956
 20
184.9740304356988077
 30
0.0
  0
VERTEX
  5
173B7
  8
0
 10
102.7644270253633039
 20
185.0295425554866995
 30
0.0
  0
VERTEX
  5
173B8
  8
0
 10
102.7664994551267057
 20
185.0852437523350034
 30
0.0
  0
VERTEX
  5
173B9
  8
0
 10
102.7671923884508942
 20
185.1411109576748117
 30
0.0
  0
VERTEX
  5
173BA
  8
0
 10
102.7664994551267057
 20
185.1969781630145064
 30
0.0
  0
VERTEX
  5
173BB
  8
0
 10
102.7644270253633039
 20
185.2526793598628956
 30
0.0
  0
VERTEX
  5
173BC
  8
0
 10
102.7609846544749956
 20
185.3081914796509011
 30
0.0
  0
VERTEX
  5
173BD
  8
0
 10
102.7561818977758037
 20
185.3634914538098997
 30
0.0
  0
VERTEX
  5
173BE
  8
0
 10
102.7500283105795944
 20
185.4185562137708985
 30
0.0
  0
VERTEX
  5
173BF
  8
0
 10
102.7425334482008026
 20
185.4733626909651036
 30
0.0
  0
VERTEX
  5
173C0
  8
0
 10
102.7337068659531951
 20
185.5278878168236076
 30
0.0
  0
VERTEX
  5
173C1
  8
0
 10
102.7235581191509937
 20
185.5821085227775882
 30
0.0
  0
VERTEX
  5
173C2
  8
0
 10
102.7120967631083062
 20
185.6360017402583935
 30
0.0
  0
VERTEX
  5
173C3
  8
0
 10
102.6993323531391979
 20
185.6895444006970877
 30
0.0
  0
VERTEX
  5
173C4
  8
0
 10
102.6852744445576064
 20
185.7427134355247063
 30
0.0
  0
VERTEX
  5
173C5
  8
0
 10
102.6699325926777959
 20
185.7954857761725123
 30
0.0
  0
VERTEX
  5
173C6
  8
0
 10
102.6533163528137038
 20
185.8478383540715129
 30
0.0
  0
VERTEX
  5
173C7
  8
0
 10
102.6354352802795944
 20
185.8997481006531132
 30
0.0
  0
VERTEX
  5
173C8
  8
0
 10
102.6162989303893056
 20
185.9511919473482067
 30
0.0
  0
VERTEX
  5
173C9
  8
0
 10
102.5959168584571017
 20
186.0021468255883121
 30
0.0
  0
VERTEX
  5
173CA
  8
0
 10
102.5742986197970055
 20
186.0525896668042094
 30
0.0
  0
VERTEX
  5
173CB
  8
0
 10
102.5514537697229969
 20
186.1024974024271899
 30
0.0
  0
VERTEX
  5
173CC
  8
0
 10
102.5273918635492976
 20
186.1518469638884881
 30
0.0
  0
VERTEX
  5
173CD
  8
0
 10
102.5021224565900013
 20
186.2006152826191965
 30
0.0
  0
VERTEX
  5
173CE
  8
0
 10
102.4756551041591024
 20
186.2487792900506065
 30
0.0
  0
VERTEX
  5
173CF
  8
0
 10
102.4479993615705951
 20
186.2963159176136116
 30
0.0
  0
VERTEX
  5
173D0
  8
0
 10
102.4191647841388004
 20
186.3432020967395886
 30
0.0
  0
VERTEX
  5
173D1
  8
0
 10
102.3891609271774996
 20
186.3894147588594876
 30
0.0
  0
VERTEX
  5
173D2
  8
0
 10
102.3579973460009995
 20
186.4349308354047992
 30
0.0
  0
VERTEX
  5
173D3
  8
0
 10
102.3256835959232944
 20
186.4797272578063883
 30
0.0
  0
VERTEX
  5
173D4
  8
0
 10
102.2922292322585065
 20
186.5237809574954895
 30
0.0
  0
VERTEX
  5
173D5
  8
0
 10
102.257643810320701
 20
186.567068865903309
 30
0.0
  0
VERTEX
  5
173D6
  8
0
 10
102.2219368854238013
 20
186.609567914460996
 30
0.0
  0
VERTEX
  5
173D7
  8
0
 10
102.1851180128821994
 20
186.6512550345995862
 30
0.0
  0
VERTEX
  5
173D8
  8
0
 10
102.1471967480097049
 20
186.6921071577503994
 30
0.0
  0
VERTEX
  5
173D9
  8
0
 10
102.1081826461203974
 20
186.7321012153444997
 30
0.0
  0
VERTEX
  5
173DA
  8
0
 10
102.0681885885263966
 20
186.7711153172336083
 30
0.0
  0
VERTEX
  5
173DB
  8
0
 10
102.0273364653755976
 20
186.8090365821061027
 30
0.0
  0
VERTEX
  5
173DC
  8
0
 10
101.9856493452368937
 20
186.8458554546479036
 30
0.0
  0
VERTEX
  5
173DD
  8
0
 10
101.9431502966793062
 20
186.8815623795447038
 30
0.0
  0
VERTEX
  5
173DE
  8
0
 10
101.8998623882714014
 20
186.9161478014825093
 30
0.0
  0
VERTEX
  5
173DF
  8
0
 10
101.8558086885823002
 20
186.949602165147212
 30
0.0
  0
VERTEX
  5
173E0
  8
0
 10
101.8110122661806969
 20
186.9819159152249028
 30
0.0
  0
VERTEX
  5
173E1
  8
0
 10
101.765496189635499
 20
187.0130794964015024
 30
0.0
  0
VERTEX
  5
173E2
  8
0
 10
101.7192835275155005
 20
187.0430833533627037
 30
0.0
  0
VERTEX
  5
173E3
  8
0
 10
101.6723973483895946
 20
187.0719179307945126
 30
0.0
  0
VERTEX
  5
173E4
  8
0
 10
101.6248607208265042
 20
187.0995736733831052
 30
0.0
  0
VERTEX
  5
173E5
  8
0
 10
101.5766967133951937
 20
187.1260410258140041
 30
0.0
  0
VERTEX
  5
173E6
  8
0
 10
101.5279283946644995
 20
187.1513104327731867
 30
0.0
  0
VERTEX
  5
173E7
  8
0
 10
101.4785788332032013
 20
187.175372338946886
 30
0.0
  0
VERTEX
  5
173E8
  8
0
 10
101.4286710975802066
 20
187.1982171890209088
 30
0.0
  0
VERTEX
  5
173E9
  8
0
 10
101.3782282563641957
 20
187.2198354276810051
 30
0.0
  0
VERTEX
  5
173EA
  8
0
 10
101.3272733781243033
 20
187.2402174996132942
 30
0.0
  0
VERTEX
  5
173EB
  8
0
 10
101.2758295314290962
 20
187.2593538495036114
 30
0.0
  0
VERTEX
  5
173EC
  8
0
 10
101.2239197848474959
 20
187.2772349220377066
 30
0.0
  0
VERTEX
  5
173ED
  8
0
 10
101.1715672069483958
 20
187.2938511619016992
 30
0.0
  0
VERTEX
  5
173EE
  8
0
 10
101.1187948663007035
 20
187.309193013781595
 30
0.0
  0
VERTEX
  5
173EF
  8
0
 10
101.0656258314730991
 20
187.3232509223630871
 30
0.0
  0
VERTEX
  5
173F0
  8
0
 10
101.0120831710344049
 20
187.3360153323322947
 30
0.0
  0
VERTEX
  5
173F1
  8
0
 10
100.9581899535536991
 20
187.3474766883749965
 30
0.0
  0
VERTEX
  5
173F2
  8
0
 10
100.9039692475996048
 20
187.3576254351771126
 30
0.0
  0
VERTEX
  5
173F3
  8
0
 10
100.8494441217410014
 20
187.3664520174245922
 30
0.0
  0
VERTEX
  5
173F4
  8
0
 10
100.7946376445467962
 20
187.3739468798034977
 30
0.0
  0
VERTEX
  5
173F5
  8
0
 10
100.7395728845857974
 20
187.3801004669996928
 30
0.0
  0
VERTEX
  5
173F6
  8
0
 10
100.6842729104267988
 20
187.3849032236988137
 30
0.0
  0
VERTEX
  5
173F7
  8
0
 10
100.6287607906387933
 20
187.3883455945872072
 30
0.0
  0
VERTEX
  5
173F8
  8
0
 10
100.5730595937905036
 20
187.3904180243503959
 30
0.0
  0
VERTEX
  5
173F9
  8
0
 10
100.5171923884507947
 20
187.3911109576748117
 30
0.0
  0
SEQEND
  5
173FA
  8
0
  0
POLYLINE
  5
16323
  8
0
 66
     1
 10
0.0
 20
0.0
 30
0.0
  0
VERTEX
  5
173FB
  8
0
 10
100.5171923884507947
 20
187.3911109576748117
 30
0.0
  0
VERTEX
  5
173FC
  8
0
 10
100.4591566636122053
 20
187.3903754911295891
 30
0.0
  0
VERTEX
  5
173FD
  8
0
 10
100.4014808805583954
 20
187.3881809105504033
 30
0.0
  0
VERTEX
  5
173FE
  8
0
 10
100.3441827678741021
 20
187.3845449445217071
 30
0.0
  0
VERTEX
  5
173FF
  8
0
 10
100.2872800541440057
 20
187.3794853216286072
 30
0.0
  0
VERTEX
  5
17400
  8
0
 10
100.2307904679527013
 20
187.3730197704553007
 30
0.0
  0
VERTEX
  5
17401
  8
0
 10
100.1747317378848976
 20
187.3651660195868089
 30
0.0
  0
VERTEX
  5
17402
  8
0
 10
100.1191215925253033
 20
187.3559417976074997
 30
0.0
  0
VERTEX
  5
17403
  8
0
 10
100.0639777604584992
 20
187.3453648331023089
 30
0.0
  0
VERTEX
  5
17404
  8
0
 10
100.0093179702691941
 20
187.3334528546556044
 30
0.0
  0
VERTEX
  5
17405
  8
0
 10
99.9551599505419972
 20
187.3202235908524074
 30
0.0
  0
VERTEX
  5
17406
  8
0
 10
99.9015214298616314
 20
187.3056947702770003
 30
0.0
  0
VERTEX
  5
17407
  8
0
 10
99.8484201368127771
 20
187.2898841215142056
 30
0.0
  0
VERTEX
  5
17408
  8
0
 10
99.795873799980086
 20
187.2728093731487888
 30
0.0
  0
VERTEX
  5
17409
  8
0
 10
99.7439001479481249
 20
187.2544882537656008
 30
0.0
  0
VERTEX
  5
1740A
  8
0
 10
99.6925169093016876
 20
187.2349384919488102
 30
0.0
  0
VERTEX
  5
1740B
  8
0
 10
99.6417418126253551
 20
187.2141778162832111
 30
0.0
  0
VERTEX
  5
1740C
  8
0
 10
99.5915925865038645
 20
187.1922239553535974
 30
0.0
  0
VERTEX
  5
1740D
  8
0
 10
99.5420869595217823
 20
187.1690946377447915
 30
0.0
  0
VERTEX
  5
1740E
  8
0
 10
99.4932426602638316
 20
187.1448075920411895
 30
0.0
  0
VERTEX
  5
1740F
  8
0
 10
99.4450774173147067
 20
187.1193805468275002
 30
0.0
  0
VERTEX
  5
17410
  8
0
 10
99.3976089592590029
 20
187.0928312306884891
 30
0.0
  0
VERTEX
  5
17411
  8
0
 10
99.3508550146814429
 20
187.0651773722086091
 30
0.0
  0
VERTEX
  5
17412
  8
0
 10
99.304833312166636
 20
187.0364366999727963
 30
0.0
  0
VERTEX
  5
17413
  8
0
 10
99.259561580299291
 20
187.0066269425655889
 30
0.0
  0
VERTEX
  5
17414
  8
0
 10
99.2150575476640739
 20
186.9757658285716957
 30
0.0
  0
VERTEX
  5
17415
  8
0
 10
99.171338942845594
 20
186.9438710865755979
 30
0.0
  0
VERTEX
  5
17416
  8
0
 10
99.1284234944285458
 20
186.9109604451622033
 30
0.0
  0
VERTEX
  5
17417
  8
0
 10
99.0863289309976238
 20
186.8770516329161069
 30
0.0
  0
VERTEX
  5
17418
  8
0
 10
99.0450729811374657
 20
186.8421623784219037
 30
0.0
  0
VERTEX
  5
17419
  8
0
 10
99.004673373432766
 20
186.8063104102643024
 30
0.0
  0
VERTEX
  5
1741A
  8
0
 10
98.9651478364680912
 20
186.7695134570278128
 30
0.0
  0
VERTEX
  5
1741B
  8
0
 10
98.9265140988281786
 20
186.7317892472973142
 30
0.0
  0
VERTEX
  5
1741C
  8
0
 10
98.8887898890977368
 20
186.6931555096574016
 30
0.0
  0
VERTEX
  5
1741D
  8
0
 10
98.8519929358613467
 20
186.6536299726928974
 30
0.0
  0
VERTEX
  5
1741E
  8
0
 10
98.8161409677037028
 20
186.6132303649881123
 30
0.0
  0
VERTEX
  5
1741F
  8
0
 10
98.781251713209457
 20
186.5719744151278121
 30
0.0
  0
VERTEX
  5
17420
  8
0
 10
98.7473429009633037
 20
186.5298798516969043
 30
0.0
  0
VERTEX
  5
17421
  8
0
 10
98.7144322595498949
 20
186.4869644032800124
 30
0.0
  0
VERTEX
  5
17422
  8
0
 10
98.6825375175538539
 20
186.4432457984615041
 30
0.0
  0
VERTEX
  5
17423
  8
0
 10
98.6516764035599039
 20
186.3987417658262871
 30
0.0
  0
VERTEX
  5
17424
  8
0
 10
98.6218666461526823
 20
186.3534700339590131
 30
0.0
  0
VERTEX
  5
17425
  8
0
 10
98.5931259739168837
 20
186.3074483314441068
 30
0.0
  0
VERTEX
  5
17426
  8
0
 10
98.5654721154371032
 20
186.2606943868665041
 30
0.0
  0
VERTEX
  5
17427
  8
0
 10
98.5389227992980636
 20
186.213225928810914
 30
0.0
  0
VERTEX
  5
17428
  8
0
 10
98.5134957540843459
 20
186.1650606858615902
 30
0.0
  0
VERTEX
  5
17429
  8
0
 10
98.4892087083807866
 20
186.11621638660381
 30
0.0
  0
VERTEX
  5
1742A
  8
0
 10
98.4660793907718812
 20
186.0667107596217136
 30
0.0
  0
VERTEX
  5
1742B
  8
0
 10
98.4441255298423101
 20
186.0165615335002087
 30
0.0
  0
VERTEX
  5
1742C
  8
0
 10
98.4233648541768389
 20
185.9657864368238052
 30
0.0
  0
VERTEX
  5
1742D
  8
0
 10
98.4038150923600341
 20
185.9144031981774958
 30
0.0
  0
VERTEX
  5
1742E
  8
0
 10
98.3854939729766329
 20
185.8624295461455063
 30
0.0
  0
VERTEX
  5
1742F
  8
0
 10
98.3684192246112872
 20
185.809883209312801
 30
0.0
  0
VERTEX
  5
17430
  8
0
 10
98.352608575848592
 20
185.7567819162638898
 30
0.0
  0
VERTEX
  5
17431
  8
0
 10
98.3380797552732844
 20
185.7031433955835951
 30
0.0
  0
VERTEX
  5
17432
  8
0
 10
98.3248504914699453
 20
185.6489853758563982
 30
0.0
  0
VERTEX
  5
17433
  8
0
 10
98.3129385130233402
 20
185.5943255856670078
 30
0.0
  0
VERTEX
  5
17434
  8
0
 10
98.3023615485181068
 20
185.5391817536003032
 30
0.0
  0
VERTEX
  5
17435
  8
0
 10
98.2931373265388544
 20
185.4835716082407089
 30
0.0
  0
VERTEX
  5
17436
  8
0
 10
98.285283575670249
 20
185.4275128781727915
 30
0.0
  0
VERTEX
  5
17437
  8
0
 10
98.2788180244969993
 20
185.3710232919816008
 30
0.0
  0
VERTEX
  5
17438
  8
0
 10
98.2737584016038284
 20
185.3141205782515044
 30
0.0
  0
VERTEX
  5
17439
  8
0
 10
98.2701224355752885
 20
185.2568224655672111
 30
0.0
  0
VERTEX
  5
1743A
  8
0
 10
98.2679278549959747
 20
185.1991466825134012
 30
0.0
  0
VERTEX
  5
1743B
  8
0
 10
98.26719238845088
 20
185.1411109576748117
 30
0.0
  0
VERTEX
  5
1743C
  8
0
 10
98.2679278549959747
 20
185.0830752328361086
 30
0.0
  0
VERTEX
  5
1743D
  8
0
 10
98.2701224355752885
 20
185.0253994497824124
 30
0.0
  0
VERTEX
  5
1743E
  8
0
 10
98.2737584016038284
 20
184.9681013370980907
 30
0.0
  0
VERTEX
  5
1743F
  8
0
 10
98.2788180244969993
 20
184.9111986233679943
 30
0.0
  0
VERTEX
  5
17440
  8
0
 10
98.285283575670249
 20
184.8547090371766899
 30
0.0
  0
VERTEX
  5
17441
  8
0
 10
98.2931373265388544
 20
184.7986503071089999
 30
0.0
  0
VERTEX
  5
17442
  8
0
 10
98.3023615485181068
 20
184.7430401617492066
 30
0.0
  0
VERTEX
  5
17443
  8
0
 10
98.3129385130233402
 20
184.6878963296823883
 30
0.0
  0
VERTEX
  5
17444
  8
0
 10
98.3248504914699453
 20
184.6332365394931969
 30
0.0
  0
VERTEX
  5
17445
  8
0
 10
98.3380797552732844
 20
184.579078519766
 30
0.0
  0
VERTEX
  5
17446
  8
0
 10
98.352608575848592
 20
184.5254399990857053
 30
0.0
  0
VERTEX
  5
17447
  8
0
 10
98.3684192246112872
 20
184.4723387060367941
 30
0.0
  0
VERTEX
  5
17448
  8
0
 10
98.3854939729766329
 20
184.4197923692040888
 30
0.0
  0
VERTEX
  5
17449
  8
0
 10
98.4038150923600341
 20
184.3678187171722129
 30
0.0
  0
VERTEX
  5
1744A
  8
0
 10
98.4233648541768389
 20
184.3164354785257046
 30
0.0
  0
VERTEX
  5
1744B
  8
0
 10
98.4441255298423101
 20
184.2656603818493011
 30
0.0
  0
VERTEX
  5
1744C
  8
0
 10
98.4660793907718812
 20
184.2155111557279099
 30
0.0
  0
VERTEX
  5
1744D
  8
0
 10
98.4892087083807866
 20
184.1660055287458135
 30
0.0
  0
VERTEX
  5
1744E
  8
0
 10
98.5134957540843459
 20
184.1171612294878059
 30
0.0
  0
VERTEX
  5
1744F
  8
0
 10
98.5389227992980636
 20
184.0689959865387095
 30
0.0
  0
VERTEX
  5
17450
  8
0
 10
98.5654721154371032
 20
184.0215275284830057
 30
0.0
  0
VERTEX
  5
17451
  8
0
 10
98.5931259739168837
 20
183.974773583905403
 30
0.0
  0
VERTEX
  5
17452
  8
0
 10
98.6218666461526823
 20
183.9287518813906956
 30
0.0
  0
VERTEX
  5
17453
  8
0
 10
98.6516764035599039
 20
183.883480149523308
 30
0.0
  0
VERTEX
  5
17454
  8
0
 10
98.6825375175538539
 20
183.8389761168880057
 30
0.0
  0
VERTEX
  5
17455
  8
0
 10
98.7144322595498949
 20
183.7952575120694974
 30
0.0
  0
VERTEX
  5
17456
  8
0
 10
98.7473429009633037
 20
183.7523420636526055
 30
0.0
  0
VERTEX
  5
17457
  8
0
 10
98.781251713209457
 20
183.7102475002216124
 30
0.0
  0
VERTEX
  5
17458
  8
0
 10
98.8161409677037028
 20
183.6689915503615111
 30
0.0
  0
VERTEX
  5
17459
  8
0
 10
98.8519929358613467
 20
183.6285919426566977
 30
0.0
  0
VERTEX
  5
1745A
  8
0
 10
98.8887898890977368
 20
183.5890664056921082
 30
0.0
  0
VERTEX
  5
1745B
  8
0
 10
98.9265140988281786
 20
183.5504326680521103
 30
0.0
  0
VERTEX
  5
1745C
  8
0
 10
98.9651478364680912
 20
183.512708458321697
 30
0.0
  0
VERTEX
  5
1745D
  8
0
 10
99.004673373432766
 20
183.4759115050852927
 30
0.0
  0
VERTEX
  5
1745E
  8
0
 10
99.0450729811374657
 20
183.4400595369276914
 30
0.0
  0
VERTEX
  5
1745F
  8
0
 10
99.0863289309976238
 20
183.4051702824334882
 30
0.0
  0
VERTEX
  5
17460
  8
0
 10
99.1284234944285458
 20
183.3712614701871928
 30
0.0
  0
VERTEX
  5
17461
  8
0
 10
99.171338942845594
 20
183.3383508287739119
 30
0.0
  0
VERTEX
  5
17462
  8
0
 10
99.2150575476640739
 20
183.3064560867778141
 30
0.0
  0
VERTEX
  5
17463
  8
0
 10
99.259561580299291
 20
183.2755949727838072
 30
0.0
  0
VERTEX
  5
17464
  8
0
 10
99.304833312166636
 20
183.2457852153767135
 30
0.0
  0
VERTEX
  5
17465
  8
0
 10
99.3508550146814429
 20
183.217044543140787
 30
0.0
  0
VERTEX
  5
17466
  8
0
 10
99.3976089592590029
 20
183.189390684661106
 30
0.0
  0
VERTEX
  5
17467
  8
0
 10
99.4450774173147067
 20
183.1628413685220949
 30
0.0
  0
VERTEX
  5
17468
  8
0
 10
99.4932426602638316
 20
183.1374143233084055
 30
0.0
  0
VERTEX
  5
17469
  8
0
 10
99.5420869595217823
 20
183.1131272776048036
 30
0.0
  0
VERTEX
  5
1746A
  8
0
 10
99.5915925865038645
 20
183.0899979599959124
 30
0.0
  0
VERTEX
  5
1746B
  8
0
 10
99.6417418126253551
 20
183.0680440990662134
 30
0.0
  0
VERTEX
  5
1746C
  8
0
 10
99.6925169093016876
 20
183.0472834234008133
 30
0.0
  0
VERTEX
  5
1746D
  8
0
 10
99.7439001479481249
 20
183.0277336615841079
 30
0.0
  0
VERTEX
  5
1746E
  8
0
 10
99.795873799980086
 20
183.0094125422006073
 30
0.0
  0
VERTEX
  5
1746F
  8
0
 10
99.8484201368127771
 20
182.9923377938353042
 30
0.0
  0
VERTEX
  5
17470
  8
0
 10
99.9015214298616314
 20
182.9765271450725947
 30
0.0
  0
VERTEX
  5
17471
  8
0
 10
99.9551599505419972
 20
182.9619983244971877
 30
0.0
  0
VERTEX
  5
17472
  8
0
 10
100.0093179702691941
 20
182.9487690606939907
 30
0.0
  0
VERTEX
  5
17473
  8
0
 10
100.0639777604584992
 20
182.9368570822473998
 30
0.0
  0
VERTEX
  5
17474
  8
0
 10
100.1191215925253033
 20
182.9262801177420954
 30
0.0
  0
VERTEX
  5
17475
  8
0
 10
100.1747317378848976
 20
182.9170558957627861
 30
0.0
  0
VERTEX
  5
17476
  8
0
 10
100.2307904679527013
 20
182.9092021448942944
 30
0.0
  0
VERTEX
  5
17477
  8
0
 10
100.2872800541440057
 20
182.9027365937209026
 30
0.0
  0
VERTEX
  5
17478
  8
0
 10
100.3441827678741021
 20
182.8976769708278027
 30
0.0
  0
VERTEX
  5
17479
  8
0
 10
100.4014808805583954
 20
182.8940410047993055
 30
0.0
  0
VERTEX
  5
1747A
  8
0
 10
100.4591566636122053
 20
182.8918464242200059
 30
0.0
  0
VERTEX
  5
1747B
  8
0
 10
100.5171923884507947
 20
182.8911109576748117
 30
0.0
  0
SEQEND
  5
1747C
  8
0
  0
POLYLINE
  5
16324
  8
0
 66
     1
 10
0.0
 20
0.0
 30
0.0
  0
VERTEX
  5
1747D
  8
0
 10
100.0981455491735943
 20
168.7864662018697004
 30
0.0
  0
VERTEX
  5
1747E
  8
0
 10
100.1689106759371981
 20
168.7855884863255937
 30
0.0
  0
VERTEX
  5
1747F
  8
0
 10
100.2394655252784048
 20
168.7829634086253918
 30
0.0
  0
VERTEX
  5
17480
  8
0
 10
100.3097808770098993
 20
168.7786030721669022
 30
0.0
  0
VERTEX
  5
17481
  8
0
 10
100.3798275109445939
 20
168.7725195803477902
 30
0.0
  0
VERTEX
  5
17482
  8
0
 10
100.4495762068952018
 20
168.7647250365660057
 30
0.0
  0
VERTEX
  5
17483
  8
0
 10
100.5189977446743939
 20
168.7552315442196118
 30
0.0
  0
VERTEX
  5
17484
  8
0
 10
100.5880629040951959
 20
168.7440512067059046
 30
0.0
  0
VERTEX
  5
17485
  8
0
 10
100.6567424649704066
 20
168.7311961274232033
 30
0.0
  0
VERTEX
  5
17486
  8
0
 10
100.725007207112796
 20
168.7166784097692016
 30
0.0
  0
VERTEX
  5
17487
  8
0
 10
100.7928279103350064
 20
168.7005101571415935
 30
0.0
  0
VERTEX
  5
17488
  8
0
 10
100.860175354450007
 20
168.6827034729383001
 30
0.0
  0
VERTEX
  5
17489
  8
0
 10
100.9270203192703974
 20
168.663270460557186
 30
0.0
  0
VERTEX
  5
1748A
  8
0
 10
100.993333584609303
 20
168.642223223396087
 30
0.0
  0
VERTEX
  5
1748B
  8
0
 10
101.059085930279295
 20
168.6195738648526969
 30
0.0
  0
VERTEX
  5
1748C
  8
0
 10
101.1242481360932004
 20
168.595334488325193
 30
0.0
  0
VERTEX
  5
1748D
  8
0
 10
101.1887909818638036
 20
168.5695171972110131
 30
0.0
  0
VERTEX
  5
1748E
  8
0
 10
101.2526852474040027
 20
168.5421340949081923
 30
0.0
  0
VERTEX
  5
1748F
  8
0
 10
101.3159017125265962
 20
168.5131972848145097
 30
0.0
  0
VERTEX
  5
17490
  8
0
 10
101.3784111570441979
 20
168.4827188703278011
 30
0.0
  0
VERTEX
  5
17491
  8
0
 10
101.440184360769706
 20
168.4507109548459027
 30
0.0
  0
VERTEX
  5
17492
  8
0
 10
101.5011921035160043
 20
168.4171856417667925
 30
0.0
  0
VERTEX
  5
17493
  8
0
 10
101.5614051650959055
 20
168.3821550344879938
 30
0.0
  0
VERTEX
  5
17494
  8
0
 10
101.6207943253219952
 20
168.3456312364077121
 30
0.0
  0
VERTEX
  5
17495
  8
0
 10
101.6793303640073987
 20
168.3076263509234991
 30
0.0
  0
VERTEX
  5
17496
  8
0
 10
101.7369840609647014
 20
168.2681524814333045
 30
0.0
  0
VERTEX
  5
17497
  8
0
 10
101.7937261960068014
 20
168.2272217313349074
 30
0.0
  0
VERTEX
  5
17498
  8
0
 10
101.8495275489462983
 20
168.184846204026087
 30
0.0
  0
VERTEX
  5
17499
  8
0
 10
101.904358899596204
 20
168.1410380029047928
 30
0.0
  0
VERTEX
  5
1749A
  8
0
 10
101.9581910277692032
 20
168.0958092313688894
 30
0.0
  0
VERTEX
  5
1749B
  8
0
 10
102.010994713278194
 20
168.049171992816099
 30
0.0
  0
VERTEX
  5
1749C
  8
0
 10
102.062740735935904
 20
168.0011383906442859
 30
0.0
  0
VERTEX
  5
1749D
  8
0
 10
102.1133998755551033
 20
167.9517205282513999
 30
0.0
  0
VERTEX
  5
1749E
  8
0
 10
102.1628177379481031
 20
167.9010613886320016
 30
0.0
  0
VERTEX
  5
1749F
  8
0
 10
102.2108513401200014
 20
167.8493153659744053
 30
0.0
  0
VERTEX
  5
174A0
  8
0
 10
102.2574885786727066
 20
167.796511680465386
 30
0.0
  0
VERTEX
  5
174A1
  8
0
 10
102.3027173502085958
 20
167.742679552292401
 30
0.0
  0
VERTEX
  5
174A2
  8
0
 10
102.3465255513299041
 20
167.6878482016425096
 30
0.0
  0
VERTEX
  5
174A3
  8
0
 10
102.3889010786386962
 20
167.6320468487029132
 30
0.0
  0
VERTEX
  5
174A4
  8
0
 10
102.4298318287370932
 20
167.5753047136608131
 30
0.0
  0
VERTEX
  5
174A5
  8
0
 10
102.4693056982273021
 20
167.5176510167036952
 30
0.0
  0
VERTEX
  5
174A6
  8
0
 10
102.5073105837115008
 20
167.4591149780183912
 30
0.0
  0
VERTEX
  5
174A7
  8
0
 10
102.5438343817917968
 20
167.3997258177921879
 30
0.0
  0
VERTEX
  5
174A8
  8
0
 10
102.5788649890705955
 20
167.3395127562122866
 30
0.0
  0
VERTEX
  5
174A9
  8
0
 10
102.6123903021499046
 20
167.2785050134658889
 30
0.0
  0
VERTEX
  5
174AA
  8
0
 10
102.6443982176317036
 20
167.216731809740395
 30
0.0
  0
VERTEX
  5
174AB
  8
0
 10
102.6748766321183979
 20
167.1542223652226937
 30
0.0
  0
VERTEX
  5
174AC
  8
0
 10
102.7038134422119953
 20
167.0910059001002139
 30
0.0
  0
VERTEX
  5
174AD
  8
0
 10
102.7311965445149013
 20
167.0271116345601001
 30
0.0
  0
VERTEX
  5
174AE
  8
0
 10
102.7570138356289959
 20
166.9625687887894117
 30
0.0
  0
VERTEX
  5
174AF
  8
0
 10
102.7812532121565994
 20
166.8974065829754068
 30
0.0
  0
VERTEX
  5
174B0
  8
0
 10
102.8039025706999041
 20
166.8316542373054858
 30
0.0
  0
VERTEX
  5
174B1
  8
0
 10
102.8249498078611026
 20
166.7653409719667081
 30
0.0
  0
VERTEX
  5
174B2
  8
0
 10
102.8443828202422026
 20
166.6984960071461899
 30
0.0
  0
VERTEX
  5
174B3
  8
0
 10
102.8621895044454959
 20
166.631148563031104
 30
0.0
  0
VERTEX
  5
174B4
  8
0
 10
102.878357757073104
 20
166.563327859808993
 30
0.0
  0
VERTEX
  5
174B5
  8
0
 10
102.8928754747272052
 20
166.4950631176666889
 30
0.0
  0
VERTEX
  5
174B6
  8
0
 10
102.9057305540099065
 20
166.4263835567915066
 30
0.0
  0
VERTEX
  5
174B7
  8
0
 10
102.9169108915235
 20
166.3573183973705909
 30
0.0
  0
VERTEX
  5
174B8
  8
0
 10
102.926404383870107
 20
166.2878968595913136
 30
0.0
  0
VERTEX
  5
174B9
  8
0
 10
102.9341989276518063
 20
166.2181481636407057
 30
0.0
  0
VERTEX
  5
174BA
  8
0
 10
102.9402824194708046
 20
166.1481015297061106
 30
0.0
  0
VERTEX
  5
174BB
  8
0
 10
102.9446427559293937
 20
166.0777861779745876
 30
0.0
  0
VERTEX
  5
174BC
  8
0
 10
102.9472678336295957
 20
166.0072313286333952
 30
0.0
  0
VERTEX
  5
174BD
  8
0
 10
102.9481455491736028
 20
165.9364662018697061
 30
0.0
  0
VERTEX
  5
174BE
  8
0
 10
102.9472678336295957
 20
165.8657010751061023
 30
0.0
  0
VERTEX
  5
174BF
  8
0
 10
102.9446427559293937
 20
165.7951462257647961
 30
0.0
  0
VERTEX
  5
174C0
  8
0
 10
102.9402824194708046
 20
165.7248308740333016
 30
0.0
  0
VERTEX
  5
174C1
  8
0
 10
102.9341989276518063
 20
165.6547842400985928
 30
0.0
  0
VERTEX
  5
174C2
  8
0
 10
102.926404383870107
 20
165.5850355441480986
 30
0.0
  0
VERTEX
  5
174C3
  8
0
 10
102.9169108915235
 20
165.5156140063687928
 30
0.0
  0
VERTEX
  5
174C4
  8
0
 10
102.9057305540099065
 20
165.4465488469477918
 30
0.0
  0
VERTEX
  5
174C5
  8
0
 10
102.8928754747272052
 20
165.3778692860728086
 30
0.0
  0
VERTEX
  5
174C6
  8
0
 10
102.878357757073104
 20
165.3096045439305044
 30
0.0
  0
VERTEX
  5
174C7
  8
0
 10
102.8621895044454959
 20
165.2417838407081945
 30
0.0
  0
VERTEX
  5
174C8
  8
0
 10
102.8443828202422026
 20
165.1744363965931939
 30
0.0
  0
VERTEX
  5
174C9
  8
0
 10
102.8249498078611026
 20
165.107591431772704
 30
0.0
  0
VERTEX
  5
174CA
  8
0
 10
102.8039025707000036
 20
165.0412781664338979
 30
0.0
  0
VERTEX
  5
174CB
  8
0
 10
102.7812532121565994
 20
164.9755258207638917
 30
0.0
  0
VERTEX
  5
174CC
  8
0
 10
102.7570138356289959
 20
164.9103636149500005
 30
0.0
  0
VERTEX
  5
174CD
  8
0
 10
102.7311965445149013
 20
164.8458207691793973
 30
0.0
  0
VERTEX
  5
174CE
  8
0
 10
102.7038134422120947
 20
164.7819265036391982
 30
0.0
  0
VERTEX
  5
174CF
  8
0
 10
102.6748766321183979
 20
164.71871003851669
 30
0.0
  0
VERTEX
  5
174D0
  8
0
 10
102.644398217631803
 20
164.6562005939991025
 30
0.0
  0
VERTEX
  5
174D1
  8
0
 10
102.6123903021499046
 20
164.5944273902734949
 30
0.0
  0
VERTEX
  5
174D2
  8
0
 10
102.5788649890707944
 20
164.5334196475270119
 30
0.0
  0
VERTEX
  5
174D3
  8
0
 10
102.5438343817919957
 20
164.4732065859473096
 30
0.0
  0
VERTEX
  5
174D4
  8
0
 10
102.5073105837116003
 20
164.4138174257211062
 30
0.0
  0
VERTEX
  5
174D5
  8
0
 10
102.4693056982274015
 20
164.3552813870356033
 30
0.0
  0
VERTEX
  5
174D6
  8
0
 10
102.4298318287372069
 20
164.2976276900785138
 30
0.0
  0
VERTEX
  5
174D7
  8
0
 10
102.3889010786387956
 20
164.2408855550364137
 30
0.0
  0
VERTEX
  5
174D8
  8
0
 10
102.3465255513300036
 20
164.1850842020969026
 30
0.0
  0
VERTEX
  5
174D9
  8
0
 10
102.3027173502087948
 20
164.1302528514470112
 30
0.0
  0
VERTEX
  5
174DA
  8
0
 10
102.2574885786728061
 20
164.0764207232739977
 30
0.0
  0
VERTEX
  5
174DB
  8
0
 10
102.2108513401201009
 20
164.0236170377650069
 30
0.0
  0
VERTEX
  5
174DC
  8
0
 10
102.162817737948302
 20
163.9718710151072116
 30
0.0
  0
VERTEX
  5
174DD
  8
0
 10
102.1133998755552028
 20
163.9212118754880123
 30
0.0
  0
VERTEX
  5
174DE
  8
0
 10
102.062740735935904
 20
163.8717940130950126
 30
0.0
  0
VERTEX
  5
174DF
  8
0
 10
102.010994713278194
 20
163.8237604109233132
 30
0.0
  0
VERTEX
  5
174E0
  8
0
 10
101.9581910277692032
 20
163.7771231723704943
 30
0.0
  0
VERTEX
  5
174E1
  8
0
 10
101.9043588995963034
 20
163.7318944008345909
 30
0.0
  0
VERTEX
  5
174E2
  8
0
 10
101.8495275489462983
 20
163.6880861997132115
 30
0.0
  0
VERTEX
  5
174E3
  8
0
 10
101.7937261960068014
 20
163.64571067240459
 30
0.0
  0
VERTEX
  5
174E4
  8
0
 10
101.7369840609648008
 20
163.6047799223061077
 30
0.0
  0
VERTEX
  5
174E5
  8
0
 10
101.6793303640074981
 20
163.5653060528159131
 30
0.0
  0
VERTEX
  5
174E6
  8
0
 10
101.6207943253221941
 20
163.5273011673317001
 30
0.0
  0
VERTEX
  5
174E7
  8
0
 10
101.561405165096005
 20
163.4907773692513047
 30
0.0
  0
VERTEX
  5
174E8
  8
0
 10
101.5011921035161038
 20
163.4557467619725912
 30
0.0
  0
VERTEX
  5
174E9
  8
0
 10
101.4401843607698055
 20
163.4222214488933957
 30
0.0
  0
VERTEX
  5
174EA
  8
0
 10
101.3784111570441979
 20
163.390213533411611
 30
0.0
  0
VERTEX
  5
174EB
  8
0
 10
101.3159017125265962
 20
163.3597351189249025
 30
0.0
  0
VERTEX
  5
174EC
  8
0
 10
101.2526852474040027
 20
163.3307983088311914
 30
0.0
  0
VERTEX
  5
174ED
  8
0
 10
101.1887909818638036
 20
163.303415206528399
 30
0.0
  0
VERTEX
  5
174EE
  8
0
 10
101.1242481360932004
 20
163.2775979154143045
 30
0.0
  0
VERTEX
  5
174EF
  8
0
 10
101.059085930279295
 20
163.2533585388866015
 30
0.0
  0
VERTEX
  5
174F0
  8
0
 10
100.993333584609303
 20
163.2307091803432968
 30
0.0
  0
VERTEX
  5
174F1
  8
0
 10
100.9270203192703974
 20
163.2096619431821978
 30
0.0
  0
VERTEX
  5
174F2
  8
0
 10
100.860175354450007
 20
163.190228930801112
 30
0.0
  0
VERTEX
  5
174F3
  8
0
 10
100.7928279103350064
 20
163.1724222465977903
 30
0.0
  0
VERTEX
  5
174F4
  8
0
 10
100.7250072071126965
 20
163.1562539939702106
 30
0.0
  0
VERTEX
  5
174F5
  8
0
 10
100.6567424649704066
 20
163.1417362763160952
 30
0.0
  0
VERTEX
  5
174F6
  8
0
 10
100.5880629040951959
 20
163.1288811970333938
 30
0.0
  0
VERTEX
  5
174F7
  8
0
 10
100.5189977446743939
 20
163.1177008595198004
 30
0.0
  0
VERTEX
  5
174F8
  8
0
 10
100.4495762068951024
 20
163.1082073671730939
 30
0.0
  0
VERTEX
  5
174F9
  8
0
 10
100.3798275109443949
 20
163.1004128233915083
 30
0.0
  0
VERTEX
  5
174FA
  8
0
 10
100.3097808770098993
 20
163.09432933157251
 30
0.0
  0
VERTEX
  5
174FB
  8
0
 10
100.2394655252784048
 20
163.0899689951139067
 30
0.0
  0
VERTEX
  5
174FC
  8
0
 10
100.1689106759371981
 20
163.08734391741379
 30
0.0
  0
VERTEX
  5
174FD
  8
0
 10
100.0981455491735943
 20
163.0864662018697118
 30
0.0
  0
SEQEND
  5
174FE
  8
0
  0
POLYLINE
  5
16325
  8
0
 66
     1
 10
0.0
 20
0.0
 30
0.0
  0
VERTEX
  5
174FF
  8
0
 10
100.0981455491735943
 20
163.0864662018697118
 30
0.0
  0
VERTEX
  5
17500
  8
0
 10
100.024633631044594
 20
163.0873977928268914
 30
0.0
  0
VERTEX
  5
17501
  8
0
 10
99.9515776391764774
 20
163.0901775948939871
 30
0.0
  0
VERTEX
  5
17502
  8
0
 10
99.8790000297764067
 20
163.0947831518635098
 30
0.0
  0
VERTEX
  5
17503
  8
0
 10
99.8069232590516009
 20
163.1011920075281978
 30
0.0
  0
VERTEX
  5
17504
  8
0
 10
99.7353697832092934
 20
163.1093817056809883
 30
0.0
  0
VERTEX
  5
17505
  8
0
 10
99.6643620584568168
 20
163.1193297901145058
 30
0.0
  0
VERTEX
  5
17506
  8
0
 10
99.5939225410012483
 20
163.1310138046214036
 30
0.0
  0
VERTEX
  5
17507
  8
0
 10
99.5240736870499632
 20
163.1444112929949029
 30
0.0
  0
VERTEX
  5
17508
  8
0
 10
99.4548379528101947
 20
163.159499799027202
 30
0.0
  0
VERTEX
  5
17509
  8
0
 10
99.3862377944891051
 20
163.1762568665114088
 30
0.0
  0
VERTEX
  5
1750A
  8
0
 10
99.3182956682939846
 20
163.1946600392402047
 30
0.0
  0
VERTEX
  5
1750B
  8
0
 10
99.2510340304320948
 20
163.2146868610061858
 30
0.0
  0
VERTEX
  5
1750C
  8
0
 10
99.1844753371105838
 20
163.2363148756024032
 30
0.0
  0
VERTEX
  5
1750D
  8
0
 10
99.118642044536827
 20
163.259521626821396
 30
0.0
  0
VERTEX
  5
1750E
  8
0
 10
99.0535566089180293
 20
163.2842846584559027
 30
0.0
  0
VERTEX
  5
1750F
  8
0
 10
98.9892414864613812
 20
163.3105815142988888
 30
0.0
  0
VERTEX
  5
17510
  8
0
 10
98.9257191333740451
 20
163.3383897381430074
 30
0.0
  0
VERTEX
  5
17511
  8
0
 10
98.8630120058634816
 20
163.3676868737809116
 30
0.0
  0
VERTEX
  5
17512
  8
0
 10
98.8011425601367819
 20
163.3984504650055101
 30
0.0
  0
VERTEX
  5
17513
  8
0
 10
98.740133252401165
 20
163.4306580556095128
 30
0.0
  0
VERTEX
  5
17514
  8
0
 10
98.6800065388639638
 20
163.4642871893856011
 30
0.0
  0
VERTEX
  5
17515
  8
0
 10
98.6207848757323973
 20
163.4993154101265986
 30
0.0
  0
VERTEX
  5
17516
  8
0
 10
98.5624907192136277
 20
163.5357202616254142
 30
0.0
  0
VERTEX
  5
17517
  8
0
 10
98.5051465255149878
 20
163.5734792876745018
 30
0.0
  0
VERTEX
  5
17518
  8
0
 10
98.4487747508437252
 20
163.6125700320669125
 30
0.0
  0
VERTEX
  5
17519
  8
0
 10
98.3933978514069594
 20
163.6529700385951003
 30
0.0
  0
VERTEX
  5
1751A
  8
0
 10
98.3390382834120373
 20
163.6946568510522013
 30
0.0
  0
VERTEX
  5
1751B
  8
0
 10
98.285718503066235
 20
163.7376080132306129
 30
0.0
  0
VERTEX
  5
1751C
  8
0
 10
98.2334609665766862
 20
163.7818010689233006
 30
0.0
  0
VERTEX
  5
1751D
  8
0
 10
98.1822881301506669
 20
163.8272135619230028
 30
0.0
  0
VERTEX
  5
1751E
  8
0
 10
98.1322224499954245
 20
163.8738230360224009
 30
0.0
  0
VERTEX
  5
1751F
  8
0
 10
98.0832863823182635
 20
163.92160703501429
 30
0.0
  0
VERTEX
  5
17520
  8
0
 10
98.0355023833263317
 20
163.9705431026914937
 30
0.0
  0
VERTEX
  5
17521
  8
0
 10
97.9888929092268768
 20
164.0206087828468071
 30
0.0
  0
VERTEX
  5
17522
  8
0
 10
97.943480416227203
 20
164.071781619272798
 30
0.0
  0
VERTEX
  5
17523
  8
0
 10
97.8992873605345437
 20
164.1240391557622047
 30
0.0
  0
VERTEX
  5
17524
  8
0
 10
97.8563361983560043
 20
164.1773589361079928
 30
0.0
  0
VERTEX
  5
17525
  8
0
 10
97.8146493858990453
 20
164.2317185041029006
 30
0.0
  0
VERTEX
  5
17526
  8
0
 10
97.7742493793707723
 20
164.2870954035398086
 30
0.0
  0
VERTEX
  5
17527
  8
0
 10
97.7351586349784043
 20
164.3434671782111138
 30
0.0
  0
VERTEX
  5
17528
  8
0
 10
97.697399608929274
 20
164.4008113719096968
 30
0.0
  0
VERTEX
  5
17529
  8
0
 10
97.6609947574305579
 20
164.4591055284284948
 30
0.0
  0
VERTEX
  5
1752A
  8
0
 10
97.6259665366895177
 20
164.5183271915599903
 30
0.0
  0
VERTEX
  5
1752B
  8
0
 10
97.5923374029133441
 20
164.5784539050972057
 30
0.0
  0
VERTEX
  5
1752C
  8
0
 10
97.5601298123093983
 20
164.6394632128329079
 30
0.0
  0
VERTEX
  5
1752D
  8
0
 10
97.5293662210848282
 20
164.7013326585596076
 30
0.0
  0
VERTEX
  5
1752E
  8
0
 10
97.5000690854468957
 20
164.7640397860702137
 30
0.0
  0
VERTEX
  5
1752F
  8
0
 10
97.4722608616028054
 20
164.8275621391574077
 30
0.0
  0
VERTEX
  5
17530
  8
0
 10
97.4459640057598762
 20
164.8918772616140132
 30
0.0
  0
VERTEX
  5
17531
  8
0
 10
97.4212009741252842
 20
164.9569626972329104
 30
0.0
  0
VERTEX
  5
17532
  8
0
 10
97.397994222906263
 20
165.0227959898066956
 30
0.0
  0
VERTEX
  5
17533
  8
0
 10
97.3763662083101167
 20
165.0893546831281924
 30
0.0
  0
VERTEX
  5
17534
  8
0
 10
97.3563393865440219
 20
165.1566163209901106
 30
0.0
  0
VERTEX
  5
17535
  8
0
 10
97.3379362138153539
 20
165.2245584471851885
 30
0.0
  0
VERTEX
  5
17536
  8
0
 10
97.3211791463311471
 20
165.2931586055063065
 30
0.0
  0
VERTEX
  5
17537
  8
0
 10
97.3060906402987484
 20
165.3623943397460039
 30
0.0
  0
VERTEX
  5
17538
  8
0
 10
97.2926931519254623
 20
165.4322431936973032
 30
0.0
  0
VERTEX
  5
17539
  8
0
 10
97.2810091374183941
 20
165.502682711152886
 30
0.0
  0
VERTEX
  5
1753A
  8
0
 10
97.2710610529848907
 20
165.5736904359054051
 30
0.0
  0
VERTEX
  5
1753B
  8
0
 10
97.2628713548321286
 20
165.6452439117477127
 30
0.0
  0
VERTEX
  5
1753C
  8
0
 10
97.2564624991673554
 20
165.71732068247249
 30
0.0
  0
VERTEX
  5
1753D
  8
0
 10
97.2518569421978327
 20
165.7898982918725039
 30
0.0
  0
VERTEX
  5
1753E
  8
0
 10
97.2490771401308507
 20
165.8629542837406063
 30
0.0
  0
VERTEX
  5
1753F
  8
0
 10
97.2481455491735858
 20
165.9364662018695924
 30
0.0
  0
VERTEX
  5
17540
  8
0
 10
97.2490771401308081
 20
166.0099781199986069
 30
0.0
  0
VERTEX
  5
17541
  8
0
 10
97.2518569421977617
 20
166.0830341118667945
 30
0.0
  0
VERTEX
  5
17542
  8
0
 10
97.2564624991672986
 20
166.1556117212668084
 30
0.0
  0
VERTEX
  5
17543
  8
0
 10
97.2628713548320434
 20
166.2276884919916995
 30
0.0
  0
VERTEX
  5
17544
  8
0
 10
97.2710610529848054
 20
166.2992419678338933
 30
0.0
  0
VERTEX
  5
17545
  8
0
 10
97.2810091374183088
 20
166.3702496925864978
 30
0.0
  0
VERTEX
  5
17546
  8
0
 10
97.2926931519254055
 20
166.4406892100419952
 30
0.0
  0
VERTEX
  5
17547
  8
0
 10
97.3060906402987058
 20
166.5105380639932946
 30
0.0
  0
VERTEX
  5
17548
  8
0
 10
97.321179146331076
 20
166.579773798232992
 30
0.0
  0
VERTEX
  5
17549
  8
0
 10
97.337936213815297
 20
166.64837395655411
 30
0.0
  0
VERTEX
  5
1754A
  8
0
 10
97.3563393865439934
 20
166.7163160827493016
 30
0.0
  0
VERTEX
  5
1754B
  8
0
 10
97.3763662083100741
 20
166.7835777206111914
 30
0.0
  0
VERTEX
  5
1754C
  8
0
 10
97.3979942229062345
 20
166.8501364139326029
 30
0.0
  0
VERTEX
  5
1754D
  8
0
 10
97.421200974125199
 20
166.9159697065063028
 30
0.0
  0
VERTEX
  5
1754E
  8
0
 10
97.4459640057598619
 20
166.9810551421250864
 30
0.0
  0
VERTEX
  5
1754F
  8
0
 10
97.4722608616027344
 20
167.0453702645818908
 30
0.0
  0
VERTEX
  5
17550
  8
0
 10
97.5000690854468246
 20
167.1088926176691132
 30
0.0
  0
VERTEX
  5
17551
  8
0
 10
97.5293662210847856
 20
167.1715997451798046
 30
0.0
  0
VERTEX
  5
17552
  8
0
 10
97.5601298123093841
 20
167.2334691909065043
 30
0.0
  0
VERTEX
  5
17553
  8
0
 10
97.5923374029132731
 20
167.2944784986420075
 30
0.0
  0
VERTEX
  5
17554
  8
0
 10
97.6259665366894751
 20
167.3546052121793082
 30
0.0
  0
VERTEX
  5
17555
  8
0
 10
97.6609947574305011
 20
167.4138268753108036
 30
0.0
  0
VERTEX
  5
17556
  8
0
 10
97.697399608929274
 20
167.4721210318296016
 30
0.0
  0
VERTEX
  5
17557
  8
0
 10
97.735158634978319
 20
167.5294652255282131
 30
0.0
  0
VERTEX
  5
17558
  8
0
 10
97.7742493793707013
 20
167.5858370001996036
 30
0.0
  0
VERTEX
  5
17559
  8
0
 10
97.8146493858989743
 20
167.6412138996363126
 30
0.0
  0
VERTEX
  5
1755A
  8
0
 10
97.8563361983559616
 20
167.695573467631192
 30
0.0
  0
VERTEX
  5
1755B
  8
0
 10
97.8992873605344727
 20
167.7488932479770085
 30
0.0
  0
VERTEX
  5
1755C
  8
0
 10
97.943480416227132
 20
167.8011507844666141
 30
0.0
  0
VERTEX
  5
1755D
  8
0
 10
97.9888929092268199
 20
167.852323620892605
 30
0.0
  0
VERTEX
  5
1755E
  8
0
 10
98.0355023833262749
 20
167.9023893010478048
 30
0.0
  0
VERTEX
  5
1755F
  8
0
 10
98.0832863823182066
 20
167.9513253687250085
 30
0.0
  0
VERTEX
  5
17560
  8
0
 10
98.1322224499953535
 20
167.9991093677168124
 30
0.0
  0
VERTEX
  5
17561
  8
0
 10
98.1822881301506101
 20
168.0457188418164094
 30
0.0
  0
VERTEX
  5
17562
  8
0
 10
98.2334609665766152
 20
168.0911313348159979
 30
0.0
  0
VERTEX
  5
17563
  8
0
 10
98.285718503066164
 20
168.135324390508714
 30
0.0
  0
VERTEX
  5
17564
  8
0
 10
98.3390382834119947
 20
168.1782755526872108
 30
0.0
  0
VERTEX
  5
17565
  8
0
 10
98.3933978514069167
 20
168.2199623651441982
 30
0.0
  0
VERTEX
  5
17566
  8
0
 10
98.4487747508436541
 20
168.260362371672386
 30
0.0
  0
VERTEX
  5
17567
  8
0
 10
98.5051465255149452
 20
168.2994531160647966
 30
0.0
  0
VERTEX
  5
17568
  8
0
 10
98.5624907192136135
 20
168.3372121421139127
 30
0.0
  0
VERTEX
  5
17569
  8
0
 10
98.6207848757323546
 20
168.3736169936126998
 30
0.0
  0
VERTEX
  5
1756A
  8
0
 10
98.6800065388639069
 20
168.4086452143536974
 30
0.0
  0
VERTEX
  5
1756B
  8
0
 10
98.7401332524011366
 20
168.4422743481298994
 30
0.0
  0
VERTEX
  5
1756C
  8
0
 10
98.801142560136725
 20
168.4744819387337884
 30
0.0
  0
VERTEX
  5
1756D
  8
0
 10
98.8630120058634247
 20
168.5052455299583869
 30
0.0
  0
VERTEX
  5
1756E
  8
0
 10
98.9257191333740025
 20
168.5345426655962058
 30
0.0
  0
VERTEX
  5
1756F
  8
0
 10
98.9892414864613102
 20
168.5623508894404097
 30
0.0
  0
VERTEX
  5
17570
  8
0
 10
99.0535566089180008
 20
168.5886477452833105
 30
0.0
  0
VERTEX
  5
17571
  8
0
 10
99.1186420445367844
 20
168.6134107769179877
 30
0.0
  0
VERTEX
  5
17572
  8
0
 10
99.1844753371105412
 20
168.636617528137009
 30
0.0
  0
VERTEX
  5
17573
  8
0
 10
99.2510340304320522
 20
168.6582455427331126
 30
0.0
  0
VERTEX
  5
17574
  8
0
 10
99.3182956682939562
 20
168.6782723644992075
 30
0.0
  0
VERTEX
  5
17575
  8
0
 10
99.3862377944890341
 20
168.6966755372278897
 30
0.0
  0
VERTEX
  5
17576
  8
0
 10
99.4548379528101236
 20
168.7134326047120965
 30
0.0
  0
VERTEX
  5
17577
  8
0
 10
99.5240736870499063
 20
168.7285211107445093
 30
0.0
  0
VERTEX
  5
17578
  8
0
 10
99.593922541001163
 20
168.7419185991178097
 30
0.0
  0
VERTEX
  5
17579
  8
0
 10
99.6643620584567458
 20
168.7536026136249063
 30
0.0
  0
VERTEX
  5
1757A
  8
0
 10
99.7353697832092365
 20
168.7635506980583955
 30
0.0
  0
VERTEX
  5
1757B
  8
0
 10
99.8069232590515156
 20
168.7717403962111007
 30
0.0
  0
VERTEX
  5
1757C
  8
0
 10
99.879000029776364
 20
168.7781492518759023
 30
0.0
  0
VERTEX
  5
1757D
  8
0
 10
99.9515776391764632
 20
168.7827548088453966
 30
0.0
  0
VERTEX
  5
1757E
  8
0
 10
100.024633631044594
 20
168.7855346109124071
 30
0.0
  0
VERTEX
  5
1757F
  8
0
 10
100.0981455491735943
 20
168.7864662018697004
 30
0.0
  0
SEQEND
  5
17580
  8
0
  0
POLYLINE
  5
16326
  8
0
 66
     1
 10
0.0
 20
0.0
 30
0.0
  0
VERTEX
  5
17581
  8
0
 10
100.0981455491735943
 20
163.6864662018697061
 30
0.0
  0
VERTEX
  5
17582
  8
0
 10
100.1540127545133032
 20
163.6871591351938946
 30
0.0
  0
VERTEX
  5
17583
  8
0
 10
100.2097139513616071
 20
163.689231564957197
 30
0.0
  0
VERTEX
  5
17584
  8
0
 10
100.2652260711496979
 20
163.6926739358455904
 30
0.0
  0
VERTEX
  5
17585
  8
0
 10
100.320526045308597
 20
163.6974766925447966
 30
0.0
  0
VERTEX
  5
17586
  8
0
 10
100.3755908052695958
 20
163.7036302797409064
 30
0.0
  0
VERTEX
  5
17587
  8
0
 10
100.4303972824638009
 20
163.7111251421198119
 30
0.0
  0
VERTEX
  5
17588
  8
0
 10
100.4849224083224044
 20
163.7199517243672915
 30
0.0
  0
VERTEX
  5
17589
  8
0
 10
100.5391431142764986
 20
163.7301004711694929
 30
0.0
  0
VERTEX
  5
1758A
  8
0
 10
100.5930363317572045
 20
163.7415618272121947
 30
0.0
  0
VERTEX
  5
1758B
  8
0
 10
100.6465789921957992
 20
163.7543262371814023
 30
0.0
  0
VERTEX
  5
1758C
  8
0
 10
100.699748027023503
 20
163.7683841457628091
 30
0.0
  0
VERTEX
  5
1758D
  8
0
 10
100.7525203676711953
 20
163.7837259976427049
 30
0.0
  0
VERTEX
  5
1758E
  8
0
 10
100.8048729455702954
 20
163.8003422375068112
 30
0.0
  0
VERTEX
  5
1758F
  8
0
 10
100.8567826921517963
 20
163.8182233100407927
 30
0.0
  0
VERTEX
  5
17590
  8
0
 10
100.9082265388471029
 20
163.8373596599311952
 30
0.0
  0
VERTEX
  5
17591
  8
0
 10
100.9591814170869952
 20
163.8577417318633991
 30
0.0
  0
VERTEX
  5
17592
  8
0
 10
101.0096242583030062
 20
163.8793599705234953
 30
0.0
  0
VERTEX
  5
17593
  8
0
 10
101.0595319939260008
 20
163.9022048205974897
 30
0.0
  0
VERTEX
  5
17594
  8
0
 10
101.108881555387299
 20
163.9262667267711038
 30
0.0
  0
VERTEX
  5
17595
  8
0
 10
101.1576498741179932
 20
163.9515361337305137
 30
0.0
  0
VERTEX
  5
17596
  8
0
 10
101.2058138815493038
 20
163.9780034861614126
 30
0.0
  0
VERTEX
  5
17597
  8
0
 10
101.2533505091123942
 20
164.0056592287498063
 30
0.0
  0
VERTEX
  5
17598
  8
0
 10
101.3002366882383001
 20
164.0344938061818141
 30
0.0
  0
VERTEX
  5
17599
  8
0
 10
101.3464493503582986
 20
164.0644976631429017
 30
0.0
  0
VERTEX
  5
1759A
  8
0
 10
101.391965426903397
 20
164.0956612443195013
 30
0.0
  0
VERTEX
  5
1759B
  8
0
 10
101.4367618493050998
 20
164.1279749943971922
 30
0.0
  0
VERTEX
  5
1759C
  8
0
 10
101.480815548994201
 20
164.1614293580620085
 30
0.0
  0
VERTEX
  5
1759D
  8
0
 10
101.5241034574021057
 20
164.196014779999814
 30
0.0
  0
VERTEX
  5
1759E
  8
0
 10
101.5666025059596933
 20
164.2317217048965006
 30
0.0
  0
VERTEX
  5
1759F
  8
0
 10
101.6082896260983972
 20
164.2685405774383014
 30
0.0
  0
VERTEX
  5
175A0
  8
0
 10
101.6491417492491962
 20
164.3064618423107959
 30
0.0
  0
VERTEX
  5
175A1
  8
0
 10
101.6891358068432965
 20
164.3454759441999045
 30
0.0
  0
VERTEX
  5
175A2
  8
0
 10
101.728149908732405
 20
164.38547000179409
 30
0.0
  0
VERTEX
  5
175A3
  8
0
 10
101.7660711736048
 20
164.4263221249449884
 30
0.0
  0
VERTEX
  5
175A4
  8
0
 10
101.8028900461466009
 20
164.4680092450836071
 30
0.0
  0
VERTEX
  5
175A5
  8
0
 10
101.8385969710434011
 20
164.5105082936412089
 30
0.0
  0
VERTEX
  5
175A6
  8
0
 10
101.8731823929812066
 20
164.5537962020491136
 30
0.0
  0
VERTEX
  5
175A7
  8
0
 10
101.9066367566459945
 20
164.5978499017381864
 30
0.0
  0
VERTEX
  5
175A8
  8
0
 10
101.9389505067236996
 20
164.6426463241398039
 30
0.0
  0
VERTEX
  5
175A9
  8
0
 10
101.9701140879001997
 20
164.6881624006850018
 30
0.0
  0
VERTEX
  5
175AA
  8
0
 10
102.0001179448615005
 20
164.7343750628049861
 30
0.0
  0
VERTEX
  5
175AB
  8
0
 10
102.0289525222931957
 20
164.7812612419309062
 30
0.0
  0
VERTEX
  5
175AC
  8
0
 10
102.0566082648818025
 20
164.8287978694939966
 30
0.0
  0
VERTEX
  5
175AD
  8
0
 10
102.0830756173127014
 20
164.8769618769252929
 30
0.0
  0
VERTEX
  5
175AE
  8
0
 10
102.1083450242719977
 20
164.9257301956560013
 30
0.0
  0
VERTEX
  5
175AF
  8
0
 10
102.132406930445697
 20
164.9750797571172996
 30
0.0
  0
VERTEX
  5
175B0
  8
0
 10
102.1552517805197056
 20
165.0249874927403937
 30
0.0
  0
VERTEX
  5
175B1
  8
0
 10
102.1768700191798018
 20
165.075430333956291
 30
0.0
  0
VERTEX
  5
175B2
  8
0
 10
102.1972520911120057
 20
165.1263852121963112
 30
0.0
  0
VERTEX
  5
175B3
  8
0
 10
102.216388441002195
 20
165.1778290588914899
 30
0.0
  0
VERTEX
  5
175B4
  8
0
 10
102.2342695135364039
 20
165.229738805473005
 30
0.0
  0
VERTEX
  5
175B5
  8
0
 10
102.250885753400496
 20
165.2820913833720908
 30
0.0
  0
VERTEX
  5
175B6
  8
0
 10
102.2662276052803065
 20
165.3348637240198116
 30
0.0
  0
VERTEX
  5
175B7
  8
0
 10
102.280285513861898
 20
165.3880327588474017
 30
0.0
  0
VERTEX
  5
175B8
  8
0
 10
102.2930499238310063
 20
165.4415754192860959
 30
0.0
  0
VERTEX
  5
175B9
  8
0
 10
102.3045112798735943
 20
165.4954686367669012
 30
0.0
  0
VERTEX
  5
175BA
  8
0
 10
102.3146600266757957
 20
165.5496893427209955
 30
0.0
  0
VERTEX
  5
175BB
  8
0
 10
102.3234866089234032
 20
165.6042144685794142
 30
0.0
  0
VERTEX
  5
175BC
  8
0
 10
102.330981471302195
 20
165.6590209457737046
 30
0.0
  0
VERTEX
  5
175BD
  8
0
 10
102.3371350584984043
 20
165.7140857057345897
 30
0.0
  0
VERTEX
  5
175BE
  8
0
 10
102.3419378151975963
 20
165.769385679893503
 30
0.0
  0
VERTEX
  5
175BF
  8
0
 10
102.345380186086004
 20
165.8248977996817075
 30
0.0
  0
VERTEX
  5
175C0
  8
0
 10
102.3474526158493063
 20
165.8805989965300114
 30
0.0
  0
VERTEX
  5
175C1
  8
0
 10
102.3481455491734948
 20
165.9364662018697061
 30
0.0
  0
VERTEX
  5
175C2
  8
0
 10
102.3474526158493063
 20
165.9923334072094008
 30
0.0
  0
VERTEX
  5
175C3
  8
0
 10
102.345380186086004
 20
166.0480346040577899
 30
0.0
  0
VERTEX
  5
175C4
  8
0
 10
102.3419378151976957
 20
166.1035467238457954
 30
0.0
  0
VERTEX
  5
175C5
  8
0
 10
102.3371350584984043
 20
166.1588466980047087
 30
0.0
  0
VERTEX
  5
175C6
  8
0
 10
102.330981471302195
 20
166.2139114579657075
 30
0.0
  0
VERTEX
  5
175C7
  8
0
 10
102.3234866089234032
 20
166.2687179351599127
 30
0.0
  0
VERTEX
  5
175C8
  8
0
 10
102.3146600266757957
 20
166.323243061018502
 30
0.0
  0
VERTEX
  5
175C9
  8
0
 10
102.3045112798735943
 20
166.3774637669725962
 30
0.0
  0
VERTEX
  5
175CA
  8
0
 10
102.2930499238310063
 20
166.4313569844532026
 30
0.0
  0
VERTEX
  5
175CB
  8
0
 10
102.280285513861898
 20
166.4848996448920104
 30
0.0
  0
VERTEX
  5
175CC
  8
0
 10
102.2662276052803065
 20
166.5380686797196006
 30
0.0
  0
VERTEX
  5
175CD
  8
0
 10
102.250885753400496
 20
166.5908410203672929
 30
0.0
  0
VERTEX
  5
175CE
  8
0
 10
102.2342695135365034
 20
166.6431935982664072
 30
0.0
  0
VERTEX
  5
175CF
  8
0
 10
102.216388441002195
 20
166.6951033448480075
 30
0.0
  0
VERTEX
  5
175D0
  8
0
 10
102.1972520911120057
 20
166.746547191543101
 30
0.0
  0
VERTEX
  5
175D1
  8
0
 10
102.1768700191798018
 20
166.7975020697832065
 30
0.0
  0
VERTEX
  5
175D2
  8
0
 10
102.1552517805196061
 20
166.8479449109991037
 30
0.0
  0
VERTEX
  5
175D3
  8
0
 10
102.132406930445697
 20
166.8978526466221126
 30
0.0
  0
VERTEX
  5
175D4
  8
0
 10
102.1083450242719977
 20
166.9472022080834108
 30
0.0
  0
VERTEX
  5
175D5
  8
0
 10
102.0830756173127014
 20
166.9959705268140908
 30
0.0
  0
VERTEX
  5
175D6
  8
0
 10
102.0566082648818025
 20
167.0441345342453872
 30
0.0
  0
VERTEX
  5
175D7
  8
0
 10
102.0289525222931957
 20
167.091671161808506
 30
0.0
  0
VERTEX
  5
175D8
  8
0
 10
102.000117944861401
 20
167.1385573409343976
 30
0.0
  0
VERTEX
  5
175D9
  8
0
 10
101.9701140879001002
 20
167.1847700030544104
 30
0.0
  0
VERTEX
  5
175DA
  8
0
 10
101.9389505067236996
 20
167.2302860795996082
 30
0.0
  0
VERTEX
  5
175DB
  8
0
 10
101.9066367566459945
 20
167.2750825020011973
 30
0.0
  0
VERTEX
  5
175DC
  8
0
 10
101.8731823929812066
 20
167.3191362016904122
 30
0.0
  0
VERTEX
  5
175DD
  8
0
 10
101.8385969710434011
 20
167.3624241100982033
 30
0.0
  0
VERTEX
  5
175DE
  8
0
 10
101.8028900461465014
 20
167.4049231586558051
 30
0.0
  0
VERTEX
  5
175DF
  8
0
 10
101.7660711736048
 20
167.446610278794509
 30
0.0
  0
VERTEX
  5
175E0
  8
0
 10
101.728149908732405
 20
167.4874624019452938
 30
0.0
  0
VERTEX
  5
175E1
  8
0
 10
101.689135806843197
 20
167.527456459539394
 30
0.0
  0
VERTEX
  5
175E2
  8
0
 10
101.6491417492490967
 20
167.5664705614285879
 30
0.0
  0
VERTEX
  5
175E3
  8
0
 10
101.6082896260982977
 20
167.6043918263011108
 30
0.0
  0
VERTEX
  5
175E4
  8
0
 10
101.5666025059596933
 20
167.6412106988427126
 30
0.0
  0
VERTEX
  5
175E5
  8
0
 10
101.5241034574020063
 20
167.6769176237395129
 30
0.0
  0
VERTEX
  5
175E6
  8
0
 10
101.480815548994201
 20
167.7115030456774036
 30
0.0
  0
VERTEX
  5
175E7
  8
0
 10
101.4367618493050998
 20
167.7449574093421916
 30
0.0
  0
VERTEX
  5
175E8
  8
0
 10
101.391965426903397
 20
167.7772711594199109
 30
0.0
  0
VERTEX
  5
175E9
  8
0
 10
101.3464493503582986
 20
167.8084347405963968
 30
0.0
  0
VERTEX
  5
175EA
  8
0
 10
101.3002366882383001
 20
167.8384385975575981
 30
0.0
  0
VERTEX
  5
175EB
  8
0
 10
101.2533505091122947
 20
167.8672731749894069
 30
0.0
  0
VERTEX
  5
175EC
  8
0
 10
101.2058138815493038
 20
167.8949289175778858
 30
0.0
  0
VERTEX
  5
175ED
  8
0
 10
101.1576498741179932
 20
167.9213962700088985
 30
0.0
  0
VERTEX
  5
175EE
  8
0
 10
101.108881555387299
 20
167.9466656769681947
 30
0.0
  0
VERTEX
  5
175EF
  8
0
 10
101.0595319939260008
 20
167.970727583141894
 30
0.0
  0
VERTEX
  5
175F0
  8
0
 10
101.0096242583030062
 20
167.9935724332158031
 30
0.0
  0
VERTEX
  5
175F1
  8
0
 10
100.9591814170869952
 20
168.0151906718760131
 30
0.0
  0
VERTEX
  5
175F2
  8
0
 10
100.9082265388471029
 20
168.0355727438081885
 30
0.0
  0
VERTEX
  5
175F3
  8
0
 10
100.8567826921517963
 20
168.0547090936983921
 30
0.0
  0
VERTEX
  5
175F4
  8
0
 10
100.8048729455702954
 20
168.0725901662324873
 30
0.0
  0
VERTEX
  5
175F5
  8
0
 10
100.7525203676711953
 20
168.0892064060965936
 30
0.0
  0
VERTEX
  5
175F6
  8
0
 10
100.699748027023503
 20
168.1045482579764041
 30
0.0
  0
VERTEX
  5
175F7
  8
0
 10
100.6465789921957992
 20
168.1186061665580098
 30
0.0
  0
VERTEX
  5
175F8
  8
0
 10
100.5930363317572045
 20
168.1313705765271038
 30
0.0
  0
VERTEX
  5
175F9
  8
0
 10
100.5391431142764986
 20
168.1428319325698055
 30
0.0
  0
VERTEX
  5
175FA
  8
0
 10
100.4849224083224044
 20
168.152980679372007
 30
0.0
  0
VERTEX
  5
175FB
  8
0
 10
100.4303972824638009
 20
168.1618072616196002
 30
0.0
  0
VERTEX
  5
175FC
  8
0
 10
100.3755908052695958
 20
168.1693021239983921
 30
0.0
  0
VERTEX
  5
175FD
  8
0
 10
100.320526045308597
 20
168.1754557111945019
 30
0.0
  0
VERTEX
  5
175FE
  8
0
 10
100.2652260711496979
 20
168.1802584678937933
 30
0.0
  0
VERTEX
  5
175FF
  8
0
 10
100.2097139513616071
 20
168.1837008387821015
 30
0.0
  0
VERTEX
  5
17600
  8
0
 10
100.1540127545133032
 20
168.1857732685454039
 30
0.0
  0
VERTEX
  5
17601
  8
0
 10
100.0981455491735943
 20
168.1864662018695924
 30
0.0
  0
SEQEND
  5
17602
  8
0
  0
POLYLINE
  5
16327
  8
0
 66
     1
 10
0.0
 20
0.0
 30
0.0
  0
VERTEX
  5
17603
  8
0
 10
100.0981455491735943
 20
168.1864662018695924
 30
0.0
  0
VERTEX
  5
17604
  8
0
 10
100.0401098243349054
 20
168.1857307353243982
 30
0.0
  0
VERTEX
  5
17605
  8
0
 10
99.9824340412811239
 20
168.1835361547452123
 30
0.0
  0
VERTEX
  5
17606
  8
0
 10
99.9251359285968448
 20
168.1799001887166014
 30
0.0
  0
VERTEX
  5
17607
  8
0
 10
99.8682332148667342
 20
168.1748405658233878
 30
0.0
  0
VERTEX
  5
17608
  8
0
 10
99.8117436286754582
 20
168.168375014650195
 30
0.0
  0
VERTEX
  5
17609
  8
0
 10
99.755684898607683
 20
168.1605212637815896
 30
0.0
  0
VERTEX
  5
1760A
  8
0
 10
99.7000747532480602
 20
168.151297041802394
 30
0.0
  0
VERTEX
  5
1760B
  8
0
 10
99.6449309211812562
 20
168.1407200772970896
 30
0.0
  0
VERTEX
  5
1760C
  8
0
 10
99.5902711309919226
 20
168.1288080988504987
 30
0.0
  0
VERTEX
  5
1760D
  8
0
 10
99.5361131112647399
 20
168.1155788350471028
 30
0.0
  0
VERTEX
  5
1760E
  8
0
 10
99.4824745905843884
 20
168.1010500144718947
 30
0.0
  0
VERTEX
  5
1760F
  8
0
 10
99.4293732975355056
 20
168.0852393657092136
 30
0.0
  0
VERTEX
  5
17610
  8
0
 10
99.3768269607028145
 20
168.0681646173437969
 30
0.0
  0
VERTEX
  5
17611
  8
0
 10
99.3248533086708818
 20
168.0498434979604099
 30
0.0
  0
VERTEX
  5
17612
  8
0
 10
99.2734700700244019
 20
168.0302937361435909
 30
0.0
  0
VERTEX
  5
17613
  8
0
 10
99.2226949733480836
 20
168.0095330604781054
 30
0.0
  0
VERTEX
  5
17614
  8
0
 10
99.1725457472266214
 20
167.9875791995486054
 30
0.0
  0
VERTEX
  5
17615
  8
0
 10
99.123040120244525
 20
167.9644498819396858
 30
0.0
  0
VERTEX
  5
17616
  8
0
 10
99.0741958209865601
 20
167.9401628362361123
 30
0.0
  0
VERTEX
  5
17617
  8
0
 10
99.0260305780374779
 20
167.9147357910223946
 30
0.0
  0
VERTEX
  5
17618
  8
0
 10
98.9785621199817456
 20
167.8881864748834118
 30
0.0
  0
VERTEX
  5
17619
  8
0
 10
98.9318081754041856
 20
167.8605326164035887
 30
0.0
  0
VERTEX
  5
1761A
  8
0
 10
98.8857864728893645
 20
167.8317919441678043
 30
0.0
  0
VERTEX
  5
1761B
  8
0
 10
98.8405147410220479
 20
167.8019821867605117
 30
0.0
  0
VERTEX
  5
1761C
  8
0
 10
98.7960107083868166
 20
167.77112107276659
 30
0.0
  0
VERTEX
  5
1761D
  8
0
 10
98.7522921035683368
 20
167.739226330770606
 30
0.0
  0
VERTEX
  5
1761E
  8
0
 10
98.7093766551512743
 20
167.7063156893572113
 30
0.0
  0
VERTEX
  5
1761F
  8
0
 10
98.6672820917203808
 20
167.6724068771110012
 30
0.0
  0
VERTEX
  5
17620
  8
0
 10
98.6260261418602369
 20
167.637517622616798
 30
0.0
  0
VERTEX
  5
17621
  8
0
 10
98.5856265341554945
 20
167.6016656544591115
 30
0.0
  0
VERTEX
  5
17622
  8
0
 10
98.5461009971908055
 20
167.5648687012227072
 30
0.0
  0
VERTEX
  5
17623
  8
0
 10
98.5074672595509071
 20
167.5271444914922938
 30
0.0
  0
VERTEX
  5
17624
  8
0
 10
98.4697430498204653
 20
167.4885107538524096
 30
0.0
  0
VERTEX
  5
17625
  8
0
 10
98.4329460965840894
 20
167.4489852168877064
 30
0.0
  0
VERTEX
  5
17626
  8
0
 10
98.3970941284264455
 20
167.4085856091830067
 30
0.0
  0
VERTEX
  5
17627
  8
0
 10
98.3622048739321855
 20
167.3673296593227917
 30
0.0
  0
VERTEX
  5
17628
  8
0
 10
98.3282960616860464
 20
167.3252350958919124
 30
0.0
  0
VERTEX
  5
17629
  8
0
 10
98.2953854202726234
 20
167.2823196474749068
 30
0.0
  0
VERTEX
  5
1762A
  8
0
 10
98.2634906782765825
 20
167.2386010426563132
 30
0.0
  0
VERTEX
  5
1762B
  8
0
 10
98.2326295642826608
 20
167.1940970100212098
 30
0.0
  0
VERTEX
  5
1762C
  8
0
 10
98.202819806875425
 20
167.1488252781537938
 30
0.0
  0
VERTEX
  5
1762D
  8
0
 10
98.1740791346395838
 20
167.1028035756390011
 30
0.0
  0
VERTEX
  5
1762E
  8
0
 10
98.1464252761598459
 20
167.0560496310615122
 30
0.0
  0
VERTEX
  5
1762F
  8
0
 10
98.1198759600208064
 20
167.0085811730058083
 30
0.0
  0
VERTEX
  5
17630
  8
0
 10
98.0944489148071455
 20
166.9604159300565982
 30
0.0
  0
VERTEX
  5
17631
  8
0
 10
98.0701618691035151
 20
166.9115716307987043
 30
0.0
  0
VERTEX
  5
17632
  8
0
 10
98.0470325514946239
 20
166.8620660038166079
 30
0.0
  0
VERTEX
  5
17633
  8
0
 10
98.0250786905650529
 20
166.8119167776951031
 30
0.0
  0
VERTEX
  5
17634
  8
0
 10
98.0043180148995816
 20
166.7611416810188132
 30
0.0
  0
VERTEX
  5
17635
  8
0
 10
97.984768253082791
 20
166.7097584423723049
 30
0.0
  0
VERTEX
  5
17636
  8
0
 10
97.9664471336993614
 20
166.6577847903404006
 30
0.0
  0
VERTEX
  5
17637
  8
0
 10
97.9493723853340015
 20
166.6052384535076953
 30
0.0
  0
VERTEX
  5
17638
  8
0
 10
97.9335617365713347
 20
166.5521371604588126
 30
0.0
  0
VERTEX
  5
17639
  8
0
 10
97.9190329159960271
 20
166.4984986397784894
 30
0.0
  0
VERTEX
  5
1763A
  8
0
 10
97.9058036521926596
 20
166.4443406200512072
 30
0.0
  0
VERTEX
  5
1763B
  8
0
 10
97.8938916737460545
 20
166.3896808298619874
 30
0.0
  0
VERTEX
  5
1763C
  8
0
 10
97.8833147092408353
 20
166.3345369977951975
 30
0.0
  0
VERTEX
  5
1763D
  8
0
 10
97.8740904872616113
 20
166.2789268524354895
 30
0.0
  0
VERTEX
  5
1763E
  8
0
 10
97.8662367363929633
 20
166.2228681223677995
 30
0.0
  0
VERTEX
  5
1763F
  8
0
 10
97.8597711852197705
 20
166.1663785361764951
 30
0.0
  0
VERTEX
  5
17640
  8
0
 10
97.8547115623265427
 20
166.1094758224463988
 30
0.0
  0
VERTEX
  5
17641
  8
0
 10
97.8510755962980028
 20
166.0521777097621055
 30
0.0
  0
VERTEX
  5
17642
  8
0
 10
97.8488810157187316
 20
165.9945019267082102
 30
0.0
  0
VERTEX
  5
17643
  8
0
 10
97.8481455491736369
 20
165.9364662018697061
 30
0.0
  0
VERTEX
  5
17644
  8
0
 10
97.8488810157187316
 20
165.878430477031003
 30
0.0
  0
VERTEX
  5
17645
  8
0
 10
97.8510755962980028
 20
165.8207546939773067
 30
0.0
  0
VERTEX
  5
17646
  8
0
 10
97.8547115623265427
 20
165.7634565812930134
 30
0.0
  0
VERTEX
  5
17647
  8
0
 10
97.8597711852197705
 20
165.7065538675628886
 30
0.0
  0
VERTEX
  5
17648
  8
0
 10
97.8662367363929633
 20
165.6500642813716127
 30
0.0
  0
VERTEX
  5
17649
  8
0
 10
97.8740904872616113
 20
165.5940055513038089
 30
0.0
  0
VERTEX
  5
1764A
  8
0
 10
97.8833147092408353
 20
165.5383954059441862
 30
0.0
  0
VERTEX
  5
1764B
  8
0
 10
97.8938916737460545
 20
165.4832515738773964
 30
0.0
  0
VERTEX
  5
1764C
  8
0
 10
97.9058036521926596
 20
165.428591783688006
 30
0.0
  0
VERTEX
  5
1764D
  8
0
 10
97.9190329159960271
 20
165.3744337639608943
 30
0.0
  0
VERTEX
  5
1764E
  8
0
 10
97.9335617365713347
 20
165.3207952432805996
 30
0.0
  0
VERTEX
  5
1764F
  8
0
 10
97.9493723853340015
 20
165.2676939502316884
 30
0.0
  0
VERTEX
  5
17650
  8
0
 10
97.9664471336993614
 20
165.2151476133988979
 30
0.0
  0
VERTEX
  5
17651
  8
0
 10
97.984768253082791
 20
165.1631739613669936
 30
0.0
  0
VERTEX
  5
17652
  8
0
 10
98.0043180148995816
 20
165.1117907227205137
 30
0.0
  0
VERTEX
  5
17653
  8
0
 10
98.0250786905650529
 20
165.0610156260441954
 30
0.0
  0
VERTEX
  5
17654
  8
0
 10
98.0470325514946239
 20
165.0108663999226906
 30
0.0
  0
VERTEX
  5
17655
  8
0
 10
98.0701618691035151
 20
164.9613607729405942
 30
0.0
  0
VERTEX
  5
17656
  8
0
 10
98.0944489148071455
 20
164.9125164736827003
 30
0.0
  0
VERTEX
  5
17657
  8
0
 10
98.1198759600208064
 20
164.8643512307336039
 30
0.0
  0
VERTEX
  5
17658
  8
0
 10
98.1464252761598459
 20
164.8168827726779
 30
0.0
  0
VERTEX
  5
17659
  8
0
 10
98.1740791346395838
 20
164.7701288281002974
 30
0.0
  0
VERTEX
  5
1765A
  8
0
 10
98.202819806875425
 20
164.7241071255855047
 30
0.0
  0
VERTEX
  5
1765B
  8
0
 10
98.2326295642826608
 20
164.6788353937182023
 30
0.0
  0
VERTEX
  5
1765C
  8
0
 10
98.2634906782765825
 20
164.6343313610829
 30
0.0
  0
VERTEX
  5
1765D
  8
0
 10
98.2953854202726234
 20
164.5906127562645054
 30
0.0
  0
VERTEX
  5
1765E
  8
0
 10
98.3282960616860464
 20
164.5476973078474998
 30
0.0
  0
VERTEX
  5
1765F
  8
0
 10
98.3622048739321855
 20
164.5056027444165068
 30
0.0
  0
VERTEX
  5
17660
  8
0
 10
98.3970941284264455
 20
164.4643467945562918
 30
0.0
  0
VERTEX
  5
17661
  8
0
 10
98.4329460965840894
 20
164.4239471868515921
 30
0.0
  0
VERTEX
  5
17662
  8
0
 10
98.4697430498204653
 20
164.3844216498870026
 30
0.0
  0
VERTEX
  5
17663
  8
0
 10
98.5074672595509071
 20
164.3457879122470047
 30
0.0
  0
VERTEX
  5
17664
  8
0
 10
98.5461009971908055
 20
164.3080637025165913
 30
0.0
  0
VERTEX
  5
17665
  8
0
 10
98.5856265341554945
 20
164.271266749280187
 30
0.0
  0
VERTEX
  5
17666
  8
0
 10
98.6260261418602369
 20
164.2354147811226142
 30
0.0
  0
VERTEX
  5
17667
  8
0
 10
98.6672820917203808
 20
164.2005255266282973
 30
0.0
  0
VERTEX
  5
17668
  8
0
 10
98.7093766551512743
 20
164.1666167143822008
 30
0.0
  0
VERTEX
  5
17669
  8
0
 10
98.7522921035683368
 20
164.1337060729686925
 30
0.0
  0
VERTEX
  5
1766A
  8
0
 10
98.7960107083868166
 20
164.1018113309727084
 30
0.0
  0
VERTEX
  5
1766B
  8
0
 10
98.8405147410220479
 20
164.0709502169787868
 30
0.0
  0
VERTEX
  5
1766C
  8
0
 10
98.8857864728893645
 20
164.0411404595716078
 30
0.0
  0
VERTEX
  5
1766D
  8
0
 10
98.9318081754041856
 20
164.0123997873357098
 30
0.0
  0
VERTEX
  5
1766E
  8
0
 10
98.9785621199817456
 20
163.9847459288558014
 30
0.0
  0
VERTEX
  5
1766F
  8
0
 10
99.0260305780374779
 20
163.9581966127169039
 30
0.0
  0
VERTEX
  5
17670
  8
0
 10
99.0741958209865601
 20
163.9327695675031009
 30
0.0
  0
VERTEX
  5
17671
  8
0
 10
99.123040120244525
 20
163.9084825217996126
 30
0.0
  0
VERTEX
  5
17672
  8
0
 10
99.1725457472266214
 20
163.8853532041906931
 30
0.0
  0
VERTEX
  5
17673
  8
0
 10
99.2226949733480836
 20
163.8633993432611931
 30
0.0
  0
VERTEX
  5
17674
  8
0
 10
99.2734700700244019
 20
163.8426386675957076
 30
0.0
  0
VERTEX
  5
17675
  8
0
 10
99.3248533086708818
 20
163.8230889057788886
 30
0.0
  0
VERTEX
  5
17676
  8
0
 10
99.3768269607028145
 20
163.8047677863955016
 30
0.0
  0
VERTEX
  5
17677
  8
0
 10
99.4293732975355056
 20
163.7876930380301985
 30
0.0
  0
VERTEX
  5
17678
  8
0
 10
99.4824745905843884
 20
163.7718823892674891
 30
0.0
  0
VERTEX
  5
17679
  8
0
 10
99.5361131112647399
 20
163.7573535686921105
 30
0.0
  0
VERTEX
  5
1767A
  8
0
 10
99.5902711309919226
 20
163.7441243048887998
 30
0.0
  0
VERTEX
  5
1767B
  8
0
 10
99.6449309211812562
 20
163.7322123264422089
 30
0.0
  0
VERTEX
  5
1767C
  8
0
 10
99.7000747532480602
 20
163.7216353619369045
 30
0.0
  0
VERTEX
  5
1767D
  8
0
 10
99.755684898607683
 20
163.7124111399577089
 30
0.0
  0
VERTEX
  5
1767E
  8
0
 10
99.8117436286754582
 20
163.7045573890891035
 30
0.0
  0
VERTEX
  5
1767F
  8
0
 10
99.8682332148667342
 20
163.6980918379159107
 30
0.0
  0
VERTEX
  5
17680
  8
0
 10
99.9251359285968448
 20
163.6930322150226971
 30
0.0
  0
VERTEX
  5
17681
  8
0
 10
99.9824340412811239
 20
163.6893962489940009
 30
0.0
  0
VERTEX
  5
17682
  8
0
 10
100.0401098243349054
 20
163.6872016684149003
 30
0.0
  0
VERTEX
  5
17683
  8
0
 10
100.0981455491735943
 20
163.6864662018697061
 30
0.0
  0
SEQEND
  5
17684
  8
0
  0
POLYLINE
  5
16328
  8
0
 66
     1
 10
0.0
 20
0.0
 30
0.0
  0
VERTEX
  5
17685
  8
0
 10
42.7088890423253673
 20
110.0999999999999943
 30
0.0
  0
VERTEX
  5
17686
  8
0
 10
42.7079574513680669
 20
110.0999999999999943
 30
0.0
  0
VERTEX
  5
17687
  8
0
 10
42.7051776493011133
 20
110.0999999999999943
 30
0.0
  0
VERTEX
  5
17688
  8
0
 10
42.7005720923315835
 20
110.0999999999999943
 30
0.0
  0
VERTEX
  5
17689
  8
0
 10
42.6941632366668387
 20
110.0999999999999943
 30
0.0
  0
VERTEX
  5
1768A
  8
0
 10
42.6859735385140695
 20
110.0999999999999943
 30
0.0
  0
VERTEX
  5
1768B
  8
0
 10
42.6760254540805519
 20
110.0999999999999943
 30
0.0
  0
VERTEX
  5
1768C
  8
0
 10
42.6643414395735192
 20
110.0999999999999943
 30
0.0
  0
VERTEX
  5
1768D
  8
0
 10
42.6509439512001691
 20
110.0999999999999943
 30
0.0
  0
VERTEX
  5
1768E
  8
0
 10
42.6358554451677989
 20
110.0999999999999943
 30
0.0
  0
VERTEX
  5
1768F
  8
0
 10
42.6190983776836205
 20
110.0999999999999943
 30
0.0
  0
VERTEX
  5
17690
  8
0
 10
42.6006952049548673
 20
110.0999999999999943
 30
0.0
  0
VERTEX
  5
17691
  8
0
 10
42.5806683831887867
 20
110.0999999999999943
 30
0.0
  0
VERTEX
  5
17692
  8
0
 10
42.5590403685926475
 20
110.0999999999999943
 30
0.0
  0
VERTEX
  5
17693
  8
0
 10
42.5358336173736689
 20
110.0999999999999943
 30
0.0
  0
VERTEX
  5
17694
  8
0
 10
42.5110705857390627
 20
110.0999999999999943
 30
0.0
  0
VERTEX
  5
17695
  8
0
 10
42.4847737298961121
 20
110.0999999999999943
 30
0.0
  0
VERTEX
  5
17696
  8
0
 10
42.4569655060520432
 20
110.0999999999999943
 30
0.0
  0
VERTEX
  5
17697
  8
0
 10
42.4276683704141107
 20
110.0999999999999943
 30
0.0
  0
VERTEX
  5
17698
  8
0
 10
42.3969047791895122
 20
110.0999999999999943
 30
0.0
  0
VERTEX
  5
17699
  8
0
 10
42.3646971885855521
 20
110.0999999999999943
 30
0.0
  0
VERTEX
  5
1769A
  8
0
 10
42.3310680548094282
 20
110.0999999999999943
 30
0.0
  0
VERTEX
  5
1769B
  8
0
 10
42.296039834068381
 20
110.0999999999999943
 30
0.0
  0
VERTEX
  5
1769C
  8
0
 10
42.2596349825696791
 20
110.0999999999999943
 30
0.0
  0
VERTEX
  5
1769D
  8
0
 10
42.2218759565205204
 20
110.0999999999999943
 30
0.0
  0
VERTEX
  5
1769E
  8
0
 10
42.1827852121281808
 20
110.0999999999999943
 30
0.0
  0
VERTEX
  5
1769F
  8
0
 10
42.1423852055998722
 20
110.0999999999999943
 30
0.0
  0
VERTEX
  5
176A0
  8
0
 10
42.100698393142892
 20
110.0999999999999943
 30
0.0
  0
VERTEX
  5
176A1
  8
0
 10
42.0577472309644165
 20
110.0999999999999943
 30
0.0
  0
VERTEX
  5
176A2
  8
0
 10
42.013554175271743
 20
110.0999999999999943
 30
0.0
  0
VERTEX
  5
176A3
  8
0
 10
41.9681416822720621
 20
110.0999999999999943
 30
0.0
  0
VERTEX
  5
176A4
  8
0
 10
41.9215322081726285
 20
110.0999999999999943
 30
0.0
  0
VERTEX
  5
176A5
  8
0
 10
41.8737482091806683
 20
110.0999999999999943
 30
0.0
  0
VERTEX
  5
176A6
  8
0
 10
41.824812141503493
 20
110.0999999999999943
 30
0.0
  0
VERTEX
  5
176A7
  8
0
 10
41.7747464613482435
 20
110.0999999999999943
 30
0.0
  0
VERTEX
  5
176A8
  8
0
 10
41.7235736249222668
 20
110.0999999999999943
 30
0.0
  0
VERTEX
  5
176A9
  8
0
 10
41.6713160884327181
 20
110.0999999999999943
 30
0.0
  0
VERTEX
  5
176AA
  8
0
 10
41.6179963080868731
 20
110.0999999999999943
 30
0.0
  0
VERTEX
  5
176AB
  8
0
 10
41.5636367400919511
 20
110.0999999999999943
 30
0.0
  0
VERTEX
  5
176AC
  8
0
 10
41.5082598406552634
 20
110.0999999999999943
 30
0.0
  0
VERTEX
  5
176AD
  8
0
 10
41.451888065983951
 20
110.0999999999999943
 30
0.0
  0
VERTEX
  5
176AE
  8
0
 10
41.3945438722853112
 20
110.0999999999999943
 30
0.0
  0
VERTEX
  5
176AF
  8
0
 10
41.33624971576657
 20
110.0999999999999943
 30
0.0
  0
VERTEX
  5
176B0
  8
0
 10
41.2770280526349467
 20
110.0999999999999943
 30
0.0
  0
VERTEX
  5
176B1
  8
0
 10
41.2169013390977597
 20
110.0999999999999943
 30
0.0
  0
VERTEX
  5
176B2
  8
0
 10
41.1558920313621783
 20
110.0999999999999943
 30
0.0
  0
VERTEX
  5
176B3
  8
0
 10
41.0940225856354502
 20
110.0999999999999943
 30
0.0
  0
VERTEX
  5
176B4
  8
0
 10
41.0313154581248511
 20
110.0999999999999943
 30
0.0
  0
VERTEX
  5
176B5
  8
0
 10
40.9677931050376003
 20
110.0999999999999943
 30
0.0
  0
VERTEX
  5
176B6
  8
0
 10
40.9034779825809167
 20
110.0999999999999943
 30
0.0
  0
VERTEX
  5
176B7
  8
0
 10
40.8383925469620976
 20
110.0999999999999943
 30
0.0
  0
VERTEX
  5
176B8
  8
0
 10
40.7725592543883124
 20
110.0999999999999943
 30
0.0
  0
VERTEX
  5
176B9
  8
0
 10
40.7060005610668725
 20
110.0999999999999943
 30
0.0
  0
VERTEX
  5
176BA
  8
0
 10
40.6387389232049472
 20
110.0999999999999943
 30
0.0
  0
VERTEX
  5
176BB
  8
0
 10
40.570796797009848
 20
110.0999999999999943
 30
0.0
  0
VERTEX
  5
176BC
  8
0
 10
40.5021966386887513
 20
110.0999999999999943
 30
0.0
  0
VERTEX
  5
176BD
  8
0
 10
40.4329609044489615
 20
110.0999999999999943
 30
0.0
  0
VERTEX
  5
176BE
  8
0
 10
40.3631120504976622
 20
110.0999999999999943
 30
0.0
  0
VERTEX
  5
176BF
  8
0
 10
40.2926725330421434
 20
110.0999999999999943
 30
0.0
  0
VERTEX
  5
176C0
  8
0
 10
40.2216648082896313
 20
110.0999999999999943
 30
0.0
  0
VERTEX
  5
176C1
  8
0
 10
40.1501113324473167
 20
110.0999999999999943
 30
0.0
  0
VERTEX
  5
176C2
  8
0
 10
40.0054569523224188
 20
110.0999999999999943
 30
0.0
  0
VERTEX
  5
176C3
  8
0
 10
39.858889042325373
 20
110.0999999999999943
 30
0.0
  0
VERTEX
  5
176C4
  8
0
 10
39.7123211323282916
 20
110.0999999999999943
 30
0.0
  0
VERTEX
  5
176C5
  8
0
 10
39.5676667522034009
 20
110.0999999999999943
 30
0.0
  0
VERTEX
  5
176C6
  8
0
 10
39.4961132763610934
 20
110.0999999999999943
 30
0.0
  0
VERTEX
  5
176C7
  8
0
 10
39.4251055516085671
 20
110.0999999999999943
 30
0.0
  0
VERTEX
  5
176C8
  8
0
 10
39.354666034153027
 20
110.0999999999999943
 30
0.0
  0
VERTEX
  5
176C9
  8
0
 10
39.2848171802017418
 20
110.0999999999999943
 30
0.0
  0
VERTEX
  5
176CA
  8
0
 10
39.2155814459619592
 20
110.0999999999999943
 30
0.0
  0
VERTEX
  5
176CB
  8
0
 10
39.1469812876408696
 20
110.0999999999999943
 30
0.0
  0
VERTEX
  5
176CC
  8
0
 10
39.0790391614457633
 20
110.0999999999999943
 30
0.0
  0
VERTEX
  5
176CD
  8
0
 10
39.0117775235838522
 20
110.0999999999999943
 30
0.0
  0
VERTEX
  5
176CE
  8
0
 10
38.9452188302624123
 20
110.0999999999999943
 30
0.0
  0
VERTEX
  5
176CF
  8
0
 10
38.8793855376886128
 20
110.0999999999999943
 30
0.0
  0
VERTEX
  5
176D0
  8
0
 10
38.8143001020697724
 20
110.0999999999999943
 30
0.0
  0
VERTEX
  5
176D1
  8
0
 10
38.7499849796131173
 20
110.0999999999999943
 30
0.0
  0
VERTEX
  5
176D2
  8
0
 10
38.6864626265258806
 20
110.0999999999999943
 30
0.0
  0
VERTEX
  5
176D3
  8
0
 10
38.6237554990152674
 20
110.0999999999999943
 30
0.0
  0
VERTEX
  5
176D4
  8
0
 10
38.5618860532885321
 20
110.0999999999999943
 30
0.0
  0
VERTEX
  5
176D5
  8
0
 10
38.5008767455529508
 20
110.0999999999999943
 30
0.0
  0
VERTEX
  5
176D6
  8
0
 10
38.4407500320157567
 20
110.0999999999999943
 30
0.0
  0
VERTEX
  5
176D7
  8
0
 10
38.3815283688841475
 20
110.0999999999999943
 30
0.0
  0
VERTEX
  5
176D8
  8
0
 10
38.3232342123654135
 20
110.0999999999999943
 30
0.0
  0
VERTEX
  5
176D9
  8
0
 10
38.2658900186667665
 20
110.0999999999999943
 30
0.0
  0
VERTEX
  5
176DA
  8
0
 10
38.2095182439954471
 20
110.0999999999999943
 30
0.0
  0
VERTEX
  5
176DB
  8
0
 10
38.1541413445587523
 20
110.0999999999999943
 30
0.0
  0
VERTEX
  5
176DC
  8
0
 10
38.0997817765638516
 20
110.0999999999999943
 30
0.0
  0
VERTEX
  5
176DD
  8
0
 10
38.0464619962179995
 20
110.0999999999999943
 30
0.0
  0
VERTEX
  5
176DE
  8
0
 10
37.9942044597284507
 20
110.0999999999999943
 30
0.0
  0
VERTEX
  5
176DF
  8
0
 10
37.9430316233024598
 20
110.0999999999999943
 30
0.0
  0
VERTEX
  5
176E0
  8
0
 10
37.8929659431472317
 20
110.0999999999999943
 30
0.0
  0
VERTEX
  5
176E1
  8
0
 10
37.8440298754700208
 20
110.0999999999999943
 30
0.0
  0
VERTEX
  5
176E2
  8
0
 10
37.796245876478082
 20
110.0999999999999943
 30
0.0
  0
VERTEX
  5
176E3
  8
0
 10
37.7496364023786626
 20
110.0999999999999943
 30
0.0
  0
VERTEX
  5
176E4
  8
0
 10
37.7042239093789675
 20
110.0999999999999943
 30
0.0
  0
VERTEX
  5
176E5
  8
0
 10
37.6600308536862869
 20
110.0999999999999943
 30
0.0
  0
VERTEX
  5
176E6
  8
0
 10
37.6170796915078327
 20
110.0999999999999943
 30
0.0
  0
VERTEX
  5
176E7
  8
0
 10
37.5753928790508382
 20
110.0999999999999943
 30
0.0
  0
VERTEX
  5
176E8
  8
0
 10
37.5349928725225368
 20
110.0999999999999943
 30
0.0
  0
VERTEX
  5
176E9
  8
0
 10
37.495902128130183
 20
110.0999999999999943
 30
0.0
  0
VERTEX
  5
176EA
  8
0
 10
37.4581431020810385
 20
110.0999999999999943
 30
0.0
  0
VERTEX
  5
176EB
  8
0
 10
37.4217382505823366
 20
110.0999999999999943
 30
0.0
  0
VERTEX
  5
176EC
  8
0
 10
37.3867100298412893
 20
110.0999999999999943
 30
0.0
  0
VERTEX
  5
176ED
  8
0
 10
37.3530808960651726
 20
110.0999999999999943
 30
0.0
  0
VERTEX
  5
176EE
  8
0
 10
37.3208733054611912
 20
110.0999999999999943
 30
0.0
  0
VERTEX
  5
176EF
  8
0
 10
37.2901097142365927
 20
110.0999999999999943
 30
0.0
  0
VERTEX
  5
176F0
  8
0
 10
37.2608125785986601
 20
110.0999999999999943
 30
0.0
  0
VERTEX
  5
176F1
  8
0
 10
37.2330043547545984
 20
110.0999999999999943
 30
0.0
  0
VERTEX
  5
176F2
  8
0
 10
37.2067074989116406
 20
110.0999999999999943
 30
0.0
  0
VERTEX
  5
176F3
  8
0
 10
37.1819444672770487
 20
110.0999999999999943
 30
0.0
  0
VERTEX
  5
176F4
  8
0
 10
37.1587377160580701
 20
110.0999999999999943
 30
0.0
  0
VERTEX
  5
176F5
  8
0
 10
37.1371097014619309
 20
110.0999999999999943
 30
0.0
  0
VERTEX
  5
176F6
  8
0
 10
37.1170828796958574
 20
110.0999999999999943
 30
0.0
  0
VERTEX
  5
176F7
  8
0
 10
37.0986797069670899
 20
110.0999999999999943
 30
0.0
  0
VERTEX
  5
176F8
  8
0
 10
37.0819226394829116
 20
110.0999999999999943
 30
0.0
  0
VERTEX
  5
176F9
  8
0
 10
37.0668341334505271
 20
110.0999999999999943
 30
0.0
  0
VERTEX
  5
176FA
  8
0
 10
37.0534366450771984
 20
110.0999999999999943
 30
0.0
  0
VERTEX
  5
176FB
  8
0
 10
37.0417526305701728
 20
110.0999999999999943
 30
0.0
  0
VERTEX
  5
176FC
  8
0
 10
37.031804546136641
 20
110.0999999999999943
 30
0.0
  0
VERTEX
  5
176FD
  8
0
 10
37.0236148479838789
 20
110.0999999999999943
 30
0.0
  0
VERTEX
  5
176FE
  8
0
 10
37.0172059923191412
 20
110.0999999999999943
 30
0.0
  0
VERTEX
  5
176FF
  8
0
 10
37.0126004353495972
 20
110.0999999999999943
 30
0.0
  0
VERTEX
  5
17700
  8
0
 10
37.009820633282601
 20
110.0999999999999943
 30
0.0
  0
VERTEX
  5
17701
  8
0
 10
37.0088890423253716
 20
110.0999999999999943
 30
0.0
  0
SEQEND
  5
17702
  8
0
  0
POLYLINE
  5
16329
  8
0
 66
     1
 10
0.0
 20
0.0
 30
0.0
  0
VERTEX
  5
17703
  8
0
 10
61.9135337981304019
 20
110.0999999999999943
 30
0.0
  0
VERTEX
  5
17704
  8
0
 10
61.9126022071731015
 20
110.0999999999999943
 30
0.0
  0
VERTEX
  5
17705
  8
0
 10
61.9098224051061266
 20
110.0999999999999943
 30
0.0
  0
VERTEX
  5
17706
  8
0
 10
61.9052168481365968
 20
110.0999999999999943
 30
0.0
  0
VERTEX
  5
17707
  8
0
 10
61.8988079924718591
 20
110.0999999999999943
 30
0.0
  0
VERTEX
  5
17708
  8
0
 10
61.890618294319097
 20
110.0999999999999943
 30
0.0
  0
VERTEX
  5
17709
  8
0
 10
61.8806702098855794
 20
110.0999999999999943
 30
0.0
  0
VERTEX
  5
1770A
  8
0
 10
61.8689861953785609
 20
110.0999999999999943
 30
0.0
  0
VERTEX
  5
1770B
  8
0
 10
61.8555887070052108
 20
110.0999999999999943
 30
0.0
  0
VERTEX
  5
1770C
  8
0
 10
61.8405002009728122
 20
110.0999999999999943
 30
0.0
  0
VERTEX
  5
1770D
  8
0
 10
61.8237431334886125
 20
110.0999999999999943
 30
0.0
  0
VERTEX
  5
1770E
  8
0
 10
61.805339960759909
 20
110.0999999999999943
 30
0.0
  0
VERTEX
  5
1770F
  8
0
 10
61.7853131389938426
 20
110.0999999999999943
 30
0.0
  0
VERTEX
  5
17710
  8
0
 10
61.7636851243976821
 20
110.0999999999999943
 30
0.0
  0
VERTEX
  5
17711
  8
0
 10
61.7404783731786893
 20
110.0999999999999943
 30
0.0
  0
VERTEX
  5
17712
  8
0
 10
61.7157153415441329
 20
110.0999999999999943
 30
0.0
  0
VERTEX
  5
17713
  8
0
 10
61.6894184857011325
 20
110.0999999999999943
 30
0.0
  0
VERTEX
  5
17714
  8
0
 10
61.6616102618571205
 20
110.0999999999999943
 30
0.0
  0
VERTEX
  5
17715
  8
0
 10
61.6323131262191595
 20
110.0999999999999943
 30
0.0
  0
VERTEX
  5
17716
  8
0
 10
61.6015495349946107
 20
110.0999999999999943
 30
0.0
  0
VERTEX
  5
17717
  8
0
 10
61.5693419443906009
 20
110.0999999999999943
 30
0.0
  0
VERTEX
  5
17718
  8
0
 10
61.5357128106144913
 20
110.0999999999999943
 30
0.0
  0
VERTEX
  5
17719
  8
0
 10
61.5006845898734511
 20
110.0999999999999943
 30
0.0
  0
VERTEX
  5
1771A
  8
0
 10
61.4642797383747208
 20
110.0999999999999943
 30
0.0
  0
VERTEX
  5
1771B
  8
0
 10
61.4265207123255408
 20
110.0999999999999943
 30
0.0
  0
VERTEX
  5
1771C
  8
0
 10
61.3874299679332509
 20
110.0999999999999943
 30
0.0
  0
VERTEX
  5
1771D
  8
0
 10
61.3470299614049708
 20
110.0999999999999943
 30
0.0
  0
VERTEX
  5
1771E
  8
0
 10
61.3053431489479408
 20
110.0999999999999943
 30
0.0
  0
VERTEX
  5
1771F
  8
0
 10
61.2623919867695079
 20
110.0999999999999943
 30
0.0
  0
VERTEX
  5
17720
  8
0
 10
61.2181989310768131
 20
110.0999999999999943
 30
0.0
  0
VERTEX
  5
17721
  8
0
 10
61.1727864380771322
 20
110.0999999999999943
 30
0.0
  0
VERTEX
  5
17722
  8
0
 10
61.1261769639776773
 20
110.0999999999999943
 30
0.0
  0
VERTEX
  5
17723
  8
0
 10
61.0783929649857669
 20
110.0999999999999943
 30
0.0
  0
VERTEX
  5
17724
  8
0
 10
61.0294568973085987
 20
110.0999999999999943
 30
0.0
  0
VERTEX
  5
17725
  8
0
 10
60.9793912171533492
 20
110.0999999999999943
 30
0.0
  0
VERTEX
  5
17726
  8
0
 10
60.9282183807273512
 20
110.0999999999999943
 30
0.0
  0
VERTEX
  5
17727
  8
0
 10
60.8759608442377882
 20
110.0999999999999943
 30
0.0
  0
VERTEX
  5
17728
  8
0
 10
60.8226410638919788
 20
110.0999999999999943
 30
0.0
  0
VERTEX
  5
17729
  8
0
 10
60.7682814958970994
 20
110.0999999999999943
 30
0.0
  0
VERTEX
  5
1772A
  8
0
 10
60.712904596460362
 20
110.0999999999999943
 30
0.0
  0
VERTEX
  5
1772B
  8
0
 10
60.6565328217890283
 20
110.0999999999999943
 30
0.0
  0
VERTEX
  5
1772C
  8
0
 10
60.5991886280904097
 20
110.0999999999999943
 30
0.0
  0
VERTEX
  5
1772D
  8
0
 10
60.5408944715716686
 20
110.0999999999999943
 30
0.0
  0
VERTEX
  5
1772E
  8
0
 10
60.4816728084400665
 20
110.0999999999999943
 30
0.0
  0
VERTEX
  5
1772F
  8
0
 10
60.4215460949028866
 20
110.0999999999999943
 30
0.0
  0
VERTEX
  5
17730
  8
0
 10
60.3605367871672769
 20
110.0999999999999943
 30
0.0
  0
VERTEX
  5
17731
  8
0
 10
60.2986673414405914
 20
110.0999999999999943
 30
0.0
  0
VERTEX
  5
17732
  8
0
 10
60.2359602139299994
 20
110.0999999999999943
 30
0.0
  0
VERTEX
  5
17733
  8
0
 10
60.1724378608427628
 20
110.0999999999999943
 30
0.0
  0
VERTEX
  5
17734
  8
0
 10
60.1081227383860295
 20
110.0999999999999943
 30
0.0
  0
VERTEX
  5
17735
  8
0
 10
60.0430373027672317
 20
110.0999999999999943
 30
0.0
  0
VERTEX
  5
17736
  8
0
 10
59.9772040101934607
 20
110.0999999999999943
 30
0.0
  0
VERTEX
  5
17737
  8
0
 10
59.9106453168720421
 20
110.0999999999999943
 30
0.0
  0
VERTEX
  5
17738
  8
0
 10
59.8433836790101168
 20
110.0999999999999943
 30
0.0
  0
VERTEX
  5
17739
  8
0
 10
59.7754415528149678
 20
110.0999999999999943
 30
0.0
  0
VERTEX
  5
1773A
  8
0
 10
59.7068413944939422
 20
110.0999999999999943
 30
0.0
  0
VERTEX
  5
1773B
  8
0
 10
59.6376056602541027
 20
110.0999999999999943
 30
0.0
  0
VERTEX
  5
1773C
  8
0
 10
59.5677568063028318
 20
110.0999999999999943
 30
0.0
  0
VERTEX
  5
1773D
  8
0
 10
59.4973172888473485
 20
110.0999999999999943
 30
0.0
  0
VERTEX
  5
1773E
  8
0
 10
59.4263095640948222
 20
110.0999999999999943
 30
0.0
  0
VERTEX
  5
1773F
  8
0
 10
59.3547560882525005
 20
110.0999999999999943
 30
0.0
  0
VERTEX
  5
17740
  8
0
 10
59.2101017081275884
 20
110.0999999999999943
 30
0.0
  0
VERTEX
  5
17741
  8
0
 10
59.0635337981305426
 20
110.0999999999999943
 30
0.0
  0
VERTEX
  5
17742
  8
0
 10
58.9169658881335181
 20
110.0999999999999943
 30
0.0
  0
VERTEX
  5
17743
  8
0
 10
58.7723115080085918
 20
110.0999999999999943
 30
0.0
  0
VERTEX
  5
17744
  8
0
 10
58.7007580321663198
 20
110.0999999999999943
 30
0.0
  0
VERTEX
  5
17745
  8
0
 10
58.629750307413758
 20
110.0999999999999943
 30
0.0
  0
VERTEX
  5
17746
  8
0
 10
58.5593107899582606
 20
110.0999999999999943
 30
0.0
  0
VERTEX
  5
17747
  8
0
 10
58.4894619360069896
 20
110.0999999999999943
 30
0.0
  0
VERTEX
  5
17748
  8
0
 10
58.4202262017671572
 20
110.0999999999999943
 30
0.0
  0
VERTEX
  5
17749
  8
0
 10
58.3516260434460605
 20
110.0999999999999943
 30
0.0
  0
VERTEX
  5
1774A
  8
0
 10
58.2836839172509684
 20
110.0999999999999943
 30
0.0
  0
VERTEX
  5
1774B
  8
0
 10
58.2164222793890502
 20
110.0999999999999943
 30
0.0
  0
VERTEX
  5
1774C
  8
0
 10
58.1498635860676387
 20
110.0999999999999943
 30
0.0
  0
VERTEX
  5
1774D
  8
0
 10
58.0840302934938606
 20
110.0999999999999943
 30
0.0
  0
VERTEX
  5
1774E
  8
0
 10
58.0189448578749918
 20
110.0999999999999943
 30
0.0
  0
VERTEX
  5
1774F
  8
0
 10
57.9546297354183366
 20
110.0999999999999943
 30
0.0
  0
VERTEX
  5
17750
  8
0
 10
57.8911073823310929
 20
110.0999999999999943
 30
0.0
  0
VERTEX
  5
17751
  8
0
 10
57.8284002548204512
 20
110.0999999999999943
 30
0.0
  0
VERTEX
  5
17752
  8
0
 10
57.7665308090937373
 20
110.0999999999999943
 30
0.0
  0
VERTEX
  5
17753
  8
0
 10
57.7055215013581986
 20
110.0999999999999943
 30
0.0
  0
VERTEX
  5
17754
  8
0
 10
57.6453947878209689
 20
110.0999999999999943
 30
0.0
  0
VERTEX
  5
17755
  8
0
 10
57.5861731246893669
 20
110.0999999999999943
 30
0.0
  0
VERTEX
  5
17756
  8
0
 10
57.5278789681706186
 20
110.0999999999999943
 30
0.0
  0
VERTEX
  5
17757
  8
0
 10
57.4705347744719504
 20
110.0999999999999943
 30
0.0
  0
VERTEX
  5
17758
  8
0
 10
57.4141629998006806
 20
110.0999999999999943
 30
0.0
  0
VERTEX
  5
17759
  8
0
 10
57.3587861003639432
 20
110.0999999999999943
 30
0.0
  0
VERTEX
  5
1775A
  8
0
 10
57.3044265323690567
 20
110.0999999999999943
 30
0.0
  0
VERTEX
  5
1775B
  8
0
 10
57.2511067520231904
 20
110.0999999999999943
 30
0.0
  0
VERTEX
  5
1775C
  8
0
 10
57.1988492155336417
 20
110.0999999999999943
 30
0.0
  0
VERTEX
  5
1775D
  8
0
 10
57.1476763791076081
 20
110.0999999999999943
 30
0.0
  0
VERTEX
  5
1775E
  8
0
 10
57.0976106989524013
 20
110.0999999999999943
 30
0.0
  0
VERTEX
  5
1775F
  8
0
 10
57.0486746312752118
 20
110.0999999999999943
 30
0.0
  0
VERTEX
  5
17760
  8
0
 10
57.0008906322832871
 20
110.0999999999999943
 30
0.0
  0
VERTEX
  5
17761
  8
0
 10
56.9542811581838322
 20
110.0999999999999943
 30
0.0
  0
VERTEX
  5
17762
  8
0
 10
56.9088686651841584
 20
110.0999999999999943
 30
0.0
  0
VERTEX
  5
17763
  8
0
 10
56.8646756094914778
 20
110.0999999999999943
 30
0.0
  0
VERTEX
  5
17764
  8
0
 10
56.8217244473129881
 20
110.0999999999999943
 30
0.0
  0
VERTEX
  5
17765
  8
0
 10
56.7800376348560008
 20
110.0999999999999943
 30
0.0
  0
VERTEX
  5
17766
  8
0
 10
56.7396376283277277
 20
110.0999999999999943
 30
0.0
  0
VERTEX
  5
17767
  8
0
 10
56.700546883935381
 20
110.0999999999999943
 30
0.0
  0
VERTEX
  5
17768
  8
0
 10
56.662787857886201
 20
110.0999999999999943
 30
0.0
  0
VERTEX
  5
17769
  8
0
 10
56.6263830063875275
 20
110.0999999999999943
 30
0.0
  0
VERTEX
  5
1776A
  8
0
 10
56.5913547856464305
 20
110.0999999999999943
 30
0.0
  0
VERTEX
  5
1776B
  8
0
 10
56.5577256518703209
 20
110.0999999999999943
 30
0.0
  0
VERTEX
  5
1776C
  8
0
 10
56.5255180612663111
 20
110.0999999999999943
 30
0.0
  0
VERTEX
  5
1776D
  8
0
 10
56.4947544700417481
 20
110.0999999999999943
 30
0.0
  0
VERTEX
  5
1776E
  8
0
 10
56.4654573344038297
 20
110.0999999999999943
 30
0.0
  0
VERTEX
  5
1776F
  8
0
 10
56.4376491105597324
 20
110.0999999999999943
 30
0.0
  0
VERTEX
  5
17770
  8
0
 10
56.4113522547168031
 20
110.0999999999999943
 30
0.0
  0
VERTEX
  5
17771
  8
0
 10
56.3865892230821686
 20
110.0999999999999943
 30
0.0
  0
VERTEX
  5
17772
  8
0
 10
56.3633824718631899
 20
110.0999999999999943
 30
0.0
  0
VERTEX
  5
17773
  8
0
 10
56.3417544572670721
 20
110.0999999999999943
 30
0.0
  0
VERTEX
  5
17774
  8
0
 10
56.3217276355010128
 20
110.0999999999999943
 30
0.0
  0
VERTEX
  5
17775
  8
0
 10
56.3033244627722524
 20
110.0999999999999943
 30
0.0
  0
VERTEX
  5
17776
  8
0
 10
56.2865673952880314
 20
110.0999999999999943
 30
0.0
  0
VERTEX
  5
17777
  8
0
 10
56.2714788892556612
 20
110.0999999999999943
 30
0.0
  0
VERTEX
  5
17778
  8
0
 10
56.2580814008823609
 20
110.0999999999999943
 30
0.0
  0
VERTEX
  5
17779
  8
0
 10
56.2463973863752926
 20
110.0999999999999943
 30
0.0
  0
VERTEX
  5
1777A
  8
0
 10
56.2364493019417822
 20
110.0999999999999943
 30
0.0
  0
VERTEX
  5
1777B
  8
0
 10
56.2282596037889988
 20
110.0999999999999943
 30
0.0
  0
VERTEX
  5
1777C
  8
0
 10
56.2218507481242611
 20
110.0999999999999943
 30
0.0
  0
VERTEX
  5
1777D
  8
0
 10
56.2172451911547384
 20
110.0999999999999943
 30
0.0
  0
VERTEX
  5
1777E
  8
0
 10
56.2144653890877493
 20
110.0999999999999943
 30
0.0
  0
VERTEX
  5
1777F
  8
0
 10
56.2135337981303991
 20
110.0999999999999943
 30
0.0
  0
SEQEND
  5
17780
  8
0
  0
POLYLINE
  5
1632A
  8
0
 66
     1
 10
0.0
 20
0.0
 30
0.0
  0
VERTEX
  5
17781
  8
0
 10
103.3671923884508033
 20
110.1000000000000938
 30
0.0
  0
VERTEX
  5
17782
  8
0
 10
103.3637376205133052
 20
110.1000000000000938
 30
0.0
  0
VERTEX
  5
17783
  8
0
 10
103.3601388609523042
 20
110.1000000000000938
 30
0.0
  0
VERTEX
  5
17784
  8
0
 10
103.3562521181443969
 20
110.1000000000000938
 30
0.0
  0
VERTEX
  5
17785
  8
0
 10
103.3519334004659953
 20
110.1000000000000938
 30
0.0
  0
VERTEX
  5
17786
  8
0
 10
103.3470387162936959
 20
110.1000000000000938
 30
0.0
  0
VERTEX
  5
17787
  8
0
 10
103.3414240740039958
 20
110.1000000000000938
 30
0.0
  0
VERTEX
  5
17788
  8
0
 10
103.3349454819735058
 20
110.1000000000000938
 30
0.0
  0
VERTEX
  5
17789
  8
0
 10
103.3274589485784958
 20
110.1000000000000938
 30
0.0
  0
VERTEX
  5
1778A
  8
0
 10
103.3188204821957044
 20
110.1000000000000938
 30
0.0
  0
VERTEX
  5
1778B
  8
0
 10
103.3088943136549034
 20
110.1000000000000938
 30
0.0
  0
VERTEX
  5
1778C
  8
0
 10
103.2976000960216965
 20
110.1000000000000938
 30
0.0
  0
VERTEX
  5
1778D
  8
0
 10
103.2848803746498021
 20
110.1000000000000938
 30
0.0
  0
VERTEX
  5
1778E
  8
0
 10
103.270677767131005
 20
110.1000000000000938
 30
0.0
  0
VERTEX
  5
1778F
  8
0
 10
103.2549348910569051
 20
110.1000000000000938
 30
0.0
  0
VERTEX
  5
17790
  8
0
 10
103.237594364019202
 20
110.1000000000000938
 30
0.0
  0
VERTEX
  5
17791
  8
0
 10
103.2185988036092965
 20
110.1000000000000938
 30
0.0
  0
VERTEX
  5
17792
  8
0
 10
103.1978908274192008
 20
110.1000000000000938
 30
0.0
  0
VERTEX
  5
17793
  8
0
 10
103.1754130530404012
 20
110.1000000000000938
 30
0.0
  0
VERTEX
  5
17794
  8
0
 10
103.1511288007440044
 20
110.1000000000000938
 30
0.0
  0
VERTEX
  5
17795
  8
0
 10
103.1252583292885987
 20
110.1000000000000938
 30
0.0
  0
VERTEX
  5
17796
  8
0
 10
103.0981957317744957
 20
110.1000000000000938
 30
0.0
  0
VERTEX
  5
17797
  8
0
 10
103.0703383835545992
 20
110.1000000000000938
 30
0.0
  0
VERTEX
  5
17798
  8
0
 10
103.0420836599816994
 20
110.1000000000000938
 30
0.0
  0
SEQEND
  5
17799
  8
0
  0
POLYLINE
  5
1632B
  8
0
 66
     1
 10
0.0
 20
0.0
 30
0.0
  0
VERTEX
  5
1779A
  8
0
 10
102.9481455491736028
 20
110.1000000000000938
 30
0.0
  0
VERTEX
  5
1779B
  8
0
 10
102.9446427559291948
 20
110.1000000000000938
 30
0.0
  0
VERTEX
  5
1779C
  8
0
 10
102.9341989276518063
 20
110.1000000000000938
 30
0.0
  0
VERTEX
  5
1779D
  8
0
 10
102.9169108915234006
 20
110.1000000000000938
 30
0.0
  0
VERTEX
  5
1779E
  8
0
 10
102.8928754747271057
 20
110.1000000000000938
 30
0.0
  0
VERTEX
  5
1779F
  8
0
 10
102.8621895044453964
 20
110.1000000000000938
 30
0.0
  0
VERTEX
  5
177A0
  8
0
 10
102.8249498078610031
 20
110.1000000000000938
 30
0.0
  0
VERTEX
  5
177A1
  8
0
 10
102.7812532121565994
 20
110.1000000000000938
 30
0.0
  0
VERTEX
  5
177A2
  8
0
 10
102.7311965445149013
 20
110.1000000000000938
 30
0.0
  0
VERTEX
  5
177A3
  8
0
 10
102.6748766321181989
 20
110.1000000000000938
 30
0.0
  0
VERTEX
  5
177A4
  8
0
 10
102.6123903021498052
 20
110.1000000000000938
 30
0.0
  0
VERTEX
  5
177A5
  8
0
 10
102.5438343817917968
 20
110.1000000000000938
 30
0.0
  0
VERTEX
  5
177A6
  8
0
 10
102.4693056982273021
 20
110.1000000000000938
 30
0.0
  0
VERTEX
  5
177A7
  8
0
 10
102.3889010786386962
 20
110.1000000000000938
 30
0.0
  0
VERTEX
  5
177A8
  8
0
 10
102.3027173502085958
 20
110.1000000000000938
 30
0.0
  0
VERTEX
  5
177A9
  8
0
 10
102.2108513401199019
 20
110.1000000000000938
 30
0.0
  0
VERTEX
  5
177AA
  8
0
 10
102.1133998755551033
 20
110.1000000000000938
 30
0.0
  0
VERTEX
  5
177AB
  8
0
 10
102.010994713278194
 20
110.1000000000000938
 30
0.0
  0
VERTEX
  5
177AC
  8
0
 10
101.904358899596204
 20
110.1000000000000938
 30
0.0
  0
VERTEX
  5
177AD
  8
0
 10
101.7937261960068014
 20
110.1000000000000938
 30
0.0
  0
VERTEX
  5
177AE
  8
0
 10
101.6793303640073987
 20
110.1000000000000938
 30
0.0
  0
VERTEX
  5
177AF
  8
0
 10
101.5614051650959055
 20
110.1000000000000938
 30
0.0
  0
VERTEX
  5
177B0
  8
0
 10
101.440184360769706
 20
110.1000000000000938
 30
0.0
  0
VERTEX
  5
177B1
  8
0
 10
101.3159017125265962
 20
110.1000000000000938
 30
0.0
  0
VERTEX
  5
177B2
  8
0
 10
101.1887909818638036
 20
110.1000000000000938
 30
0.0
  0
VERTEX
  5
177B3
  8
0
 10
101.059085930279295
 20
110.1000000000000938
 30
0.0
  0
VERTEX
  5
177B4
  8
0
 10
100.9270203192703974
 20
110.1000000000000938
 30
0.0
  0
VERTEX
  5
177B5
  8
0
 10
100.6567424649704066
 20
110.1000000000000938
 30
0.0
  0
VERTEX
  5
177B6
  8
0
 10
100.3798275109445939
 20
110.1000000000000938
 30
0.0
  0
VERTEX
  5
177B7
  8
0
 10
100.0981455491735943
 20
110.1000000000000938
 30
0.0
  0
SEQEND
  5
177B8
  8
0
  0
POLYLINE
  5
1632C
  8
0
 66
     1
 10
0.0
 20
0.0
 30
0.0
  0
VERTEX
  5
177B9
  8
0
 10
100.0981455491735943
 20
110.1000000000000938
 30
0.0
  0
VERTEX
  5
177BA
  8
0
 10
99.8069232590516009
 20
110.1000000000000938
 30
0.0
  0
VERTEX
  5
177BB
  8
0
 10
99.6643620584568168
 20
110.1000000000000938
 30
0.0
  0
VERTEX
  5
177BC
  8
0
 10
99.5240736870499632
 20
110.1000000000000938
 30
0.0
  0
VERTEX
  5
177BD
  8
0
 10
99.3862377944891051
 20
110.1000000000000938
 30
0.0
  0
VERTEX
  5
177BE
  8
0
 10
99.2510340304320948
 20
110.1000000000000938
 30
0.0
  0
VERTEX
  5
177BF
  8
0
 10
99.118642044536827
 20
110.1000000000000938
 30
0.0
  0
VERTEX
  5
177C0
  8
0
 10
98.9892414864613812
 20
110.1000000000000938
 30
0.0
  0
VERTEX
  5
177C1
  8
0
 10
98.8630120058634816
 20
110.1000000000000938
 30
0.0
  0
VERTEX
  5
177C2
  8
0
 10
98.740133252401165
 20
110.1000000000000938
 30
0.0
  0
VERTEX
  5
177C3
  8
0
 10
98.6207848757323973
 20
110.1000000000000938
 30
0.0
  0
VERTEX
  5
177C4
  8
0
 10
98.5051465255149878
 20
110.1000000000000938
 30
0.0
  0
VERTEX
  5
177C5
  8
0
 10
98.3933978514069594
 20
110.1000000000000938
 30
0.0
  0
VERTEX
  5
177C6
  8
0
 10
98.285718503066235
 20
110.1000000000000938
 30
0.0
  0
VERTEX
  5
177C7
  8
0
 10
98.1822881301506669
 20
110.1000000000000938
 30
0.0
  0
VERTEX
  5
177C8
  8
0
 10
98.0832863823182635
 20
110.1000000000000938
 30
0.0
  0
VERTEX
  5
177C9
  8
0
 10
97.9888929092268768
 20
110.1000000000000938
 30
0.0
  0
VERTEX
  5
177CA
  8
0
 10
97.8992873605345437
 20
110.1000000000000938
 30
0.0
  0
VERTEX
  5
177CB
  8
0
 10
97.8146493858990453
 20
110.1000000000000938
 30
0.0
  0
VERTEX
  5
177CC
  8
0
 10
97.7351586349784043
 20
110.1000000000000938
 30
0.0
  0
VERTEX
  5
177CD
  8
0
 10
97.6609947574305579
 20
110.1000000000000938
 30
0.0
  0
VERTEX
  5
177CE
  8
0
 10
97.5923374029133441
 20
110.1000000000000938
 30
0.0
  0
VERTEX
  5
177CF
  8
0
 10
97.5293662210848282
 20
110.1000000000000938
 30
0.0
  0
VERTEX
  5
177D0
  8
0
 10
97.4722608616028054
 20
110.1000000000000938
 30
0.0
  0
VERTEX
  5
177D1
  8
0
 10
97.4212009741252842
 20
110.1000000000000938
 30
0.0
  0
VERTEX
  5
177D2
  8
0
 10
97.3763662083101167
 20
110.1000000000000938
 30
0.0
  0
VERTEX
  5
177D3
  8
0
 10
97.3379362138153539
 20
110.1000000000000938
 30
0.0
  0
VERTEX
  5
177D4
  8
0
 10
97.3060906402987484
 20
110.1000000000000938
 30
0.0
  0
VERTEX
  5
177D5
  8
0
 10
97.2810091374183941
 20
110.1000000000000938
 30
0.0
  0
VERTEX
  5
177D6
  8
0
 10
97.2628713548321286
 20
110.1000000000000938
 30
0.0
  0
VERTEX
  5
177D7
  8
0
 10
97.2518569421978327
 20
110.1000000000000938
 30
0.0
  0
VERTEX
  5
177D8
  8
0
 10
97.2481455491735858
 20
110.1000000000000938
 30
0.0
  0
SEQEND
  5
177D9
  8
0
  0
ENDSEC
  0
EOF
