  0
SECTION
  2
HEADER
  9
$ACADVER
  1
AC1009
  9
$INSBASE
 10
0.0
 20
0.0
 30
0.0
  9
$EXTMIN
 10
0.0
 20
-2.960436562073669
 30
0.0
  9
$EXTMAX
 10
364.9999999999998863
 20
226.9000000000407908
 30
0.0
  9
$LIMMIN
 10
0.0
 20
0.0
  9
$LIMMAX
 10
420.0
 20
297.0
  9
$ORTHOMODE
 70
     1
  9
$REGENMODE
 70
     1
  9
$FILLMODE
 70
     1
  9
$QTEXTMODE
 70
     0
  9
$MIRRTEXT
 70
     0
  9
$DRAGMODE
 70
     2
  9
$LTSCALE
 40
1.0
  9
$OSMODE
 70
    37
  9
$ATTMODE
 70
     1
  9
$TEXTSIZE
 40
2.5
  9
$TRACEWID
 40
1.0
  9
$TEXTSTYLE
  7
STANDARD
  9
$CLAYER
  8
1
  9
$CELTYPE
  6
BYLAYER
  9
$CECOLOR
 62
   256
  9
$DIMSCALE
 40
1.0
  9
$DIMASZ
 40
2.5
  9
$DIMEXO
 40
0.625
  9
$DIMDLI
 40
3.75
  9
$DIMRND
 40
0.0
  9
$DIMDLE
 40
0.0
  9
$DIMEXE
 40
1.25
  9
$DIMTP
 40
0.0
  9
$DIMTM
 40
0.0
  9
$DIMTXT
 40
2.5
  9
$DIMCEN
 40
2.5
  9
$DIMTSZ
 40
0.0
  9
$DIMTOL
 70
     0
  9
$DIMLIM
 70
     0
  9
$DIMTIH
 70
     0
  9
$DIMTOH
 70
     0
  9
$DIMSE1
 70
     0
  9
$DIMSE2
 70
     0
  9
$DIMTAD
 70
     1
  9
$DIMZIN
 70
     8
  9
$DIMBLK
  1

  9
$DIMASO
 70
     1
  9
$DIMSHO
 70
     1
  9
$DIMPOST
  1

  9
$DIMAPOST
  1

  9
$DIMALT
 70
     0
  9
$DIMALTD
 70
     3
  9
$DIMALTF
 40
0.03937007874016
  9
$DIMLFAC
 40
1.0
  9
$DIMTOFL
 70
     1
  9
$DIMTVP
 40
0.0
  9
$DIMTIX
 70
     0
  9
$DIMSOXD
 70
     0
  9
$DIMSAH
 70
     0
  9
$DIMBLK1
  1

  9
$DIMBLK2
  1

  9
$DIMSTYLE
  2
ISO-25
  9
$DIMCLRD
 70
     0
  9
$DIMCLRE
 70
     0
  9
$DIMCLRT
 70
     0
  9
$DIMTFAC
 40
1.0
  9
$DIMGAP
 40
0.625
  9
$LUNITS
 70
     2
  9
$LUPREC
 70
     1
  9
$SKETCHINC
 40
1.0
  9
$FILLETRAD
 40
0.0
  9
$AUNITS
 70
     0
  9
$AUPREC
 70
     0
  9
$MENU
  1
.
  9
$ELEVATION
 40
0.0
  9
$PELEVATION
 40
0.0
  9
$THICKNESS
 40
0.0
  9
$LIMCHECK
 70
     0
  9
$BLIPMODE
 70
     0
  9
$CHAMFERA
 40
0.0
  9
$CHAMFERB
 40
0.0
  9
$SKPOLY
 70
     0
  9
$TDCREATE
 40
2454946.5997685180045664
  9
$TDUPDATE
 40
2461104.4363194438628852
  9
$TDINDWG
 40
1.7024261458000001
  9
$TDUSRTIMER
 40
1.7024259721999999
  9
$USRTIMER
 70
     1
  9
$ANGBASE
 50
0.0
  9
$ANGDIR
 70
     0
  9
$PDMODE
 70
     0
  9
$PDSIZE
 40
0.0
  9
$PLINEWID
 40
0.0
  9
$COORDS
 70
     1
  9
$SPLFRAME
 70
     0
  9
$SPLINETYPE
 70
     6
  9
$SPLINESEGS
 70
     8
  9
$ATTDIA
 70
     1
  9
$ATTREQ
 70
     1
  9
$HANDLING
 70
     1
  9
$HANDSEED
  5
1720A
  9
$SURFTAB1
 70
     6
  9
$SURFTAB2
 70
     6
  9
$SURFTYPE
 70
     6
  9
$SURFU
 70
     6
  9
$SURFV
 70
     6
  9
$UCSNAME
  2

  9
$UCSORG
 10
0.0
 20
0.0
 30
0.0
  9
$UCSXDIR
 10
1.0
 20
0.0
 30
0.0
  9
$UCSYDIR
 10
0.0
 20
1.0
 30
0.0
  9
$PUCSNAME
  2

  9
$PUCSORG
 10
0.0
 20
0.0
 30
0.0
  9
$PUCSXDIR
 10
1.0
 20
0.0
 30
0.0
  9
$PUCSYDIR
 10
0.0
 20
1.0
 30
0.0
  9
$USERI1
 70
     0
  9
$USERI2
 70
     0
  9
$USERI3
 70
     0
  9
$USERI4
 70
     0
  9
$USERI5
 70
     0
  9
$USERR1
 40
0.0
  9
$USERR2
 40
0.0
  9
$USERR3
 40
0.0
  9
$USERR4
 40
0.0
  9
$USERR5
 40
0.0
  9
$WORLDVIEW
 70
     1
  9
$SHADEDGE
 70
     3
  9
$SHADEDIF
 70
    70
  9
$TILEMODE
 70
     1
  9
$MAXACTVP
 70
    64
  9
$PLIMCHECK
 70
     0
  9
$PEXTMIN
 10
0.0
 20
0.0
 30
0.0
  9
$PEXTMAX
 10
0.0
 20
0.0
 30
0.0
  9
$PLIMMIN
 10
0.0
 20
0.0
  9
$PLIMMAX
 10
12.0
 20
9.0
  9
$UNITMODE
 70
     0
  9
$VISRETAIN
 70
     1
  9
$PLINEGEN
 70
     0
  9
$PSLTSCALE
 70
     1
  0
ENDSEC
  0
SECTION
  2
TABLES
  0
TABLE
  2
VPORT
 70
     1
  0
VPORT
  2
*ACTIVE
 70
     0
 10
0.0
 20
0.0
 11
1.0
 21
1.0
 12
319.7381342062192857
 22
136.6259875190723108
 13
0.0
 23
0.0
 14
10.0
 24
10.0
 15
10.0
 25
10.0
 16
0.0
 26
0.0
 36
1.0
 17
0.0
 27
0.0
 37
0.0
 40
273.2519750381446784
 41
2.340243902439024
 42
50.0
 43
0.0
 44
0.0
 50
0.0
 51
0.0
 71
     0
 72
  1000
 73
     1
 74
     3
 75
     0
 76
     0
 77
     0
 78
     0
  0
ENDTAB
  0
TABLE
  2
LTYPE
 70
     2
  0
LTYPE
  2
CONTINUOUS
 70
     0
  3
Solid line
 72
    65
 73
     0
 40
0.0
  0
LTYPE
  2
CENTER
 70
     0
  3
Center ____ _ ____ _ ____ _ ____ _ ____ _ ____
 72
    65
 73
     4
 40
10.1600000000000001
 49
6.3499999999999979
 49
-1.27
 49
1.27
 49
-1.27
  0
ENDTAB
  0
TABLE
  2
LAYER
 70
     4
  0
LAYER
  2
0
 70
     0
 62
     7
  6
CONTINUOUS
  0
LAYER
  2
1
 70
     0
 62
     1
  6
CENTER
  0
LAYER
  2
DEFPOINTS
 70
     0
 62
     7
  6
CONTINUOUS
  0
LAYER
  2
3
 70
     0
 62
     3
  6
CONTINUOUS
  0
ENDTAB
  0
TABLE
  2
STYLE
 70
     2
  0
STYLE
  2
STANDARD
 70
     0
 40
0.0
 41
1.0
 50
0.0
 71
     0
 42
2.5
  3
txt
  4

  0
STYLE
  2
STANDARD1
 70
     0
 40
0.0
 41
1.0
 50
0.0
 71
     0
 42
3.0
  3
txt
  4

  0
ENDTAB
  0
TABLE
  2
VIEW
 70
     0
  0
ENDTAB
  0
TABLE
  2
UCS
 70
     0
  0
ENDTAB
  0
TABLE
  2
APPID
 70
   133
  0
APPID
  2
ACAD
 70
     0
  0
APPID
  2
ACADANNOTATIVE
 70
     0
  0
APPID
  2
_FTCNV
 70
     0
  0
APPID
  2
GENIUS_GENODEF_13
 70
     0
  0
APPID
  2
GENIUS_GENOENT_13
 70
     0
  0
APPID
  2
GENIUS_GENOBJ-N-CEN_13
 70
     0
  0
APPID
  2
GENIUS_GENOLIS_13
 70
     0
  0
APPID
  2
GENIUS_GENOREF_13
 70
     0
  0
APPID
  2
GENIUS_GENOBJ-N-CRS_13
 70
     0
  0
APPID
  2
GENIUS_GENOBJ-N-FIL_13
 70
     0
  0
APPID
  2
GENIUS_GENOBJ-N-REC_13
 70
     0
  0
APPID
  2
GENIUS_GENFIL_13
 70
     0
  0
APPID
  2
GENIUS_GENOBJ-N-CHA_13
 70
     0
  0
APPID
  2
ASM_BASE
 70
     0
  0
APPID
  2
_PHO
 70
     0
  0
APPID
  2
_CLP
 70
     0
  0
APPID
  2
MOJIGUMI_PARTS
 70
     0
  0
APPID
  2
_DBL
 70
     0
  0
APPID
  2
_PWH
 70
     0
  0
APPID
  2
_G9P
 70
     0
  0
APPID
  2
AME_SOL
 70
     0
  0
APPID
  2
HAKO_DEF
 70
     0
  0
APPID
  2
HAKO_TXT
 70
     0
  0
APPID
  2
HAKO_OVR
 70
     0
  0
APPID
  2
ASM_EXPLO_VER_2_00
 70
     0
  0
APPID
  2
ASM_CADM_VER_12_00
 70
     0
  0
APPID
  2
ASM_BASEFORO
 70
     0
  0
APPID
  2
ASM_BASETRAVI
 70
     0
  0
APPID
  2
ASM_BASETRAVI1
 70
     0
  0
APPID
  2
ASM_GRUPPI
 70
     0
  0
APPID
  2
ASM_CADM_ALBERO
 70
     0
  0
APPID
  2
ASM_GOLE
 70
     0
  0
APPID
  2
GENIUS_GENCFG_13
 70
     0
  0
APPID
  2
GENIUS_GENCFG0_13
 70
     0
  0
APPID
  2
GENIUS_GENCFG1_13
 70
     0
  0
APPID
  2
GENIUS_GENCFG2_13
 70
     0
  0
APPID
  2
GENIUS_GENCFG3_13
 70
     0
  0
APPID
  2
GENIUS_GENCFG4_13
 70
     0
  0
APPID
  2
GENIUS_GEVCFG0_13
 70
     0
  0
APPID
  2
GENIUS_GENHATCH_13
 70
     0
  0
APPID
  2
GENIUS_GEFCFG0_13
 70
     0
  0
APPID
  2
GENIUS_GENOBJ-N-HTC_13
 70
     0
  0
APPID
  2
DCO15
 70
     0
  0
APPID
  2
AVE_RENDER
 70
     0
  0
APPID
  2
AVE_ENTITY_MATERIAL
 70
     0
  0
APPID
  2
AVE_FINISH
 70
     0
  0
APPID
  2
AVE_MATERIAL
 70
     0
  0
APPID
  2
AVE_GLOBAL
 70
     0
  0
APPID
  2
_NUM
 70
     0
  0
APPID
  2
HAKO_FNM
 70
     0
  0
APPID
  2
_CALL_MAC$
 70
     0
  0
APPID
  2
ACA_CADIMENU
 70
     0
  0
APPID
  2
AUTOCAD_POSTSCRIPT_FIGURE
 70
     0
  0
APPID
  2
GEV_VCCNULL_SWITCH_OFF
 70
     0
  0
APPID
  2
GENIUS_GENDTOL_13
 70
     0
  0
APPID
  2
GENIUS_GEFWELD_13
 70
     0
  0
APPID
  2
GENIUS_GENOBJ-F-WELS_13
 70
     0
  0
APPID
  2
GEVID961514679
 70
     0
  0
APPID
  2
GEVDC
 70
     0
  0
APPID
  2
GEVPT
 70
     0
  0
APPID
  2
GEVIT
 70
     0
  0
APPID
  2
VCC
 70
     0
  0
APPID
  2
GENBH
 70
     0
  0
APPID
  2
GEVMK
 70
     0
  0
APPID
  2
GENIUS_GENBH_13
 70
     0
  0
APPID
  2
GENIUS_GENOBJ-NBEHI-BHF_13
 70
     0
  0
APPID
  2
GENIUS_GENOBJ-NBEHI-BHB_13
 70
     0
  0
APPID
  2
GENIUS_GENOBJ-F-DESC_13
 70
     0
  0
APPID
  2
GENIUS_GEFDESC_14
 70
     0
  0
APPID
  2
GENIUS_GENOBJ-F-PART_13
 70
     0
  0
APPID
  2
GENIUS_GEFSTDP_13
 70
     0
  0
APPID
  2
GENIUS_GEFPARTINS_13
 70
     0
  0
APPID
  2
GEVID961514680
 70
     0
  0
APPID
  2
GENIUS_GENTRA_14
 70
     0
  0
APPID
  2
GENIUS_GENINF13_13
 70
     0
  0
APPID
  2
GENIUS_GENOBJ-N-INFOPT_13
 70
     0
  0
APPID
  2
GENIUS_GENOBJ-N-RSSYM_13
 70
     0
  0
APPID
  2
GENIUS_GENSYMENT_13
 70
     0
  0
APPID
  2
GENIUS_GENSCSYM_13
 70
     0
  0
APPID
  2
GENIUS_GEFINFNAM_13
 70
     0
  0
APPID
  2
GENIUS_GENREC_14
 70
     0
  0
APPID
  2
GEVID962097543
 70
     0
  0
APPID
  2
GEVID962097544
 70
     0
  0
APPID
  2
GEVID962097545
 70
     0
  0
APPID
  2
GENIUS_DUMCFG0_13
 70
     0
  0
APPID
  2
GEVID962352965
 70
     0
  0
APPID
  2
GEVID962352966
 70
     0
  0
APPID
  2
GEVID962352968
 70
     0
  0
APPID
  2
GEVRADREF
 70
     0
  0
APPID
  2
GEVID963230099
 70
     0
  0
APPID
  2
GENIUS_GENOBJ-F-FEAT_13
 70
     0
  0
APPID
  2
GENIUS_GEFFEAT_14
 70
     0
  0
APPID
  2
GEVID963230100
 70
     0
  0
APPID
  2
GEVID963230101
 70
     0
  0
APPID
  2
GENIUS_GENHINW_13
 70
     0
  0
APPID
  2
GENIUS_FIRSTVISTXT_14
 70
     0
  0
APPID
  2
GENIUS_GENOBJ-N-LEADER_13
 70
     0
  0
APPID
  2
GEVID971698136
 70
     0
  0
APPID
  2
GEVID972029070
 70
     0
  0
APPID
  2
MCAD_NO_VIS
 70
     0
  0
APPID
  2
ACAD_TEMP_GRAPHIC
 70
     0
  0
APPID
  2
ACATTRIBSERVICES
 70
     0
  0
APPID
  2
GENIUS_GENDIMSH_14
 70
     0
  0
APPID
  2
CONTENTTABDATA
 70
     0
  0
APPID
  2
CONTENTCURRENTTAB
 70
     0
  0
APPID
  2
GENIUS_GENBLKED_14
 70
     0
  0
APPID
  2
GENIUS_GENOBJ_13
 70
     0
  0
APPID
  2
GENIUS_GENOBJ-N-TIT_13
 70
     0
  0
APPID
  2
GENIUS_GENTITLE_13
 70
     0
  0
APPID
  2
GENIUS_GENZVEED_13
 70
     0
  0
APPID
  2
GENIUS_GEFINERT_13
 70
     0
  0
APPID
  2
GENIUS_GENOBJ-F-INER_13
 70
     0
  0
APPID
  2
GENIUS_GENOBJ-N-ZOO_13
 70
     0
  0
APPID
  2
GENIUS_GENZOO_13
 70
     0
  0
APPID
  2
GENIUS_GENOBJ-F-TOL_13
 70
     0
  0
APPID
  2
GENIUS_GENOBJ-N-REV_13
 70
     0
  0
APPID
  2
GENIUS_GENREC_13
 70
     0
  0
APPID
  2
_KTH
 70
     0
  0
APPID
  2
GENIUS_GENOBJ-N-SEC_13
 70
     0
  0
APPID
  2
ACAD_EXEMPT_FROM_CAD_STANDARDS
 70
     0
  0
APPID
  2
ACAD_MLEADERVER
 70
     0
  0
APPID
  2
ACAD_NAV_VCDISPLAY
 70
     0
  0
APPID
  2
ACAD_PSEXT
 70
     0
  0
APPID
  2
ACAD_DSTYLE_DIMJAG
 70
     0
  0
APPID
  2
ACAD_DSTYLE_DIMTALN
 70
     0
  0
APPID
  2
ACAD_DSTYLE_DIMBREAK
 70
     0
  0
APPID
  2
ACAECLAYERSTANDARD
 70
     0
  0
APPID
  2
ACCMTRANSPARENCY
 70
     0
  0
APPID
  2
ACAD_DSTYLE_DIM_LINETYPE
 70
     0
  0
APPID
  2
GRADIENTCOLOR1ACI
 70
     0
  0
APPID
  2
GRADIENTCOLOR2ACI
 70
     0
  0
APPID
  2
ACAD_TC
 70
     0
  0
APPID
  2
ACAD_DSTYLE_DIMRADIAL_EXTENSION
 70
     0
  0
ENDTAB
  0
TABLE
  2
DIMSTYLE
 70
     2
  0
DIMSTYLE
  2
STANDARD
 70
     0
  3

  4

  5

  6

  7

 40
1.0
 41
0.18
 42
0.0625
 43
0.38
 44
0.18
 45
0.0
 46
0.0
 47
0.0
 48
0.0
140
0.18
141
0.09
142
0.0
143
25.3999999999999986
144
1.0
145
0.0
146
1.0
147
0.09
 71
     0
 72
     0
 73
     1
 74
     1
 75
     0
 76
     0
 77
     0
 78
     0
170
     0
171
     2
172
     0
173
     0
174
     0
175
     0
176
     0
177
     0
178
     0
  0
DIMSTYLE
  2
ISO-25
 70
     0
  3

  4

  5

  6

  7

 40
1.0
 41
2.5
 42
0.625
 43
3.75
 44
1.25
 45
0.0
 46
0.0
 47
0.0
 48
0.0
140
2.5
141
2.5
142
0.0
143
0.03937007874016
144
1.0
145
0.0
146
1.0
147
0.625
 71
     0
 72
     0
 73
     0
 74
     0
 75
     0
 76
     0
 77
     1
 78
     8
170
     0
171
     3
172
     1
173
     0
174
     0
175
     0
176
     0
177
     0
178
     0
  0
ENDTAB
  0
ENDSEC
  0
SECTION
  2
BLOCKS
  0
BLOCK
  8
0
  2
$MODEL_SPACE
 70
     0
 10
0.0
 20
0.0
 30
0.0
  3
$MODEL_SPACE
  1

  0
ENDBLK
  5
14D14
  8
0
  0
BLOCK
 67
     1
  8
0
  2
$PAPER_SPACE
 70
     0
 10
0.0
 20
0.0
 30
0.0
  3
$PAPER_SPACE
  1

  0
ENDBLK
  5
14D10
 67
     1
  8
0
  0
ENDSEC
  0
SECTION
  2
ENTITIES
  0
TEXT
  5
14E14
  8
0
 62
     3
 10
0.0
 20
0.0
 30
0.0
 40
10.0
  1
IMR-RA4-PV21
  7
STANDARD1
  0
LINE
  5
151E0
  8
0
 10
114.1526367562241973
 20
134.9551813004514997
 30
0.0
 11
116.4620378329828014
 21
134.9551813004514997
 31
0.0
  0
LINE
  5
151E1
  8
0
 10
116.4620378329828014
 20
134.9551813004514997
 30
0.0
 11
117.616738371362004
 21
136.9551813004514997
 31
0.0
  0
LINE
  5
151E2
  8
0
 10
117.616738371362004
 20
136.9551813004514997
 30
0.0
 11
116.4620378329828014
 21
138.9551813004514997
 31
0.0
  0
LINE
  5
151E3
  8
0
 10
116.4620378329828014
 20
138.9551813004514997
 30
0.0
 11
114.1526367562241973
 21
138.9551813004514997
 31
0.0
  0
LINE
  5
151E4
  8
0
 10
114.1526367562241973
 20
138.9551813004514997
 30
0.0
 11
112.9979362178449946
 21
136.9551813004514997
 31
0.0
  0
LINE
  5
151E5
  8
0
 10
112.9979362178449946
 20
136.9551813004514997
 30
0.0
 11
114.1526367562241973
 21
134.9551813004514997
 31
0.0
  0
LINE
  5
151F5
  8
0
 10
223.8999999999998067
 20
139.0551813004516077
 30
0.0
 11
223.499999999999801
 21
139.4551813004516134
 31
0.0
  0
LINE
  5
151F6
  8
0
 10
223.499999999999801
 20
139.4551813004514997
 30
0.0
 11
215.499999999999801
 21
139.4551813004514997
 31
0.0
  0
LINE
  5
151F7
  8
0
 10
223.499999999999801
 20
134.4551813004514997
 30
0.0
 11
223.8999999999998067
 21
134.8551813004515054
 31
0.0
  0
LINE
  5
151F8
  8
0
 10
215.4999999999996874
 20
134.4551813004514997
 30
0.0
 11
223.499999999999801
 21
134.4551813004514997
 31
0.0
  0
LINE
  5
151F9
  8
0
 10
198.9999999999996874
 20
114.677669529663504
 30
0.0
 11
204.4999999999998863
 21
114.677669529663504
 31
0.0
  0
LINE
  5
151FB
  8
0
 10
204.5
 20
85.3223304703361833
 30
0.0
 11
198.9999999999988916
 21
85.3223304703361833
 31
0.0
  0
LINE
  5
151FD
  8
0
 10
199.0000000000003979
 20
79.3223304703361833
 30
0.0
 11
204.4999999999998863
 21
79.3223304703361833
 31
0.0
  0
LINE
  5
151FF
  8
0
 10
204.4999999999998863
 20
120.677669529663504
 30
0.0
 11
198.9999999999996874
 21
120.677669529663504
 31
0.0
  0
LINE
  5
15201
  8
0
 10
204.4999999999998863
 20
128.0
 30
0.0
 11
198.9999999999596128
 21
128.0
 31
0.0
  0
LINE
  5
15203
  8
0
 10
223.9000000000002046
 20
65.1448186995485514
 30
0.0
 11
223.500000000000199
 21
65.5448186995485429
 31
0.0
  0
LINE
  5
15204
  8
0
 10
223.500000000000199
 20
65.5448186995485429
 30
0.0
 11
215.4999999999996874
 21
65.5448186995485429
 31
0.0
  0
LINE
  5
15205
  8
0
 10
223.500000000000199
 20
60.54481869954855
 30
0.0
 11
223.9000000000002046
 21
60.9448186995485273
 31
0.0
  0
LINE
  5
15206
  8
0
 10
215.499999999999801
 20
60.54481869954855
 30
0.0
 11
223.500000000000199
 21
60.54481869954855
 31
0.0
  0
LINE
  5
15209
  8
0
 10
215.4999999999998863
 20
145.5
 30
0.0
 11
215.4999999999998863
 21
54.5
 31
0.0
  0
LINE
  5
1520B
  8
0
 10
206.5
 20
54.5000000000000071
 30
0.0
 11
215.4999999999998863
 21
54.5000000000000071
 31
0.0
  0
LINE
  5
1520D
  8
0
 10
206.5
 20
145.5
 30
0.0
 11
215.5000000000001137
 21
145.5
 31
0.0
  0
LINE
  5
1520F
  8
0
 10
206.5
 20
54.5000000000000071
 30
0.0
 11
206.5000000000001137
 21
145.5
 31
0.0
  0
LINE
  5
15213
  8
0
 10
220.4999999999996021
 20
107.3401805670246034
 30
0.0
 11
220.4999999999996021
 21
110.3401805670246034
 31
0.0
  0
LINE
  5
15215
  8
0
 10
220.4999999999996021
 20
110.3401805670246034
 30
0.0
 11
215.4999999999996021
 21
110.3401805670246034
 31
0.0
  0
LINE
  5
15216
  8
0
 10
220.4999999999996021
 20
107.3401805670246034
 30
0.0
 11
215.4999999999996021
 21
107.3401805670246034
 31
0.0
  0
LINE
  5
15217
  8
0
 10
223.8999999999996078
 20
82.5926627053966769
 30
0.0
 11
223.4999999999996874
 21
82.192662705396657
 31
0.0
  0
LINE
  5
15218
  8
0
 10
223.4999999999996874
 20
87.192662705396657
 30
0.0
 11
223.4999999999996874
 21
82.192662705396657
 31
0.0
  0
LINE
  5
15219
  8
0
 10
223.8999999999996078
 20
86.7926627053966939
 30
0.0
 11
223.4999999999996874
 21
87.192662705396657
 31
0.0
  0
LINE
  5
1521A
  8
0
 10
223.8999999999996078
 20
86.7926627053966939
 30
0.0
 11
223.8999999999996078
 21
82.5926627053966769
 31
0.0
  0
LINE
  5
1521B
  8
0
 10
215.4999999999996021
 20
87.192662705396657
 30
0.0
 11
223.4999999999996874
 21
87.192662705396657
 31
0.0
  0
LINE
  5
1521C
  8
0
 10
215.4999999999996021
 20
82.192662705396657
 30
0.0
 11
223.4999999999996874
 21
82.192662705396657
 31
0.0
  0
LINE
  5
15220
  8
0
 10
204.5000000000001137
 20
67.9999999999999858
 30
0.0
 11
206.5
 21
68.0
 31
0.0
  0
LINE
  5
15222
  8
0
 10
204.5000000000001137
 20
132.0
 30
0.0
 11
206.5000000000001137
 21
132.0
 31
0.0
  0
LINE
  5
15224
  8
0
 10
204.5
 20
67.9999999999999858
 30
0.0
 11
204.5000000000001137
 21
132.0
 31
0.0
  0
LINE
  5
15228
  8
0
 10
223.8999999999998067
 20
139.0551813004516077
 30
0.0
 11
223.8999999999998067
 21
134.8551813004515054
 31
0.0
  0
LINE
  5
1522E
  8
0
 10
198.4999999999996874
 20
115.177669529663504
 30
0.0
 11
198.4999999999996021
 21
120.1776695296627935
 31
0.0
  0
LINE
  5
15231
  8
0
 10
198.4999999999996874
 20
79.8223304703353591
 30
0.0
 11
198.499999999999801
 21
84.8223304703354444
 31
0.0
  0
LINE
  5
15237
  8
0
 10
200.0
 20
85.3223304703361833
 30
0.0
 11
200.0
 21
114.677669529663504
 31
0.0
  0
LINE
  5
1523D
  8
0
 10
198.9999999999596128
 20
122.0
 30
0.0
 11
198.9999999999596128
 21
128.0
 31
0.0
  0
LINE
  5
1523E
  8
0
 10
223.500000000000199
 20
65.5448186995485429
 30
0.0
 11
223.500000000000199
 21
63.04481869954855
 31
0.0
  0
LINE
  5
1523F
  8
0
 10
223.9000000000002046
 20
65.1448186995485514
 30
0.0
 11
223.9000000000002046
 21
60.9448186995485273
 31
0.0
  0
LINE
  5
15241
  8
0
 10
223.500000000000199
 20
63.04481869954855
 30
0.0
 11
223.500000000000199
 21
60.54481869954855
 31
0.0
  0
LINE
  5
15249
  8
0
 10
223.5000000000003979
 20
117.8073372946033004
 30
0.0
 11
223.5000000000003979
 21
112.8073372946033004
 31
0.0
  0
LINE
  5
1524A
  8
0
 10
223.9000000000004036
 20
117.4073372946032947
 30
0.0
 11
223.5000000000003979
 21
117.8073372946033004
 31
0.0
  0
LINE
  5
1524B
  8
0
 10
223.9000000000004036
 20
117.4073372946032947
 30
0.0
 11
223.9000000000004036
 21
113.2073372946033061
 31
0.0
  0
LINE
  5
1524C
  8
0
 10
223.9000000000004036
 20
113.2073372946033061
 30
0.0
 11
223.5000000000003979
 21
112.8073372946033004
 31
0.0
  0
LINE
  5
1524D
  8
0
 10
215.5000000000003979
 20
112.8073372946033004
 30
0.0
 11
223.5000000000003979
 21
112.8073372946033004
 31
0.0
  0
LINE
  5
1524E
  8
0
 10
215.5000000000003979
 20
117.8073372946033004
 30
0.0
 11
223.5000000000003979
 21
117.8073372946033004
 31
0.0
  0
CIRCLE
  5
1534F
  8
0
 10
100.0
 20
100.0
 30
0.0
 40
45.4999999999999929
  0
CIRCLE
  5
15350
  8
0
 10
71.715728752538098
 20
128.2842712474617883
 30
0.0
 40
1.6500000000000341
  0
CIRCLE
  5
15351
  8
3
 10
71.715728752538098
 20
128.2842712474617883
 30
0.0
 40
2.0
  0
CIRCLE
  5
15352
  8
0
 10
128.2842712474615041
 20
128.2842712474621862
 30
0.0
 40
1.6500000000000341
  0
CIRCLE
  5
15353
  8
3
 10
128.2842712474615041
 20
128.2842712474621862
 30
0.0
 40
2.0
  0
CIRCLE
  5
15354
  8
0
 10
128.284271247461902
 20
71.7157287525381548
 30
0.0
 40
1.6500000000000341
  0
CIRCLE
  5
15355
  8
3
 10
128.284271247461902
 20
71.7157287525381548
 30
0.0
 40
2.0
  0
CIRCLE
  5
15356
  8
0
 10
71.7157287525382685
 20
71.7157287525379417
 30
0.0
 40
1.6500000000000341
  0
CIRCLE
  5
15357
  8
3
 10
71.7157287525382685
 20
71.7157287525379417
 30
0.0
 40
2.0
  0
CIRCLE
  5
1535F
  8
0
 10
63.0448186995483795
 20
115.3073372946033004
 30
0.0
 40
4.0
  0
CIRCLE
  5
15360
  8
0
 10
63.0448186995483795
 20
115.3073372946033004
 30
0.0
 40
4.5
  0
CIRCLE
  5
15361
  8
0
 10
115.3073372946034993
 20
136.9551813004514997
 30
0.0
 40
4.0
  0
CIRCLE
  5
15362
  8
0
 10
115.3073372946034993
 20
136.9551813004514997
 30
0.0
 40
4.5
  0
CIRCLE
  5
15363
  8
0
 10
136.9551813004516134
 20
84.692662705396657
 30
0.0
 40
4.0
  0
CIRCLE
  5
15364
  8
0
 10
136.9551813004516134
 20
84.692662705396657
 30
0.0
 40
4.5
  0
CIRCLE
  5
15365
  8
0
 10
84.6926627053965717
 20
63.0448186995484505
 30
0.0
 40
4.0
  0
CIRCLE
  5
15366
  8
0
 10
84.6926627053965717
 20
63.0448186995484505
 30
0.0
 40
4.5
  0
CIRCLE
  5
15367
  8
0
 10
139.633965327007104
 20
108.8401805670246034
 30
0.0
 40
1.0
  0
CIRCLE
  5
15368
  8
0
 10
140.0
 20
93.0000000000000142
 30
0.0
 40
1.0
  0
CIRCLE
  5
15369
  8
0
 10
65.7236027261041613
 20
78.2255059778173347
 30
0.0
 40
1.0
  0
CIRCLE
  5
1536A
  8
0
 10
60.0
 20
93.0000000000000142
 30
0.0
 40
1.0
  0
CIRCLE
  5
1536B
  8
0
 10
100.0
 20
100.0
 30
0.0
 40
32.0
  0
CIRCLE
  5
15375
  8
3
 10
117.6776695296638025
 20
117.6776695296636035
 30
0.0
 40
2.5000000000000879
  0
CIRCLE
  5
15376
  8
0
 10
117.6776695296638025
 20
117.6776695296636035
 30
0.0
 40
3.0000000000000702
  0
CIRCLE
  5
15378
  8
0
 10
100.0
 20
125.0
 30
0.0
 40
3.0
  0
LINE
  5
1537A
  8
3
 10
198.4999999999994884
 20
120.1776695296627935
 30
0.0
 11
204.4999999999998863
 21
120.177669529662694
 31
0.0
  0
LINE
  5
1537B
  8
3
 10
198.4999999999996021
 20
115.177669529662694
 30
0.0
 11
204.4999999999998863
 21
115.177669529662694
 31
0.0
  0
CIRCLE
  5
1537C
  8
0
 10
100.0
 20
100.0
 30
0.0
 40
11.0000000000000302
  0
CIRCLE
  5
1537D
  8
0
 10
100.0
 20
100.0
 30
0.0
 40
15.7500000000000302
  0
LINE
  5
15381
  8
3
 10
198.4999999999996021
 20
84.822330470335416
 30
0.0
 11
204.4999999999998863
 21
84.822330470335416
 31
0.0
  0
LINE
  5
15382
  8
3
 10
198.4999999999996021
 20
79.8223304703353591
 30
0.0
 11
204.4999999999998863
 21
79.8223304703353591
 31
0.0
  0
LINE
  5
153A0
  8
0
 10
198.4999999999996874
 20
115.177669529663504
 30
0.0
 11
198.9999999999996874
 21
114.6776695296636035
 31
0.0
  0
LINE
  5
153A1
  8
0
 10
198.9999999999996021
 20
120.677669529663504
 30
0.0
 11
198.4999999999996021
 21
120.177669529663504
 31
0.0
  0
LINE
  5
153A2
  8
0
 10
198.9999999999996874
 20
114.677669529663504
 30
0.0
 11
198.999999999999801
 21
120.677669529663504
 31
0.0
  0
LINE
  5
153A4
  8
0
 10
198.4999999999996021
 20
79.8223304703369791
 30
0.0
 11
198.9999999999996021
 21
79.3223304703370076
 31
0.0
  0
LINE
  5
153A5
  8
0
 10
198.9999999999996021
 20
85.3223304703369649
 30
0.0
 11
198.4999999999996021
 21
84.8223304703369934
 31
0.0
  0
LINE
  5
153A6
  8
0
 10
198.9999999999996874
 20
79.3223304703362118
 30
0.0
 11
198.999999999999801
 21
85.3223304703361833
 31
0.0
  0
CIRCLE
  5
153A7
  8
1
 10
100.0
 20
100.0
 30
0.0
 40
25.0000000000000284
  0
LINE
  5
153A8
  8
1
 10
100.0
 20
149.5
 30
0.0
 11
100.0
 21
50.5
 31
0.0
  0
LINE
  5
153A9
  8
1
 10
50.5
 20
100.0
 30
0.0
 11
149.5
 21
100.0
 31
0.0
  0
LINE
  5
153AA
  8
1
 10
196.0
 20
100.0
 30
0.0
 11
219.5000000000001137
 21
100.0
 31
0.0
  0
LINE
  5
153B3
  8
1
 10
113.9300035893751044
 20
113.930003589374806
 30
0.0
 11
121.4253354699526
 21
121.4253354699522021
 31
0.0
  0
CIRCLE
  5
153B5
  8
1
 10
100.0
 20
100.0
 30
0.0
 40
40.0000000000000284
  0
LINE
  5
153B6
  8
1
 10
57.0396017382250307
 20
117.794779604976398
 30
0.0
 11
69.0500356608717425
 21
112.8198949842303023
 31
0.0
  0
LINE
  5
153B7
  8
1
 10
82.2052203950235025
 20
57.0396017382250804
 30
0.0
 11
87.1801050157696409
 21
69.0500356608718278
 31
0.0
  0
LINE
  5
153B8
  8
1
 10
68.887301627791885
 20
131.1126983722080013
 30
0.0
 11
74.5441558772842541
 21
125.4558441227156038
 31
0.0
  0
LINE
  5
153B9
  8
1
 10
68.8873016277921124
 20
68.8873016277917287
 30
0.0
 11
74.5441558772844814
 21
74.544155877284112
 31
0.0
  0
LINE
  5
153C2
  8
1
 10
125.4558441227157033
 20
74.5441558772842825
 30
0.0
 11
131.1126983722080865
 21
68.887301627791885
 31
0.0
  0
LINE
  5
153C3
  8
1
 10
112.8198949842303023
 20
130.9499643391282007
 30
0.0
 11
117.794779604976398
 21
142.9603982617749978
 31
0.0
  0
LINE
  5
153C4
  8
1
 10
130.9499643391282007
 20
87.1801050157696835
 30
0.0
 11
142.9603982617749978
 21
82.2052203950236162
 31
0.0
  0
LINE
  5
153C5
  8
1
 10
125.4558441227155043
 20
125.4558441227158028
 30
0.0
 11
131.1126983722078876
 21
131.1126983722082002
 31
0.0
  0
LINE
  5
153CD
  8
1
 10
57.0
 20
93.0000000000000142
 30
0.0
 11
63.0
 21
93.0000000000000142
 31
0.0
  0
LINE
  5
153D0
  8
1
 10
140.0
 20
96.0000000000000284
 30
0.0
 11
140.0
 21
90.0000000000000284
 31
0.0
  0
LINE
  5
153D1
  8
1
 10
60.0
 20
96.0000000000000284
 30
0.0
 11
60.0
 21
90.0000000000000284
 31
0.0
  0
LINE
  5
153D2
  8
1
 10
137.0
 20
93.0000000000000142
 30
0.0
 11
143.0
 21
93.0000000000000142
 31
0.0
  0
LINE
  5
153D3
  8
1
 10
62.9519641285703031
 20
77.0774556807220819
 30
0.0
 11
68.4952413236380266
 21
79.3735562749126444
 31
0.0
  0
LINE
  5
153D7
  8
1
 10
136.8623267294732102
 20
107.6921302699292937
 30
0.0
 11
142.4056039245409124
 21
109.9882308641198989
 31
0.0
  0
LINE
  5
153D8
  8
1
 10
138.4859150299118937
 20
111.6118191645584972
 30
0.0
 11
140.7820156241023994
 21
106.0685419694906955
 31
0.0
  0
LINE
  5
153D9
  8
1
 10
66.8716530231994852
 20
75.4538673802834978
 30
0.0
 11
64.5755524290089511
 21
80.9971445753512285
 31
0.0
  0
LINE
  5
153DA
  8
1
 10
197.5
 20
125.0
 30
0.0
 11
206.5
 21
125.0
 31
0.0
  0
LINE
  5
153DC
  8
1
 10
196.4999999999996874
 20
117.677669529663504
 30
0.0
 11
206.4999999999998863
 21
117.6776695296636035
 31
0.0
  0
LINE
  5
153DD
  8
1
 10
196.4999999999996874
 20
82.3223304703361833
 30
0.0
 11
206.5
 21
82.3223304703361549
 31
0.0
  0
LINE
  5
153ED
  8
3
 10
223.8999999999998067
 20
139.0551813004514941
 30
0.0
 11
215.4999999999998863
 21
139.0551813004514941
 31
0.0
  0
LINE
  5
153EE
  8
3
 10
223.8999999999998067
 20
134.8551813004515054
 30
0.0
 11
215.4999999999998863
 21
134.8551813004515054
 31
0.0
  0
LINE
  5
153EF
  8
0
 10
223.499999999999801
 20
139.4551813004514997
 30
0.0
 11
223.499999999999801
 21
134.4551813004514997
 31
0.0
  0
LINE
  5
153F0
  8
1
 10
225.8999999999998067
 20
136.9551813004514997
 30
0.0
 11
213.4999999999998863
 21
136.9551813004514997
 31
0.0
  0
LINE
  5
153F1
  8
3
 10
223.9000000000004036
 20
117.4073372946032947
 30
0.0
 11
215.5000000000005116
 21
117.4073372946032947
 31
0.0
  0
LINE
  5
153F2
  8
3
 10
223.9000000000004036
 20
113.2073372946033061
 30
0.0
 11
215.5000000000005116
 21
113.2073372946033061
 31
0.0
  0
LINE
  5
153F3
  8
1
 10
225.9000000000004036
 20
115.3073372946033999
 30
0.0
 11
213.5000000000005116
 21
115.3073372946033999
 31
0.0
  0
LINE
  5
153F4
  8
3
 10
223.8999999999996078
 20
86.7926627053966371
 30
0.0
 11
215.4999999999996874
 21
86.7926627053966371
 31
0.0
  0
LINE
  5
153F5
  8
3
 10
223.8999999999996078
 20
82.59266270539662
 30
0.0
 11
215.4999999999996874
 21
82.59266270539662
 31
0.0
  0
LINE
  5
153F6
  8
1
 10
225.8999999999996078
 20
84.6926627053966854
 30
0.0
 11
213.4999999999996874
 21
84.6926627053966854
 31
0.0
  0
LINE
  5
153F7
  8
3
 10
223.9000000000002046
 20
65.144818699548523
 30
0.0
 11
215.5000000000003126
 21
65.144818699548523
 31
0.0
  0
LINE
  5
153F8
  8
3
 10
223.9000000000002046
 20
60.9448186995485131
 30
0.0
 11
215.5000000000003126
 21
60.9448186995485131
 31
0.0
  0
LINE
  5
153F9
  8
1
 10
225.9000000000002046
 20
63.04481869954855
 30
0.0
 11
213.5000000000003126
 21
63.04481869954855
 31
0.0
  0
LINE
  5
1542F
  8
0
 10
61.8901181611690774
 20
113.3073372946033004
 30
0.0
 11
64.1995192379276887
 21
113.3073372946033004
 31
0.0
  0
LINE
  5
15430
  8
0
 10
64.1995192379276887
 20
113.3073372946033004
 30
0.0
 11
65.3542197763069339
 21
115.3073372946033004
 31
0.0
  0
LINE
  5
15431
  8
0
 10
65.3542197763069339
 20
115.3073372946033004
 30
0.0
 11
64.1995192379276887
 21
117.3073372946033004
 31
0.0
  0
LINE
  5
15432
  8
0
 10
64.1995192379276887
 20
117.3073372946033004
 30
0.0
 11
61.8901181611691413
 21
117.3073372946033004
 31
0.0
  0
LINE
  5
15433
  8
0
 10
61.8901181611691413
 20
117.3073372946033004
 30
0.0
 11
60.735417622789889
 21
115.3073372946033004
 31
0.0
  0
LINE
  5
15434
  8
0
 10
60.735417622789889
 20
115.3073372946033004
 30
0.0
 11
61.8901181611690774
 21
113.3073372946033004
 31
0.0
  0
LINE
  5
15435
  8
0
 10
83.5379621670172696
 20
61.0448186995484505
 30
0.0
 11
85.8473632437758738
 21
61.0448186995484505
 31
0.0
  0
LINE
  5
15436
  8
0
 10
85.8473632437758738
 20
61.0448186995484505
 30
0.0
 11
87.0020637821551048
 21
63.0448186995484505
 31
0.0
  0
LINE
  5
15437
  8
0
 10
87.0020637821551048
 20
63.0448186995484505
 30
0.0
 11
85.8473632437758738
 21
65.0448186995484576
 31
0.0
  0
LINE
  5
15438
  8
0
 10
85.8473632437758738
 20
65.0448186995484576
 30
0.0
 11
83.5379621670173265
 21
65.0448186995484576
 31
0.0
  0
LINE
  5
15439
  8
0
 10
83.5379621670173265
 20
65.0448186995484576
 30
0.0
 11
82.3832616286380812
 21
63.0448186995484505
 31
0.0
  0
LINE
  5
1543A
  8
0
 10
82.3832616286380812
 20
63.0448186995484505
 30
0.0
 11
83.5379621670172696
 21
61.0448186995484505
 31
0.0
  0
LINE
  5
1543B
  8
0
 10
135.8004807620723113
 20
82.692662705396657
 30
0.0
 11
138.1098818388308871
 21
82.692662705396657
 31
0.0
  0
LINE
  5
1543C
  8
0
 10
138.1098818388308871
 20
82.692662705396657
 30
0.0
 11
139.2645823772101039
 21
84.692662705396657
 31
0.0
  0
LINE
  5
1543D
  8
0
 10
139.2645823772101039
 20
84.692662705396657
 30
0.0
 11
138.1098818388308871
 21
86.692662705396657
 31
0.0
  0
LINE
  5
1543E
  8
0
 10
138.1098818388308871
 20
86.692662705396657
 30
0.0
 11
135.8004807620723113
 21
86.692662705396657
 31
0.0
  0
LINE
  5
1543F
  8
0
 10
135.8004807620723113
 20
86.692662705396657
 30
0.0
 11
134.6457802236930945
 21
84.692662705396657
 31
0.0
  0
LINE
  5
15440
  8
0
 10
134.6457802236930945
 20
84.692662705396657
 30
0.0
 11
135.8004807620723113
 21
82.692662705396657
 31
0.0
  0
LINE
  5
1546F
  8
1
 10
222.4999999999996021
 20
108.8401805670246034
 30
0.0
 11
213.4999999999998863
 21
108.8401805670246034
 31
0.0
  0
LINE
  5
15470
  8
0
 10
220.5000000000003979
 20
76.7255059778173347
 30
0.0
 11
220.5000000000003979
 21
79.7255059778173631
 31
0.0
  0
LINE
  5
15471
  8
0
 10
220.5000000000003979
 20
79.7255059778173631
 30
0.0
 11
215.5000000000003979
 21
79.7255059778173347
 31
0.0
  0
LINE
  5
15472
  8
0
 10
220.5000000000003979
 20
76.7255059778173631
 30
0.0
 11
215.5000000000003979
 21
76.7255059778173916
 31
0.0
  0
LINE
  5
15473
  8
1
 10
222.5000000000003979
 20
78.2255059778173631
 30
0.0
 11
213.5000000000007105
 21
78.2255059778173631
 31
0.0
  0
LINE
  5
154A0
  8
1
 10
81.0571700979280934
 20
145.7320368593086926
 30
0.0
 11
118.9428299020719066
 21
54.2679631406912932
 31
0.0
  0
LINE
  5
154B1
  8
1
 10
54.2679631406913074
 20
81.0571700979280934
 30
0.0
 11
145.7320368593086926
 21
118.9428299020719066
 31
0.0
  0
CIRCLE
  5
15C28
  8
0
 10
117.6776695296639019
 20
117.677669529663504
 30
0.0
 40
3.2999999999999989
  0
CIRCLE
  5
15C29
  8
3
 10
117.6776695296636035
 20
82.322330470336226
 30
0.0
 40
2.5000000000000879
  0
CIRCLE
  5
15C2A
  8
0
 10
117.6776695296636035
 20
82.322330470336226
 30
0.0
 40
3.0000000000000702
  0
LINE
  5
15C2B
  8
1
 10
121.425335469952401
 20
78.5746645300474285
 30
0.0
 11
113.9300035893750049
 21
86.069996410624853
 31
0.0
  0
CIRCLE
  5
15C2C
  8
0
 10
117.6776695296636035
 20
82.3223304703361549
 30
0.0
 40
3.2999999999999989
  0
CIRCLE
  5
15C2D
  8
3
 10
82.3223304703361265
 20
82.3223304703364676
 30
0.0
 40
2.5000000000000879
  0
CIRCLE
  5
15C2E
  8
0
 10
82.3223304703361265
 20
82.3223304703364676
 30
0.0
 40
3.0000000000000702
  0
LINE
  5
15C2F
  8
1
 10
86.069996410624924
 20
86.0699964106250661
 30
0.0
 11
78.5746645300474995
 21
78.5746645300476843
 31
0.0
  0
CIRCLE
  5
15C30
  8
0
 10
82.3223304703361833
 20
82.3223304703364107
 30
0.0
 40
3.2999999999999989
  0
CIRCLE
  5
15C31
  8
3
 10
82.3223304703363965
 20
117.6776695296638025
 30
0.0
 40
2.5000000000000879
  0
CIRCLE
  5
15C32
  8
0
 10
82.3223304703363965
 20
117.6776695296638025
 30
0.0
 40
3.0000000000000702
  0
LINE
  5
15C33
  8
1
 10
86.0699964106251656
 20
113.9300035893750049
 30
0.0
 11
78.5746645300477837
 21
121.4253354699525005
 31
0.0
  0
CIRCLE
  5
15C34
  8
0
 10
82.3223304703364533
 20
117.6776695296638025
 30
0.0
 40
3.2999999999999989
  0
CIRCLE
  5
15D36
  8
0
 10
315.4999999999998863
 20
100.0
 30
0.0
 40
45.4999999999999929
  0
CIRCLE
  5
15D37
  8
0
 10
343.784271247461902
 20
128.2842712474617883
 30
0.0
 40
1.6500000000000341
  0
CIRCLE
  5
15D38
  8
3
 10
343.784271247461902
 20
128.2842712474617883
 30
0.0
 40
2.0
  0
CIRCLE
  5
15D39
  8
0
 10
287.2157287525383822
 20
128.2842712474621862
 30
0.0
 40
1.6500000000000341
  0
CIRCLE
  5
15D3A
  8
3
 10
287.2157287525383822
 20
128.2842712474621862
 30
0.0
 40
2.0
  0
CIRCLE
  5
15D3B
  8
0
 10
287.2157287525379843
 20
71.7157287525381548
 30
0.0
 40
1.6500000000000341
  0
CIRCLE
  5
15D3C
  8
3
 10
287.2157287525379843
 20
71.7157287525381548
 30
0.0
 40
2.0
  0
CIRCLE
  5
15D3D
  8
0
 10
343.7842712474616746
 20
71.7157287525379417
 30
0.0
 40
1.6500000000000341
  0
CIRCLE
  5
15D3E
  8
3
 10
343.7842712474616746
 20
71.7157287525379417
 30
0.0
 40
2.0
  0
CIRCLE
  5
15D47
  8
0
 10
275.866034672992896
 20
108.8401805670246034
 30
0.0
 40
1.5
  0
CIRCLE
  5
15D48
  8
0
 10
275.4999999999998863
 20
93.0000000000000142
 30
0.0
 40
1.5
  0
CIRCLE
  5
15D4B
  8
0
 10
315.4999999999998863
 20
100.0
 30
0.0
 40
32.0
  0
CIRCLE
  5
15D4E
  8
0
 10
315.4999999999998863
 20
125.0
 30
0.0
 40
3.0
  0
CIRCLE
  5
15D4F
  8
0
 10
315.4999999999998863
 20
100.0
 30
0.0
 40
11.0
  0
CIRCLE
  5
15D51
  8
1
 10
315.4999999999998863
 20
100.0
 30
0.0
 40
25.0
  0
LINE
  5
15D52
  8
1
 10
315.4999999999998863
 20
149.5
 30
0.0
 11
315.4999999999998863
 21
50.5
 31
0.0
  0
LINE
  5
15D53
  8
1
 10
364.9999999999998863
 20
100.0
 30
0.0
 11
266.0
 21
100.0
 31
0.0
  0
CIRCLE
  5
15D55
  8
1
 10
315.4999999999998863
 20
100.0
 30
0.0
 40
40.0000000000000284
  0
LINE
  5
15D5A
  8
1
 10
346.612698372208115
 20
131.1126983722080013
 30
0.0
 11
340.9558441227156891
 21
125.4558441227156038
 31
0.0
  0
LINE
  5
15D5B
  8
1
 10
290.0441558772841972
 20
74.5441558772842825
 30
0.0
 11
284.3873016277918282
 21
68.887301627791885
 31
0.0
  0
LINE
  5
15D5C
  8
1
 10
346.6126983722077739
 20
68.8873016277917287
 30
0.0
 11
340.9558441227155186
 21
74.544155877284112
 31
0.0
  0
LINE
  5
15D5D
  8
1
 10
290.0441558772844246
 20
125.4558441227158028
 30
0.0
 11
284.3873016277919987
 21
131.1126983722082002
 31
0.0
  0
LINE
  5
15D5F
  8
1
 10
279.0
 20
93.0000000000000142
 30
0.0
 11
271.9999999999998863
 21
93.0000000000000142
 31
0.0
  0
LINE
  5
15D60
  8
1
 10
275.4999999999998863
 20
96.5000000000000284
 30
0.0
 11
275.4999999999998863
 21
89.5000000000000142
 31
0.0
  0
LINE
  5
15D63
  8
1
 10
279.099613036782273
 20
107.5007885537468013
 30
0.0
 11
272.6324563092032918
 21
110.1795725803024055
 31
0.0
  0
LINE
  5
15D64
  8
1
 10
277.2054266862705845
 20
112.073758930814094
 30
0.0
 11
274.5266426597149234
 21
105.6066022032350986
 31
0.0
  0
LINE
  5
15D78
  8
1
 10
334.4428299020718214
 20
145.7320368593086926
 30
0.0
 11
296.5571700979280081
 21
54.2679631406912932
 31
0.0
  0
LINE
  5
15D79
  8
1
 10
361.232036859308721
 20
81.0571700979280934
 30
0.0
 11
269.7679631406912222
 21
118.9428299020719066
 31
0.0
  0
CIRCLE
  5
15E63
  8
0
 10
300.1926627053965717
 20
136.9551813004516134
 30
0.0
 40
2.75
  0
CIRCLE
  5
15E64
  8
0
 10
300.1926627053965717
 20
136.9551813004516134
 30
0.0
 40
2.5
  0
CIRCLE
  5
15E65
  8
3
 10
300.1926627053965717
 20
136.9551813004516134
 30
0.0
 40
2.099999999999965
  0
LINE
  5
15E66
  8
1
 10
302.0104090091309104
 20
132.5667535210230028
 30
0.0
 11
298.3749164016628015
 21
141.3436090798803093
 31
0.0
  0
CIRCLE
  5
15E67
  8
0
 10
278.5448186995481024
 20
84.6926627053965291
 30
0.0
 40
2.75
  0
CIRCLE
  5
15E68
  8
0
 10
278.5448186995481024
 20
84.6926627053965291
 30
0.0
 40
2.5
  0
CIRCLE
  5
15E69
  8
3
 10
278.5448186995481024
 20
84.6926627053965291
 30
0.0
 40
2.099999999999965
  0
LINE
  5
15E6A
  8
1
 10
282.9332464789774235
 20
86.5104090091317062
 30
0.0
 11
274.1563909201200886
 21
82.8749164016635973
 31
0.0
  0
CIRCLE
  5
15E6B
  8
0
 10
330.8073372946030872
 20
63.0448186995483084
 30
0.0
 40
2.75
  0
CIRCLE
  5
15E6C
  8
0
 10
330.8073372946030872
 20
63.0448186995483084
 30
0.0
 40
2.5
  0
CIRCLE
  5
15E6D
  8
3
 10
330.8073372946030872
 20
63.0448186995483084
 30
0.0
 40
2.099999999999965
  0
LINE
  5
15E6E
  8
1
 10
332.6250835983374259
 20
58.6563909201197902
 30
0.0
 11
328.989590990869317
 21
67.4332464789770683
 31
0.0
  0
CIRCLE
  5
15E6F
  8
0
 10
352.4551813004508745
 20
115.3073372946022062
 30
0.0
 40
2.75
  0
CIRCLE
  5
15E70
  8
0
 10
352.4551813004508745
 20
115.3073372946022062
 30
0.0
 40
2.5
  0
CIRCLE
  5
15E71
  8
3
 10
352.4551813004508745
 20
115.3073372946022062
 30
0.0
 40
2.099999999999965
  0
LINE
  5
15E72
  8
1
 10
356.8436090798801956
 20
117.1250835983373975
 30
0.0
 11
348.0667535210229175
 21
113.4895909908693028
 31
0.0
  0
CIRCLE
  5
15E73
  8
0
 10
349.7763972738958955
 20
78.2255059778174058
 30
0.0
 40
1.5
  0
LINE
  5
15E74
  8
1
 10
353.0099756376852724
 20
76.8861139645396037
 30
0.0
 11
346.5428189101062912
 21
79.5648979910952363
 31
0.0
  0
LINE
  5
15E75
  8
1
 10
351.1157892871735839
 20
81.4590843416069532
 30
0.0
 11
348.4370052606179229
 21
74.9919276140279436
 31
0.0
  0
CIRCLE
  5
15E76
  8
0
 10
355.5
 20
93.0000000000000142
 30
0.0
 40
1.5
  0
LINE
  5
15E77
  8
1
 10
358.9999999999998863
 20
93.0000000000000142
 30
0.0
 11
352.0
 21
93.0000000000000142
 31
0.0
  0
LINE
  5
15E78
  8
1
 10
355.5
 20
96.5000000000000284
 30
0.0
 11
355.5
 21
89.5000000000000142
 31
0.0
  0
LINE
  5
15E79
  8
0
 10
295.5129293935775081
 20
117.6776695296638025
 30
0.0
 11
296.6676299319568102
 21
115.6776695296638025
 31
0.0
  0
LINE
  5
15E7A
  8
0
 10
296.6676299319568102
 20
115.6776695296638025
 30
0.0
 11
298.9770310087154144
 21
115.6776695296638025
 31
0.0
  0
LINE
  5
15E7B
  8
0
 10
298.9770310087154144
 20
115.6776695296638025
 30
0.0
 11
300.1317315470944891
 21
117.6776695296638025
 31
0.0
  0
LINE
  5
15E7C
  8
0
 10
300.1317315470944891
 20
117.6776695296638025
 30
0.0
 11
298.9770310087153007
 21
119.677669529663703
 31
0.0
  0
LINE
  5
15E7D
  8
0
 10
298.9770310087153007
 20
119.677669529663703
 30
0.0
 11
296.6676299319568102
 21
119.677669529663703
 31
0.0
  0
LINE
  5
15E7E
  8
0
 10
296.6676299319568102
 20
119.677669529663703
 30
0.0
 11
295.5129293935775081
 21
117.6776695296638025
 31
0.0
  0
LINE
  5
15E7F
  8
1
 10
303.1256313292352047
 20
112.3743686707646958
 30
0.0
 11
292.5190296114370767
 21
122.9809703885627954
 31
0.0
  0
CIRCLE
  5
15E80
  8
0
 10
297.8223304703361123
 20
117.6776695296638025
 30
0.0
 40
5.4999999999998863
  0
CIRCLE
  5
15E81
  8
0
 10
297.8223304703361123
 20
117.6776695296638025
 30
0.0
 40
5.0000000000001696
  0
LINE
  5
15E82
  8
0
 10
295.5129293935776786
 20
82.3223304703361833
 30
0.0
 11
296.6676299319570944
 21
80.3223304703361833
 31
0.0
  0
LINE
  5
15E83
  8
0
 10
296.6676299319570944
 20
80.3223304703361833
 30
0.0
 11
298.9770310087155849
 21
80.3223304703361833
 31
0.0
  0
LINE
  5
15E84
  8
0
 10
298.9770310087155849
 20
80.3223304703361833
 30
0.0
 11
300.1317315470947165
 21
82.3223304703361833
 31
0.0
  0
LINE
  5
15E85
  8
0
 10
300.1317315470947165
 20
82.3223304703361833
 30
0.0
 11
298.9770310087155281
 21
84.3223304703361691
 31
0.0
  0
LINE
  5
15E86
  8
0
 10
298.9770310087155281
 20
84.3223304703361691
 30
0.0
 11
296.6676299319570944
 21
84.3223304703361691
 31
0.0
  0
LINE
  5
15E87
  8
0
 10
296.6676299319570944
 20
84.3223304703361691
 30
0.0
 11
295.5129293935776786
 21
82.3223304703361833
 31
0.0
  0
LINE
  5
15E88
  8
1
 10
303.1256313292353184
 20
87.6256313292352189
 30
0.0
 11
292.5190296114373041
 21
77.019029611437162
 31
0.0
  0
CIRCLE
  5
15E89
  8
0
 10
297.8223304703362828
 20
82.3223304703361833
 30
0.0
 40
5.4999999999998863
  0
CIRCLE
  5
15E8A
  8
0
 10
297.8223304703362828
 20
82.3223304703361833
 30
0.0
 40
5.0000000000001696
  0
LINE
  5
15E8B
  8
0
 10
330.8682684529052267
 20
82.3223304703361833
 30
0.0
 11
332.0229689912844719
 21
80.3223304703361833
 31
0.0
  0
LINE
  5
15E8C
  8
0
 10
332.0229689912844719
 20
80.3223304703361833
 30
0.0
 11
334.3323700680430761
 21
80.3223304703361833
 31
0.0
  0
LINE
  5
15E8D
  8
0
 10
334.3323700680430761
 20
80.3223304703361833
 30
0.0
 11
335.4870706064222077
 21
82.3223304703361833
 31
0.0
  0
LINE
  5
15E8E
  8
0
 10
335.4870706064222077
 20
82.3223304703361833
 30
0.0
 11
334.3323700680430193
 21
84.3223304703361691
 31
0.0
  0
LINE
  5
15E8F
  8
0
 10
334.3323700680430193
 20
84.3223304703361691
 30
0.0
 11
332.0229689912844719
 21
84.3223304703361691
 31
0.0
  0
LINE
  5
15E90
  8
0
 10
332.0229689912844719
 20
84.3223304703361691
 30
0.0
 11
330.8682684529052267
 21
82.3223304703361833
 31
0.0
  0
LINE
  5
15E91
  8
1
 10
338.4809703885629233
 20
77.019029611437162
 30
0.0
 11
327.8743686707647953
 21
87.6256313292352047
 31
0.0
  0
CIRCLE
  5
15E92
  8
0
 10
333.1776695296638877
 20
82.3223304703361833
 30
0.0
 40
5.4999999999998863
  0
CIRCLE
  5
15E93
  8
0
 10
333.1776695296638877
 20
82.3223304703361833
 30
0.0
 40
5.0000000000001696
  0
LINE
  5
15E94
  8
0
 10
330.8682684529049993
 20
117.6776695296639019
 30
0.0
 11
332.0229689912844151
 21
115.6776695296639019
 31
0.0
  0
LINE
  5
15E95
  8
0
 10
332.0229689912844151
 20
115.6776695296639019
 30
0.0
 11
334.3323700680429056
 21
115.6776695296639019
 31
0.0
  0
LINE
  5
15E96
  8
0
 10
334.3323700680429056
 20
115.6776695296639019
 30
0.0
 11
335.4870706064219803
 21
117.6776695296639019
 31
0.0
  0
LINE
  5
15E97
  8
0
 10
335.4870706064219803
 20
117.6776695296639019
 30
0.0
 11
334.3323700680429056
 21
119.6776695296639019
 31
0.0
  0
LINE
  5
15E98
  8
0
 10
334.3323700680429056
 20
119.6776695296639019
 30
0.0
 11
332.0229689912844151
 21
119.6776695296639019
 31
0.0
  0
LINE
  5
15E99
  8
0
 10
332.0229689912844151
 20
119.6776695296639019
 30
0.0
 11
330.8682684529049993
 21
117.6776695296639019
 31
0.0
  0
LINE
  5
15E9A
  8
1
 10
338.4809703885625822
 20
122.9809703885629943
 30
0.0
 11
327.8743686707646248
 21
112.3743686707648948
 31
0.0
  0
CIRCLE
  5
15E9B
  8
0
 10
333.1776695296637172
 20
117.6776695296639019
 30
0.0
 40
5.4999999999998863
  0
CIRCLE
  5
15E9C
  8
0
 10
333.1776695296637172
 20
117.6776695296639019
 30
0.0
 40
5.0000000000001696
  0
LINE
  5
15E9E
  8
0
 10
60.9448186995484207
 20
224.900000000040194
 30
0.0
 11
60.5448186995484079
 21
224.5000000000401883
 31
0.0
  0
LINE
  5
15E9F
  8
0
 10
60.5448186995484505
 20
224.5000000000401883
 30
0.0
 11
60.5448186995484505
 21
216.5000000000401883
 31
0.0
  0
LINE
  5
15EA0
  8
0
 10
65.5448186995484434
 20
224.5000000000401883
 30
0.0
 11
65.1448186995484662
 21
224.900000000040194
 31
0.0
  0
LINE
  5
15EA1
  8
0
 10
65.5448186995484434
 20
216.500000000040103
 30
0.0
 11
65.5448186995484434
 21
224.5000000000401883
 31
0.0
  0
LINE
  5
15EA2
  8
0
 10
85.3223304703364533
 20
200.0000000000401883
 30
0.0
 11
85.3223304703364249
 21
205.5000000000403872
 31
0.0
  0
LINE
  5
15EA3
  8
0
 10
114.6776695296638025
 20
205.5000000000405009
 30
0.0
 11
114.6776695296638025
 21
200.0000000000393925
 31
0.0
  0
LINE
  5
15EA4
  8
0
 10
120.6776695296638025
 20
200.0000000000408988
 30
0.0
 11
120.6776695296638025
 21
205.5000000000405009
 31
0.0
  0
LINE
  5
15EA5
  8
0
 10
79.3223304703363965
 20
205.5000000000405009
 30
0.0
 11
79.3223304703364249
 21
200.0000000000401883
 31
0.0
  0
LINE
  5
15EA6
  8
0
 10
97.0
 20
205.5000000000405009
 30
0.0
 11
97.0
 21
199.9999999999998863
 31
0.0
  0
LINE
  5
15EA7
  8
0
 10
134.8551813004513917
 20
224.9000000000405919
 30
0.0
 11
134.4551813004513861
 21
224.5000000000405862
 31
0.0
  0
LINE
  5
15EA8
  8
0
 10
134.4551813004513861
 20
224.5000000000405862
 30
0.0
 11
134.4551813004513861
 21
216.500000000040103
 31
0.0
  0
LINE
  5
15EA9
  8
0
 10
139.4551813004513861
 20
224.5000000000405862
 30
0.0
 11
139.0551813004514088
 21
224.9000000000405919
 31
0.0
  0
LINE
  5
15EAA
  8
0
 10
139.4551813004513861
 20
221.500000000040302
 30
0.0
 11
139.4551813004513861
 21
224.5000000000405862
 31
0.0
  0
LINE
  5
15EAB
  8
0
 10
54.5
 20
216.5000000000403872
 30
0.0
 11
145.5
 21
216.5000000000403872
 31
0.0
  0
LINE
  5
15EAC
  8
0
 10
145.5
 20
207.5000000000405009
 30
0.0
 11
145.5
 21
216.5000000000403872
 31
0.0
  0
LINE
  5
15EAD
  8
0
 10
54.5
 20
207.5000000000405009
 30
0.0
 11
54.5
 21
216.5000000000405009
 31
0.0
  0
LINE
  5
15EAE
  8
0
 10
145.5
 20
207.5000000000403872
 30
0.0
 11
54.5
 21
207.5000000000405009
 31
0.0
  0
LINE
  5
15EB2
  8
0
 10
117.4073372946032947
 20
224.900000000039995
 30
0.0
 11
117.8073372946033004
 21
224.5000000000401883
 31
0.0
  0
LINE
  5
15EB3
  8
0
 10
112.8073372946033004
 20
224.5000000000401883
 30
0.0
 11
117.8073372946033004
 21
224.5000000000401883
 31
0.0
  0
LINE
  5
15EB4
  8
0
 10
113.2073372946033061
 20
224.900000000039995
 30
0.0
 11
112.8073372946033004
 21
224.5000000000401883
 31
0.0
  0
LINE
  5
15EB5
  8
0
 10
113.2073372946033061
 20
224.900000000039995
 30
0.0
 11
117.4073372946032947
 21
224.900000000039995
 31
0.0
  0
LINE
  5
15EB6
  8
0
 10
112.8073372946033004
 20
216.5000000000399893
 30
0.0
 11
112.8073372946033004
 21
224.5000000000401883
 31
0.0
  0
LINE
  5
15EB7
  8
0
 10
117.8073372946033004
 20
216.5000000000399893
 30
0.0
 11
117.8073372946033004
 21
224.5000000000401883
 31
0.0
  0
LINE
  5
15EB8
  8
0
 10
132.0
 20
205.5000000000405009
 30
0.0
 11
132.0
 21
207.5000000000405009
 31
0.0
  0
LINE
  5
15EB9
  8
0
 10
68.0
 20
205.5000000000405009
 30
0.0
 11
68.0
 21
207.5000000000405009
 31
0.0
  0
LINE
  5
15EBA
  8
0
 10
132.0
 20
205.5000000000403872
 30
0.0
 11
68.0
 21
205.5000000000405862
 31
0.0
  0
LINE
  5
15EBB
  8
0
 10
60.9448186995484207
 20
224.900000000040194
 30
0.0
 11
65.144818699548523
 21
224.900000000040194
 31
0.0
  0
LINE
  5
15EBC
  8
0
 10
84.8223304703364533
 20
199.5000000000401883
 30
0.0
 11
79.8223304703371923
 21
199.500000000040103
 31
0.0
  0
LINE
  5
15EBD
  8
0
 10
120.1776695296646977
 20
199.5000000000401883
 30
0.0
 11
115.1776695296645983
 21
199.500000000040302
 31
0.0
  0
LINE
  5
15EBF
  8
0
 10
103.0
 20
200.0
 30
0.0
 11
97.0
 21
200.0
 31
0.0
  0
LINE
  5
15EC0
  8
0
 10
134.4551813004513861
 20
224.5000000000405862
 30
0.0
 11
136.9551813004513861
 21
224.5000000000405862
 31
0.0
  0
LINE
  5
15EC1
  8
0
 10
134.8551813004513917
 20
224.9000000000405919
 30
0.0
 11
139.0551813004514088
 21
224.9000000000405919
 31
0.0
  0
LINE
  5
15EC2
  8
0
 10
136.9551813004513861
 20
224.5000000000405862
 30
0.0
 11
139.4551813004513861
 21
224.5000000000405862
 31
0.0
  0
LINE
  5
15EC3
  8
0
 10
82.192662705396657
 20
224.5000000000408136
 30
0.0
 11
87.192662705396657
 21
224.5000000000408136
 31
0.0
  0
LINE
  5
15EC4
  8
0
 10
82.5926627053966342
 20
224.9000000000407908
 30
0.0
 11
82.192662705396657
 21
224.5000000000408136
 31
0.0
  0
LINE
  5
15EC5
  8
0
 10
82.5926627053966342
 20
224.9000000000407908
 30
0.0
 11
86.7926627053966513
 21
224.9000000000407908
 31
0.0
  0
LINE
  5
15EC6
  8
0
 10
86.7926627053966513
 20
224.9000000000407908
 30
0.0
 11
87.192662705396657
 21
224.5000000000408136
 31
0.0
  0
LINE
  5
15EC7
  8
0
 10
87.192662705396657
 20
216.5000000000408136
 30
0.0
 11
87.192662705396657
 21
224.5000000000408136
 31
0.0
  0
LINE
  5
15EC8
  8
0
 10
82.192662705396657
 20
216.5000000000408136
 30
0.0
 11
82.192662705396657
 21
224.5000000000408136
 31
0.0
  0
LINE
  5
15EC9
  8
3
 10
79.8223304703371923
 20
199.500000000040103
 30
0.0
 11
79.8223304703371923
 21
205.5000000000405009
 31
0.0
  0
LINE
  5
15ECA
  8
3
 10
84.8223304703372492
 20
199.5000000000401883
 30
0.0
 11
84.8223304703372492
 21
205.5000000000405009
 31
0.0
  0
LINE
  5
15ECB
  8
3
 10
115.1776695296645983
 20
199.500000000040103
 30
0.0
 11
115.1776695296645983
 21
205.5000000000403872
 31
0.0
  0
LINE
  5
15ECC
  8
3
 10
120.1776695296646977
 20
199.500000000040103
 30
0.0
 11
120.1776695296646977
 21
205.5000000000403872
 31
0.0
  0
LINE
  5
15ECD
  8
0
 10
84.8223304703363965
 20
199.5000000000401883
 30
0.0
 11
85.3223304703363965
 21
200.0000000000401883
 31
0.0
  0
LINE
  5
15ECE
  8
0
 10
79.3223304703364249
 20
200.000000000040103
 30
0.0
 11
79.8223304703363965
 21
199.500000000040103
 31
0.0
  0
LINE
  5
15ECF
  8
0
 10
85.3223304703364533
 20
200.0000000000401883
 30
0.0
 11
79.3223304703363965
 21
200.000000000040302
 31
0.0
  0
LINE
  5
15ED0
  8
0
 10
120.1776695296630066
 20
199.5000000000401883
 30
0.0
 11
120.6776695296630066
 21
200.0000000000401883
 31
0.0
  0
LINE
  5
15ED1
  8
0
 10
114.6776695296630066
 20
200.0000000000401883
 30
0.0
 11
115.1776695296630066
 21
199.5000000000401883
 31
0.0
  0
LINE
  5
15ED2
  8
0
 10
120.6776695296638025
 20
200.000000000040302
 30
0.0
 11
114.6776695296638025
 21
200.000000000040302
 31
0.0
  0
LINE
  5
15ED3
  8
1
 10
100.0
 20
196.0
 30
0.0
 11
100.0
 21
220.5000000000405009
 31
0.0
  0
LINE
  5
15ED5
  8
1
 10
82.3223304703363965
 20
197.5000000000401883
 30
0.0
 11
82.3223304703363965
 21
207.5000000000405009
 31
0.0
  0
LINE
  5
15ED6
  8
1
 10
117.6776695296638025
 20
197.5000000000401883
 30
0.0
 11
117.6776695296639019
 21
207.5000000000405009
 31
0.0
  0
LINE
  5
15ED7
  8
3
 10
60.9448186995485131
 20
224.900000000040194
 30
0.0
 11
60.9448186995485131
 21
216.5000000000403872
 31
0.0
  0
LINE
  5
15ED8
  8
3
 10
65.144818699548523
 20
224.900000000040194
 30
0.0
 11
65.144818699548523
 21
216.5000000000403872
 31
0.0
  0
LINE
  5
15ED9
  8
0
 10
60.5448186995484505
 20
224.5000000000401883
 30
0.0
 11
65.5448186995484434
 21
224.5000000000401883
 31
0.0
  0
LINE
  5
15EDA
  8
1
 10
63.0448186995484718
 20
226.900000000040194
 30
0.0
 11
63.0448186995484718
 21
214.5000000000403872
 31
0.0
  0
LINE
  5
15EDB
  8
3
 10
82.5926627053966769
 20
224.9000000000407908
 30
0.0
 11
82.5926627053966769
 21
216.5000000000408988
 31
0.0
  0
LINE
  5
15EDC
  8
3
 10
86.7926627053966939
 20
224.9000000000407908
 30
0.0
 11
86.7926627053966939
 21
216.5000000000408988
 31
0.0
  0
LINE
  5
15EDD
  8
1
 10
84.6926627053966143
 20
226.9000000000407908
 30
0.0
 11
84.6926627053966143
 21
214.5000000000408988
 31
0.0
  0
LINE
  5
15EDE
  8
3
 10
113.2073372946033061
 20
224.900000000039995
 30
0.0
 11
113.2073372946033061
 21
216.500000000040103
 31
0.0
  0
LINE
  5
15EDF
  8
3
 10
117.4073372946033942
 20
224.900000000039995
 30
0.0
 11
117.4073372946033942
 21
216.500000000040103
 31
0.0
  0
LINE
  5
15EE0
  8
1
 10
115.3073372946033004
 20
226.900000000039995
 30
0.0
 11
115.3073372946033004
 21
214.500000000040103
 31
0.0
  0
LINE
  5
15EE1
  8
3
 10
134.8551813004515054
 20
224.9000000000405919
 30
0.0
 11
134.8551813004515054
 21
216.5000000000406999
 31
0.0
  0
LINE
  5
15EE2
  8
3
 10
139.0551813004514941
 20
224.9000000000405919
 30
0.0
 11
139.0551813004514941
 21
221.5000000000403872
 31
0.0
  0
LINE
  5
15EE3
  8
1
 10
136.9551813004513861
 20
226.9000000000405919
 30
0.0
 11
136.9551813004513861
 21
214.5000000000406999
 31
0.0
  0
LINE
  5
15EE5
  8
0
 10
141.133965327007104
 20
221.500000000040302
 30
0.0
 11
138.133965327007104
 21
221.500000000040302
 31
0.0
  0
LINE
  5
15EE6
  8
0
 10
138.133965327007104
 20
221.500000000040302
 30
0.0
 11
138.133965327007104
 21
216.5000000000403872
 31
0.0
  0
LINE
  5
15EE7
  8
0
 10
141.133965327007104
 20
221.500000000040302
 30
0.0
 11
141.133965327007104
 21
216.5000000000403872
 31
0.0
  0
LINE
  5
15EE8
  8
1
 10
139.633965327007104
 20
223.500000000040302
 30
0.0
 11
139.633965327007104
 21
214.5000000000406999
 31
0.0
  0
LINE
  5
15F25
  8
0
 10
103.0
 20
205.5000000000405009
 30
0.0
 11
103.0
 21
200.0
 31
0.0
  0
LINE
  5
15F3E
  8
0
 10
97.0
 20
201.0000000000403872
 30
0.0
 11
85.3223304703364391
 21
201.000000000040302
 31
0.0
  0
LINE
  5
15F40
  8
0
 10
114.6776695296638025
 20
201.0000000000403872
 30
0.0
 11
103.0
 21
201.0000000000403872
 31
0.0
  0
LINE
  5
15F64
  8
0
 10
67.2236027261042182
 20
221.500000000040302
 30
0.0
 11
65.5448186995484434
 21
221.5000000000403872
 31
0.0
  0
LINE
  5
15F66
  8
0
 10
67.2236027261041897
 20
221.500000000040302
 30
0.0
 11
67.2236027261041613
 21
216.5000000000403872
 31
0.0
  0
LINE
  5
15F67
  8
1
 10
65.7236027261041897
 20
223.500000000040302
 30
0.0
 11
65.7236027261041897
 21
214.5000000000406999
 31
0.0
  0
LINE
  5
16B3A
  8
0
 10
204.4999999999998863
 20
122.0
 30
0.0
 11
198.9999999999596128
 21
122.0
 31
0.0
  0
ENDSEC
  0
EOF
