  0
SECTION
  2
HEADER
  9
$ACADVER
  1
AC1009
  9
$INSBASE
 10
0.0
 20
0.0
 30
0.0
  9
$EXTMIN
 10
0.0
 20
-2.960436562073669
 30
0.0
  9
$EXTMAX
 10
359.9996750520322166
 20
135.6203249479677879
 30
0.0
  9
$LIMMIN
 10
0.0
 20
0.0
  9
$LIMMAX
 10
420.0
 20
297.0
  9
$ORTHOMODE
 70
     1
  9
$REGENMODE
 70
     1
  9
$FILLMODE
 70
     1
  9
$QTEXTMODE
 70
     0
  9
$MIRRTEXT
 70
     0
  9
$DRAGMODE
 70
     2
  9
$LTSCALE
 40
1.0
  9
$OSMODE
 70
    37
  9
$ATTMODE
 70
     1
  9
$TEXTSIZE
 40
2.5
  9
$TRACEWID
 40
1.0
  9
$TEXTSTYLE
  7
STANDARD
  9
$CLAYER
  8
1
  9
$CELTYPE
  6
BYLAYER
  9
$CECOLOR
 62
   256
  9
$DIMSCALE
 40
1.0
  9
$DIMASZ
 40
2.5
  9
$DIMEXO
 40
0.625
  9
$DIMDLI
 40
3.75
  9
$DIMRND
 40
0.0
  9
$DIMDLE
 40
0.0
  9
$DIMEXE
 40
1.25
  9
$DIMTP
 40
0.0
  9
$DIMTM
 40
0.0
  9
$DIMTXT
 40
2.5
  9
$DIMCEN
 40
2.5
  9
$DIMTSZ
 40
0.0
  9
$DIMTOL
 70
     0
  9
$DIMLIM
 70
     0
  9
$DIMTIH
 70
     0
  9
$DIMTOH
 70
     0
  9
$DIMSE1
 70
     0
  9
$DIMSE2
 70
     0
  9
$DIMTAD
 70
     1
  9
$DIMZIN
 70
     8
  9
$DIMBLK
  1

  9
$DIMASO
 70
     1
  9
$DIMSHO
 70
     1
  9
$DIMPOST
  1

  9
$DIMAPOST
  1

  9
$DIMALT
 70
     0
  9
$DIMALTD
 70
     3
  9
$DIMALTF
 40
0.03937007874016
  9
$DIMLFAC
 40
1.0
  9
$DIMTOFL
 70
     1
  9
$DIMTVP
 40
0.0
  9
$DIMTIX
 70
     0
  9
$DIMSOXD
 70
     0
  9
$DIMSAH
 70
     0
  9
$DIMBLK1
  1

  9
$DIMBLK2
  1

  9
$DIMSTYLE
  2
ISO-25
  9
$DIMCLRD
 70
     0
  9
$DIMCLRE
 70
     0
  9
$DIMCLRT
 70
     0
  9
$DIMTFAC
 40
1.0
  9
$DIMGAP
 40
0.625
  9
$LUNITS
 70
     2
  9
$LUPREC
 70
     1
  9
$SKETCHINC
 40
1.0
  9
$FILLETRAD
 40
0.0
  9
$AUNITS
 70
     0
  9
$AUPREC
 70
     0
  9
$MENU
  1
.
  9
$ELEVATION
 40
0.0
  9
$PELEVATION
 40
0.0
  9
$THICKNESS
 40
0.0
  9
$LIMCHECK
 70
     0
  9
$BLIPMODE
 70
     0
  9
$CHAMFERA
 40
0.0
  9
$CHAMFERB
 40
0.0
  9
$SKPOLY
 70
     0
  9
$TDCREATE
 40
2454946.5997685180045664
  9
$TDUPDATE
 40
2461104.4362962958402932
  9
$TDINDWG
 40
1.7947756828999999
  9
$TDUSRTIMER
 40
1.7947755093
  9
$USRTIMER
 70
     1
  9
$ANGBASE
 50
0.0
  9
$ANGDIR
 70
     0
  9
$PDMODE
 70
     0
  9
$PDSIZE
 40
0.0
  9
$PLINEWID
 40
0.0
  9
$COORDS
 70
     1
  9
$SPLFRAME
 70
     0
  9
$SPLINETYPE
 70
     6
  9
$SPLINESEGS
 70
     8
  9
$ATTDIA
 70
     1
  9
$ATTREQ
 70
     1
  9
$HANDLING
 70
     1
  9
$HANDSEED
  5
1A642
  9
$SURFTAB1
 70
     6
  9
$SURFTAB2
 70
     6
  9
$SURFTYPE
 70
     6
  9
$SURFU
 70
     6
  9
$SURFV
 70
     6
  9
$UCSNAME
  2

  9
$UCSORG
 10
0.0
 20
0.0
 30
0.0
  9
$UCSXDIR
 10
1.0
 20
0.0
 30
0.0
  9
$UCSYDIR
 10
0.0
 20
1.0
 30
0.0
  9
$PUCSNAME
  2

  9
$PUCSORG
 10
0.0
 20
0.0
 30
0.0
  9
$PUCSXDIR
 10
1.0
 20
0.0
 30
0.0
  9
$PUCSYDIR
 10
0.0
 20
1.0
 30
0.0
  9
$USERI1
 70
     0
  9
$USERI2
 70
     0
  9
$USERI3
 70
     0
  9
$USERI4
 70
     0
  9
$USERI5
 70
     0
  9
$USERR1
 40
0.0
  9
$USERR2
 40
0.0
  9
$USERR3
 40
0.0
  9
$USERR4
 40
0.0
  9
$USERR5
 40
0.0
  9
$WORLDVIEW
 70
     1
  9
$SHADEDGE
 70
     3
  9
$SHADEDIF
 70
    70
  9
$TILEMODE
 70
     1
  9
$MAXACTVP
 70
    64
  9
$PLIMCHECK
 70
     0
  9
$PEXTMIN
 10
160.0
 20
128.0
 30
0.0
  9
$PEXTMAX
 10
1440.0
 20
1152.0
 30
0.0
  9
$PLIMMIN
 10
0.0
 20
0.0
  9
$PLIMMAX
 10
1600.0
 20
1280.0
  9
$UNITMODE
 70
     0
  9
$VISRETAIN
 70
     1
  9
$PLINEGEN
 70
     0
  9
$PSLTSCALE
 70
     1
  0
ENDSEC
  0
SECTION
  2
TABLES
  0
TABLE
  2
VPORT
 70
     1
  0
VPORT
  2
*ACTIVE
 70
     0
 10
0.0
 20
0.0
 11
1.0
 21
1.0
 12
186.513911620294607
 22
79.6984927194588693
 13
0.0
 23
0.0
 14
10.0
 24
10.0
 15
10.0
 25
10.0
 16
0.0
 26
0.0
 36
1.0
 17
0.0
 27
0.0
 37
0.0
 40
159.3969854389177101
 41
2.340243902439024
 42
50.0
 43
0.0
 44
0.0
 50
0.0
 51
0.0
 71
     0
 72
  1000
 73
     1
 74
     3
 75
     0
 76
     0
 77
     0
 78
     0
  0
ENDTAB
  0
TABLE
  2
LTYPE
 70
     2
  0
LTYPE
  2
CONTINUOUS
 70
     0
  3
Solid line
 72
    65
 73
     0
 40
0.0
  0
LTYPE
  2
CENTER
 70
     0
  3
Center ____ _ ____ _ ____ _ ____ _ ____ _ ____
 72
    65
 73
     4
 40
10.1600000000000001
 49
6.3499999999999979
 49
-1.27
 49
1.27
 49
-1.27
  0
ENDTAB
  0
TABLE
  2
LAYER
 70
     4
  0
LAYER
  2
0
 70
     0
 62
     7
  6
CONTINUOUS
  0
LAYER
  2
1
 70
     0
 62
     1
  6
CENTER
  0
LAYER
  2
DEFPOINTS
 70
     0
 62
     7
  6
CONTINUOUS
  0
LAYER
  2
3
 70
     0
 62
     3
  6
CONTINUOUS
  0
ENDTAB
  0
TABLE
  2
STYLE
 70
     2
  0
STYLE
  2
STANDARD
 70
     0
 40
0.0
 41
1.0
 50
0.0
 71
     0
 42
2.5
  3
txt
  4

  0
STYLE
  2
STANDARD1
 70
     0
 40
0.0
 41
1.0
 50
0.0
 71
     0
 42
3.0
  3
txt
  4

  0
ENDTAB
  0
TABLE
  2
VIEW
 70
     0
  0
ENDTAB
  0
TABLE
  2
UCS
 70
     0
  0
ENDTAB
  0
TABLE
  2
APPID
 70
   133
  0
APPID
  2
ACAD
 70
     0
  0
APPID
  2
ACADANNOTATIVE
 70
     0
  0
APPID
  2
_FTCNV
 70
     0
  0
APPID
  2
GENIUS_GENODEF_13
 70
     0
  0
APPID
  2
GENIUS_GENOENT_13
 70
     0
  0
APPID
  2
GENIUS_GENOBJ-N-CEN_13
 70
     0
  0
APPID
  2
GENIUS_GENOLIS_13
 70
     0
  0
APPID
  2
GENIUS_GENOREF_13
 70
     0
  0
APPID
  2
GENIUS_GENOBJ-N-CRS_13
 70
     0
  0
APPID
  2
GENIUS_GENOBJ-N-FIL_13
 70
     0
  0
APPID
  2
GENIUS_GENOBJ-N-REC_13
 70
     0
  0
APPID
  2
GENIUS_GENFIL_13
 70
     0
  0
APPID
  2
GENIUS_GENOBJ-N-CHA_13
 70
     0
  0
APPID
  2
ASM_BASE
 70
     0
  0
APPID
  2
_PHO
 70
     0
  0
APPID
  2
_CLP
 70
     0
  0
APPID
  2
MOJIGUMI_PARTS
 70
     0
  0
APPID
  2
_DBL
 70
     0
  0
APPID
  2
_PWH
 70
     0
  0
APPID
  2
_G9P
 70
     0
  0
APPID
  2
AME_SOL
 70
     0
  0
APPID
  2
HAKO_DEF
 70
     0
  0
APPID
  2
HAKO_TXT
 70
     0
  0
APPID
  2
HAKO_OVR
 70
     0
  0
APPID
  2
ASM_EXPLO_VER_2_00
 70
     0
  0
APPID
  2
ASM_CADM_VER_12_00
 70
     0
  0
APPID
  2
ASM_BASEFORO
 70
     0
  0
APPID
  2
ASM_BASETRAVI
 70
     0
  0
APPID
  2
ASM_BASETRAVI1
 70
     0
  0
APPID
  2
ASM_GRUPPI
 70
     0
  0
APPID
  2
ASM_CADM_ALBERO
 70
     0
  0
APPID
  2
ASM_GOLE
 70
     0
  0
APPID
  2
GENIUS_GENCFG_13
 70
     0
  0
APPID
  2
GENIUS_GENCFG0_13
 70
     0
  0
APPID
  2
GENIUS_GENCFG1_13
 70
     0
  0
APPID
  2
GENIUS_GENCFG2_13
 70
     0
  0
APPID
  2
GENIUS_GENCFG3_13
 70
     0
  0
APPID
  2
GENIUS_GENCFG4_13
 70
     0
  0
APPID
  2
GENIUS_GEVCFG0_13
 70
     0
  0
APPID
  2
GENIUS_GENHATCH_13
 70
     0
  0
APPID
  2
GENIUS_GEFCFG0_13
 70
     0
  0
APPID
  2
GENIUS_GENOBJ-N-HTC_13
 70
     0
  0
APPID
  2
DCO15
 70
     0
  0
APPID
  2
AVE_RENDER
 70
     0
  0
APPID
  2
AVE_ENTITY_MATERIAL
 70
     0
  0
APPID
  2
AVE_FINISH
 70
     0
  0
APPID
  2
AVE_MATERIAL
 70
     0
  0
APPID
  2
AVE_GLOBAL
 70
     0
  0
APPID
  2
_NUM
 70
     0
  0
APPID
  2
HAKO_FNM
 70
     0
  0
APPID
  2
_CALL_MAC$
 70
     0
  0
APPID
  2
ACA_CADIMENU
 70
     0
  0
APPID
  2
AUTOCAD_POSTSCRIPT_FIGURE
 70
     0
  0
APPID
  2
GEV_VCCNULL_SWITCH_OFF
 70
     0
  0
APPID
  2
GENIUS_GENDTOL_13
 70
     0
  0
APPID
  2
GENIUS_GEFWELD_13
 70
     0
  0
APPID
  2
GENIUS_GENOBJ-F-WELS_13
 70
     0
  0
APPID
  2
GEVID961514679
 70
     0
  0
APPID
  2
GEVDC
 70
     0
  0
APPID
  2
GEVPT
 70
     0
  0
APPID
  2
GEVIT
 70
     0
  0
APPID
  2
VCC
 70
     0
  0
APPID
  2
GENBH
 70
     0
  0
APPID
  2
GEVMK
 70
     0
  0
APPID
  2
GENIUS_GENBH_13
 70
     0
  0
APPID
  2
GENIUS_GENOBJ-NBEHI-BHF_13
 70
     0
  0
APPID
  2
GENIUS_GENOBJ-NBEHI-BHB_13
 70
     0
  0
APPID
  2
GENIUS_GENOBJ-F-DESC_13
 70
     0
  0
APPID
  2
GENIUS_GEFDESC_14
 70
     0
  0
APPID
  2
GENIUS_GENOBJ-F-PART_13
 70
     0
  0
APPID
  2
GENIUS_GEFSTDP_13
 70
     0
  0
APPID
  2
GENIUS_GEFPARTINS_13
 70
     0
  0
APPID
  2
GEVID961514680
 70
     0
  0
APPID
  2
GENIUS_GENTRA_14
 70
     0
  0
APPID
  2
GENIUS_GENINF13_13
 70
     0
  0
APPID
  2
GENIUS_GENOBJ-N-INFOPT_13
 70
     0
  0
APPID
  2
GENIUS_GENOBJ-N-RSSYM_13
 70
     0
  0
APPID
  2
GENIUS_GENSYMENT_13
 70
     0
  0
APPID
  2
GENIUS_GENSCSYM_13
 70
     0
  0
APPID
  2
GENIUS_GEFINFNAM_13
 70
     0
  0
APPID
  2
GENIUS_GENREC_14
 70
     0
  0
APPID
  2
GEVID962097543
 70
     0
  0
APPID
  2
GEVID962097544
 70
     0
  0
APPID
  2
GEVID962097545
 70
     0
  0
APPID
  2
GENIUS_DUMCFG0_13
 70
     0
  0
APPID
  2
GEVID962352965
 70
     0
  0
APPID
  2
GEVID962352966
 70
     0
  0
APPID
  2
GEVID962352968
 70
     0
  0
APPID
  2
GEVRADREF
 70
     0
  0
APPID
  2
GEVID963230099
 70
     0
  0
APPID
  2
GENIUS_GENOBJ-F-FEAT_13
 70
     0
  0
APPID
  2
GENIUS_GEFFEAT_14
 70
     0
  0
APPID
  2
GEVID963230100
 70
     0
  0
APPID
  2
GEVID963230101
 70
     0
  0
APPID
  2
GENIUS_GENHINW_13
 70
     0
  0
APPID
  2
GENIUS_FIRSTVISTXT_14
 70
     0
  0
APPID
  2
GENIUS_GENOBJ-N-LEADER_13
 70
     0
  0
APPID
  2
GEVID971698136
 70
     0
  0
APPID
  2
GEVID972029070
 70
     0
  0
APPID
  2
MCAD_NO_VIS
 70
     0
  0
APPID
  2
ACAD_TEMP_GRAPHIC
 70
     0
  0
APPID
  2
ACATTRIBSERVICES
 70
     0
  0
APPID
  2
GENIUS_GENDIMSH_14
 70
     0
  0
APPID
  2
CONTENTTABDATA
 70
     0
  0
APPID
  2
CONTENTCURRENTTAB
 70
     0
  0
APPID
  2
GENIUS_GENBLKED_14
 70
     0
  0
APPID
  2
GENIUS_GENOBJ_13
 70
     0
  0
APPID
  2
GENIUS_GENOBJ-N-TIT_13
 70
     0
  0
APPID
  2
GENIUS_GENTITLE_13
 70
     0
  0
APPID
  2
GENIUS_GENZVEED_13
 70
     0
  0
APPID
  2
GENIUS_GEFINERT_13
 70
     0
  0
APPID
  2
GENIUS_GENOBJ-F-INER_13
 70
     0
  0
APPID
  2
GENIUS_GENOBJ-N-ZOO_13
 70
     0
  0
APPID
  2
GENIUS_GENZOO_13
 70
     0
  0
APPID
  2
GENIUS_GENOBJ-F-TOL_13
 70
     0
  0
APPID
  2
GENIUS_GENOBJ-N-REV_13
 70
     0
  0
APPID
  2
GENIUS_GENREC_13
 70
     0
  0
APPID
  2
_KTH
 70
     0
  0
APPID
  2
GENIUS_GENOBJ-N-SEC_13
 70
     0
  0
APPID
  2
ACAD_EXEMPT_FROM_CAD_STANDARDS
 70
     0
  0
APPID
  2
ACAD_MLEADERVER
 70
     0
  0
APPID
  2
ACAD_NAV_VCDISPLAY
 70
     0
  0
APPID
  2
ACAD_PSEXT
 70
     0
  0
APPID
  2
ACAD_DSTYLE_DIMJAG
 70
     0
  0
APPID
  2
ACAD_DSTYLE_DIMTALN
 70
     0
  0
APPID
  2
ACAD_DSTYLE_DIMBREAK
 70
     0
  0
APPID
  2
ACAECLAYERSTANDARD
 70
     0
  0
APPID
  2
ACCMTRANSPARENCY
 70
     0
  0
APPID
  2
ACAD_DSTYLE_DIM_LINETYPE
 70
     0
  0
APPID
  2
GRADIENTCOLOR1ACI
 70
     0
  0
APPID
  2
GRADIENTCOLOR2ACI
 70
     0
  0
APPID
  2
ACAD_TC
 70
     0
  0
APPID
  2
ACAD_DSTYLE_DIMRADIAL_EXTENSION
 70
     0
  0
ENDTAB
  0
TABLE
  2
DIMSTYLE
 70
     2
  0
DIMSTYLE
  2
STANDARD
 70
     0
  3

  4

  5

  6

  7

 40
1.0
 41
0.18
 42
0.0625
 43
0.38
 44
0.18
 45
0.0
 46
0.0
 47
0.0
 48
0.0
140
0.18
141
0.09
142
0.0
143
25.3999999999999986
144
1.0
145
0.0
146
1.0
147
0.09
 71
     0
 72
     0
 73
     1
 74
     1
 75
     0
 76
     0
 77
     0
 78
     0
170
     0
171
     2
172
     0
173
     0
174
     0
175
     0
176
     0
177
     0
178
     0
  0
DIMSTYLE
  2
ISO-25
 70
     0
  3

  4

  5

  6

  7

 40
1.0
 41
2.5
 42
0.625
 43
3.75
 44
1.25
 45
0.0
 46
0.0
 47
0.0
 48
0.0
140
2.5
141
2.5
142
0.0
143
0.03937007874016
144
1.0
145
0.0
146
1.0
147
0.625
 71
     0
 72
     0
 73
     0
 74
     0
 75
     0
 76
     0
 77
     1
 78
     8
170
     0
171
     3
172
     1
173
     0
174
     0
175
     0
176
     0
177
     0
178
     0
  0
ENDTAB
  0
ENDSEC
  0
SECTION
  2
BLOCKS
  0
BLOCK
  8
0
  2
$MODEL_SPACE
 70
     0
 10
0.0
 20
0.0
 30
0.0
  3
$MODEL_SPACE
  1

  0
ENDBLK
  5
14D14
  8
0
  0
BLOCK
 67
     1
  8
0
  2
$PAPER_SPACE
 70
     0
 10
0.0
 20
0.0
 30
0.0
  3
$PAPER_SPACE
  1

  0
ENDBLK
  5
14D10
 67
     1
  8
0
  0
ENDSEC
  0
SECTION
  2
ENTITIES
  0
TEXT
  5
14E14
  8
0
 62
     3
 10
0.0
 20
0.0
 30
0.0
 40
10.0
  1
IMR-I/O-C-0.2-MM
  7
STANDARD1
  0
LINE
  5
17E94
  8
0
 10
44.7500000000000071
 20
73.7999999999999829
 30
0.0
 11
44.7500000000000071
 21
70.7999999999999829
 31
0.0
  0
LINE
  5
17E95
  8
0
 10
44.7500000000000071
 20
69.0
 30
0.0
 11
44.7500000000000071
 21
50.0
 31
0.0
  0
LINE
  5
17E96
  8
0
 10
55.25
 20
50.0
 30
0.0
 11
55.25
 21
69.0
 31
0.0
  0
LINE
  5
17EB2
  8
0
 10
46.8500000000000085
 20
70.7999999999999829
 30
0.0
 11
46.8500000000000085
 21
69.0
 31
0.0
  0
LINE
  5
17EB3
  8
0
 10
53.1500000000000199
 20
69.0
 30
0.0
 11
53.1500000000000199
 21
70.7999999999999829
 31
0.0
  0
LINE
  5
17EB4
  8
0
 10
55.25
 20
70.7999999999999829
 30
0.0
 11
55.25
 21
73.7999999999999829
 31
0.0
  0
LINE
  5
17EBC
  8
0
 10
44.7371527943358274
 20
69.0
 30
0.0
 11
44.7371527943358274
 21
50.0
 31
0.0
  0
LINE
  5
17EBD
  8
0
 10
44.7371527943358274
 20
73.7999999999999829
 30
0.0
 11
44.7371527943358274
 21
70.7999999999999829
 31
0.0
  0
LINE
  5
17ED4
  8
0
 10
46.8500000000000085
 20
70.7999999999999829
 30
0.0
 11
46.837152794335843
 21
69.0
 31
0.0
  0
LINE
  5
17ED9
  8
0
 10
55.25
 20
70.7999999999999829
 30
0.0
 11
44.7500000000000071
 21
70.7999999999999829
 31
0.0
  0
LINE
  5
17EDB
  8
0
 10
44.7500000000000071
 20
73.7999999999999829
 30
0.0
 11
55.25
 21
73.7999999999999829
 31
0.0
  0
LINE
  5
17EDD
  8
0
 10
44.7500000000000071
 20
50.0
 30
0.0
 11
55.2499999999999929
 21
50.0
 31
0.0
  0
LINE
  5
17EDF
  8
0
 10
44.7500000000000071
 20
69.0
 30
0.0
 11
55.2499999999999929
 21
69.0
 31
0.0
  0
LINE
  5
17F0D
  8
0
 10
44.7371527943358274
 20
50.0
 30
0.0
 11
44.7500000000000071
 21
50.0
 31
0.0
  0
LINE
  5
17F0E
  8
0
 10
44.7371527943358274
 20
69.0
 30
0.0
 11
44.7500000000000071
 21
69.0
 31
0.0
  0
LINE
  5
17F0F
  8
0
 10
44.7371527943358274
 20
73.7999999999999829
 30
0.0
 11
44.7500000000000071
 21
73.7999999999999829
 31
0.0
  0
LINE
  5
17F10
  8
0
 10
44.7500000000000071
 20
70.7999999999999829
 30
0.0
 11
44.7371527943358274
 21
70.7999999999999829
 31
0.0
  0
LINE
  5
17F32
  8
0
 10
100.0
 20
69.0
 30
0.0
 11
100.0
 21
50.0
 31
0.0
  0
LINE
  5
17F33
  8
0
 10
110.5000000000000995
 20
59.8846153846154365
 30
0.0
 11
110.5
 21
69.0
 31
0.0
  0
LINE
  5
17F34
  8
0
 10
110.5
 20
50.0
 30
0.0
 11
110.5
 21
50.115384615384869
 31
0.0
  0
LINE
  5
17F35
  8
0
 10
110.5
 20
70.7999999999999829
 30
0.0
 11
110.5
 21
73.7999999999999829
 31
0.0
  0
LINE
  5
17F36
  8
0
 10
356.0
 20
70.7999999999999829
 30
0.0
 11
356.0
 21
73.7999999999999829
 31
0.0
  0
LINE
  5
17F37
  8
0
 10
345.5
 20
50.1153846153844071
 30
0.0
 11
345.5
 21
50.0
 31
0.0
  0
LINE
  5
17F38
  8
0
 10
345.5
 20
69.0
 30
0.0
 11
345.5
 21
59.8846153846152092
 31
0.0
  0
LINE
  5
17F39
  8
0
 10
356.0
 20
50.0
 30
0.0
 11
356.0
 21
69.0
 31
0.0
  0
LINE
  5
17F3A
  8
0
 10
100.0
 20
73.7999999999999829
 30
0.0
 11
100.0
 21
70.7999999999999829
 31
0.0
  0
LINE
  5
17F3B
  8
0
 10
113.0
 20
59.8296703296703285
 30
0.0
 11
110.4999999999983942
 21
59.8846153846154223
 31
0.0
  0
LINE
  5
17F3C
  8
0
 10
110.5
 20
50.115384615384869
 30
0.0
 11
113.0
 21
50.1703296703296928
 31
0.0
  0
LINE
  5
17F3D
  8
0
 10
345.5
 20
73.7999999999999829
 30
0.0
 11
345.5
 21
70.7999999999999829
 31
0.0
  0
LINE
  5
17F3E
  8
0
 10
343.0
 20
50.1703296703296928
 30
0.0
 11
345.5000000000015916
 21
50.1153846153845777
 31
0.0
  0
LINE
  5
17F3F
  8
0
 10
345.5
 20
59.8846153846152092
 30
0.0
 11
343.0
 21
59.8296703296703285
 31
0.0
  0
LINE
  5
17F67
  8
0
 10
114.25
 20
50.19780219780219
 30
0.0
 11
118.0000000000052012
 21
50.2802197802199089
 31
0.0
  0
LINE
  5
17F68
  8
0
 10
117.9999999999999005
 20
59.7197802197802119
 30
0.0
 11
114.25
 21
59.80219780219781
 31
0.0
  0
LINE
  5
17F69
  8
0
 10
338.0000000000001137
 20
50.2913342184963312
 30
0.0
 11
341.75
 21
50.19780219780219
 31
0.0
  0
LINE
  5
17F6A
  8
0
 10
341.75
 20
59.80219780219781
 30
0.0
 11
338.0
 21
59.7197802197802119
 31
0.0
  0
LINE
  5
17F6C
  8
0
 10
109.0499999999999972
 20
73.7999999999999829
 30
0.0
 11
109.0499999999999972
 21
74.8000000000000114
 31
0.0
  0
LINE
  5
17F6E
  8
0
 10
123.0
 20
59.6098901098901024
 30
0.0
 11
119.2499999999999005
 21
59.6923076923077076
 31
0.0
  0
LINE
  5
17F6F
  8
0
 10
119.2499999999770068
 20
50.3076923076918021
 30
0.0
 11
123.0
 21
50.3901098901098692
 31
0.0
  0
LINE
  5
17F70
  8
0
 10
336.75
 20
59.6799523270137513
 30
0.0
 11
333.0
 21
59.6098901098901024
 31
0.0
  0
LINE
  5
17F71
  8
0
 10
333.0
 20
50.3901098901098692
 30
0.0
 11
336.7500000000226237
 21
50.3076923076918376
 31
0.0
  0
LINE
  5
17F73
  8
0
 10
127.7065920939141961
 20
59.5064351122479067
 30
0.0
 11
124.25
 21
59.5824175824175768
 31
0.0
  0
LINE
  5
17F74
  8
0
 10
124.25
 20
50.4175824175824232
 30
0.0
 11
127.7544836130568058
 21
50.4946040354518004
 31
0.0
  0
LINE
  5
17F75
  8
0
 10
331.75
 20
59.5824175824175768
 30
0.0
 11
328.2934081861678806
 21
59.5064485315641321
 31
0.0
  0
LINE
  5
17F76
  8
0
 10
328.2934079060858039
 20
50.4935648877521714
 30
0.0
 11
331.75
 21
50.4175824175824232
 31
0.0
  0
ARC
  5
17F7F
  8
0
 10
127.6999999990601964
 20
50.7934790405554395
 30
0.0
 40
0.3000000009397532
 50
271.2590453825902728
 51
0.0000002224177664
  0
ARC
  5
17F80
  8
0
 10
127.6999999990602959
 20
59.2065209594447026
 30
0.0
 40
0.3000000009397183
 50
359.9999997775709062
 51
88.7409546174209964
  0
ARC
  5
17F81
  8
0
 10
328.3000000009398036
 20
50.7934790405555816
 30
0.0
 40
0.3000000009398958
 50
179.9999997776081955
 51
268.7409546174063166
  0
ARC
  5
17F82
  8
0
 10
328.3000000009398036
 20
59.2065209594447524
 30
0.0
 40
0.3000000009396331
 50
91.2590453825415437
 51
180.0000002224404909
  0
LINE
  5
17F86
  8
0
 10
101.4500000000000028
 20
74.8000000000000114
 30
0.0
 11
101.4500000000000028
 21
73.7999999999999829
 31
0.0
  0
LINE
  5
17F8A
  8
0
 10
127.9999999999999005
 20
52.3000000000000114
 30
0.0
 11
328.0
 21
52.3000000000000114
 31
0.0
  0
LINE
  5
17F8B
  8
0
 10
328.0
 20
57.6999999999999886
 30
0.0
 11
127.9999999999999005
 21
57.6999999999999886
 31
0.0
  0
POLYLINE
  5
17FA5
  8
0
 66
     1
 10
0.0
 20
0.0
 30
0.0
 70
   128
  0
VERTEX
  5
1A578
  8
0
 10
107.2361135874043043
 20
59.3810767975988725
 30
0.0
  0
VERTEX
  5
1A579
  8
0
 10
107.2536394370294062
 20
59.4401026268151327
 30
0.0
  0
VERTEX
  5
1A57A
  8
0
 10
107.2920817592062974
 20
59.4969717786488488
 30
0.0
  0
VERTEX
  5
1A57B
  8
0
 10
107.4307401689627
 20
59.6042400501686416
 30
0.0
  0
VERTEX
  5
1A57C
  8
0
 10
107.6957466460196997
 20
59.7147639114356465
 30
0.0
  0
VERTEX
  5
1A57D
  8
0
 10
108.2313095028140992
 20
59.7890553200634827
 30
0.0
  0
SEQEND
  5
1A57E
  8
0
  0
ARC
  5
17FA6
  8
0
 10
142.6196019974971136
 20
55.0000000000000568
 30
0.0
 40
35.6536826425213604
 50
172.9417323993289131
 51
187.0582676006710017
  0
POLYLINE
  5
17FA7
  8
0
 66
     1
 10
0.0
 20
0.0
 30
0.0
 70
   128
  0
VERTEX
  5
1A57F
  8
0
 10
108.2313095027939056
 20
50.2109446799359205
 30
0.0
  0
VERTEX
  5
1A580
  8
0
 10
107.6975787924065031
 20
50.2846815810218501
 30
0.0
  0
VERTEX
  5
1A581
  8
0
 10
107.4305470319752942
 20
50.3958709391808384
 30
0.0
  0
VERTEX
  5
1A582
  8
0
 10
107.2920352438738973
 20
50.5030354750886019
 30
0.0
  0
VERTEX
  5
1A583
  8
0
 10
107.2536289657981996
 20
50.5598889398193307
 30
0.0
  0
VERTEX
  5
1A584
  8
0
 10
107.2361135874044038
 20
50.618923202400822
 30
0.0
  0
SEQEND
  5
1A585
  8
0
  0
ARC
  5
17FA8
  8
0
 10
108.8621391354296009
 20
38.2092056533174116
 30
0.0
 40
12.0183062737005102
 50
82.1673281189113567
 51
93.0087844330284668
  0
ARC
  5
17FA9
  8
0
 10
108.8621319896762998
 20
71.7909639939577744
 30
0.0
 40
12.0184753120531091
 50
266.9912920372198073
 51
277.8325954109292866
  0
LINE
  5
17FAA
  8
0
 10
100.0
 20
50.0
 30
0.0
 11
110.5
 21
50.0
 31
0.0
  0
LINE
  5
17FAB
  8
0
 10
100.0
 20
69.0
 30
0.0
 11
110.5
 21
69.0
 31
0.0
  0
LINE
  5
17FAC
  8
0
 10
110.5
 20
70.7999999999999829
 30
0.0
 11
100.0
 21
70.7999999999999972
 31
0.0
  0
LINE
  5
17FAE
  8
0
 10
100.0
 20
73.7999999999999829
 30
0.0
 11
110.5
 21
73.7999999999999829
 31
0.0
  0
LINE
  5
17FB0
  8
0
 10
356.0
 20
70.7999999999999829
 30
0.0
 11
345.5
 21
70.7999999999999829
 31
0.0
  0
LINE
  5
17FB1
  8
0
 10
345.5
 20
73.7999999999999829
 30
0.0
 11
356.0
 21
73.7999999999999829
 31
0.0
  0
ARC
  5
17FB2
  8
0
 10
347.1378680103268835
 20
38.2090360060041405
 30
0.0
 40
12.0184753120911196
 50
86.9912920372442358
 51
97.8325954109186
  0
POLYLINE
  5
17FB3
  8
0
 66
     1
 10
0.0
 20
0.0
 30
0.0
 70
   128
  0
VERTEX
  5
1A586
  8
0
 10
348.7638864125964915
 20
50.6189232024012767
 30
0.0
  0
VERTEX
  5
1A587
  8
0
 10
348.7463605629783956
 20
50.5598973732427623
 30
0.0
  0
VERTEX
  5
1A588
  8
0
 10
348.7079182408040197
 20
50.5030282214283872
 30
0.0
  0
VERTEX
  5
1A589
  8
0
 10
348.5692598310392896
 20
50.3957599498319908
 30
0.0
  0
VERTEX
  5
1A58A
  8
0
 10
348.3042533539817782
 20
50.2852360885646021
 30
0.0
  0
VERTEX
  5
1A58B
  8
0
 10
347.7686904971860145
 20
50.2109446799366594
 30
0.0
  0
SEQEND
  5
1A58C
  8
0
  0
ARC
  5
17FB4
  8
0
 10
313.3803980125819066
 20
55.0000000000000568
 30
0.0
 40
35.6536826325195904
 50
352.9417323973402176
 51
7.0582676026614024
  0
POLYLINE
  5
17FB5
  8
0
 66
     1
 10
0.0
 20
0.0
 30
0.0
 70
   128
  0
VERTEX
  5
1A58D
  8
0
 10
347.768690497207217
 20
59.7890553200641577
 30
0.0
  0
VERTEX
  5
1A58E
  8
0
 10
348.302421207595728
 20
59.7153184189778514
 30
0.0
  0
VERTEX
  5
1A58F
  8
0
 10
348.5694529680267237
 20
59.6041290608184511
 30
0.0
  0
VERTEX
  5
1A590
  8
0
 10
348.7079647561290017
 20
59.4969645248959793
 30
0.0
  0
VERTEX
  5
1A591
  8
0
 10
348.7463710342040031
 20
59.4401110601692722
 30
0.0
  0
VERTEX
  5
1A592
  8
0
 10
348.7638864125964915
 20
59.3810767975988725
 30
0.0
  0
SEQEND
  5
1A593
  8
0
  0
ARC
  5
17FB6
  8
0
 10
347.137860864569916
 20
71.7907943466626364
 30
0.0
 40
12.0183062736805795
 50
262.1673281189014801
 51
273.0087844330415123
  0
LINE
  5
17FB7
  8
0
 10
345.5
 20
69.0
 30
0.0
 11
356.0
 21
69.0
 31
0.0
  0
LINE
  5
17FB8
  8
0
 10
345.5
 20
50.0
 30
0.0
 11
356.0
 21
50.0
 31
0.0
  0
LINE
  5
17FBA
  8
0
 10
115.5
 20
59.7145688647002189
 30
0.0
 11
115.4999999999999005
 21
50.2854311352998806
 31
0.0
  0
LINE
  5
17FBC
  8
0
 10
114.25
 20
50.19780219780219
 30
0.0
 11
114.25
 21
53.7000000000000099
 31
0.0
  0
ARC
  5
17FBD
  8
0
 10
113.9500000000000028
 20
53.7000000000000099
 30
0.0
 40
0.2999999999999829
 50
0.0
 51
90.0000000000056986
  0
LINE
  5
17FBE
  8
0
 10
113.9500000000000028
 20
54.0
 30
0.0
 11
113.2999999999999972
 21
54.0
 31
0.0
  0
ARC
  5
17FBF
  8
0
 10
113.2999999999999972
 20
53.6999999999999886
 30
0.0
 40
0.3000000000000114
 50
89.9999999999942872
 51
179.9999999999951115
  0
LINE
  5
17FC0
  8
0
 10
112.9999999999999005
 20
53.7000000000000099
 30
0.0
 11
113.0
 21
50.1703296703296928
 31
0.0
  0
LINE
  5
17FC3
  8
0
 10
113.0
 20
59.8296703296703427
 30
0.0
 11
113.0
 21
56.2999999999899501
 31
0.0
  0
ARC
  5
17FC4
  8
0
 10
113.2999999999999972
 20
56.3000000000000114
 30
0.0
 40
0.3000000000000398
 50
180.0000000019215065
 51
270.0000000000007958
  0
LINE
  5
17FC5
  8
0
 10
113.2999999999999972
 20
55.9999999999999716
 30
0.0
 11
113.9500000000000028
 21
56.0
 31
0.0
  0
ARC
  5
17FC6
  8
0
 10
113.9500000000000028
 20
56.2999999999999901
 30
0.0
 40
0.2999999999999829
 50
269.9999999999951115
 51
0.0000000000537387
  0
LINE
  5
17FC7
  8
0
 10
114.25
 20
56.3000000000002672
 30
0.0
 11
114.25
 21
59.8021978021978029
 31
0.0
  0
ARC
  5
17FCA
  8
0
 10
342.0499999999996135
 20
56.2999999999995921
 30
0.0
 40
0.299999999999585
 50
179.9999999999186002
 51
270.0000000000878799
  0
LINE
  5
17FCB
  8
0
 10
342.0500000000000114
 20
56.0
 30
0.0
 11
342.6999999999999886
 21
56.0000000000002629
 31
0.0
  0
ARC
  5
17FCC
  8
0
 10
342.7000000000036266
 20
56.2999999999966789
 30
0.0
 40
0.2999999999964302
 50
269.9999999993273718
 51
0.0000000006350932
  0
LINE
  5
17FCD
  8
0
 10
343.0
 20
56.3000000000000114
 30
0.0
 11
343.0
 21
59.8296703296703285
 31
0.0
  0
LINE
  5
17FD0
  8
0
 10
343.0
 20
50.1703296703296999
 30
0.0
 11
343.0
 21
53.7000000000103128
 31
0.0
  0
ARC
  5
17FD1
  8
0
 10
342.7000000000036266
 20
53.7000000000036266
 30
0.0
 40
0.2999999999963734
 50
0.0000000012750716
 51
90.0000000006839542
  0
LINE
  5
17FD2
  8
0
 10
342.6999999999999886
 20
54.0
 30
0.0
 11
342.0500000000000114
 21
54.0
 31
0.0
  0
ARC
  5
17FD3
  8
0
 10
342.0500000000042178
 20
53.6999999999958106
 30
0.0
 40
0.3000000000041894
 50
90.0000000007922552
 51
179.9999999991808863
  0
LINE
  5
17FD4
  8
0
 10
341.75
 20
53.7000000000000099
 30
0.0
 11
341.7500000000334808
 21
50.1978021978013587
 31
0.0
  0
LINE
  5
17FD6
  8
0
 10
340.5000000000001137
 20
58.8960100543023088
 30
0.0
 11
340.5000000000001137
 21
50.2854311352998522
 31
0.0
  0
LINE
  5
17FD8
  8
0
 10
341.75
 20
59.80219780219781
 30
0.0
 11
341.75
 21
56.3000000000000114
 31
0.0
  0
LINE
  5
17FE4
  8
0
 10
120.5
 20
59.5622476390637701
 30
0.0
 11
120.5
 21
50.4377523609359812
 31
0.0
  0
LINE
  5
17FE6
  8
0
 10
119.2499999999773053
 20
50.3076923076918021
 30
0.0
 11
119.25
 21
53.6999999999939703
 31
0.0
  0
ARC
  5
17FE7
  8
0
 10
118.9499999999999034
 20
53.6999999999999602
 30
0.0
 40
0.3000000000000398
 50
359.9999999988551735
 51
89.9999999999951115
  0
LINE
  5
17FE8
  8
0
 10
118.9500000000000028
 20
54.0
 30
0.0
 11
118.2999999999999972
 21
54.0
 31
0.0
  0
ARC
  5
17FE9
  8
0
 10
118.2999999999999972
 20
53.6999999999999034
 30
0.0
 40
0.3000000000000966
 50
90.0000000000106013
 51
179.9999999999787974
  0
LINE
  5
17FEA
  8
0
 10
117.9999999999999005
 20
53.7000000000000099
 30
0.0
 11
118.0000000000073044
 21
50.2802197802199586
 31
0.0
  0
LINE
  5
17FEC
  8
0
 10
116.7500000000024016
 20
50.3225092398630167
 30
0.0
 11
116.7499999999755005
 21
59.677490760146263
 31
0.0
  0
LINE
  5
17FEE
  8
0
 10
117.9999999999999005
 20
59.7197802197802119
 30
0.0
 11
117.9999999999999005
 21
56.3000000000019369
 31
0.0
  0
ARC
  5
17FEF
  8
0
 10
118.2999999999999972
 20
56.3000000000000398
 30
0.0
 40
0.3000000000000682
 50
179.999999999636799
 51
269.9999999999951115
  0
LINE
  5
17FF0
  8
0
 10
118.2999999999999972
 20
55.9999999999999716
 30
0.0
 11
118.9500000000000028
 21
56.0000000000002629
 31
0.0
  0
ARC
  5
17FF1
  8
0
 10
118.9499999999999034
 20
56.3000000000003169
 30
0.0
 40
0.3000000000000682
 50
270.0000000000114255
 51
0.0000000000928213
  0
LINE
  5
17FF2
  8
0
 10
119.25
 20
56.3000000000008001
 30
0.0
 11
119.25
 21
59.6923076923077076
 31
0.0
  0
ARC
  5
17FF3
  8
0
 10
337.0499999999993861
 20
56.2999999999994714
 30
0.0
 40
0.2999999999994713
 50
179.9999999986858086
 51
270.000000000120508
  0
LINE
  5
17FF4
  8
0
 10
337.0500000000001251
 20
56.0
 30
0.0
 11
337.7000000000001023
 21
56.0
 31
0.0
  0
ARC
  5
17FF5
  8
0
 10
337.7000000000048772
 20
56.2999999999950589
 30
0.0
 40
0.299999999995066
 50
269.9999999990669153
 51
0.0000000010259197
  0
LINE
  5
17FF6
  8
0
 10
338.0
 20
56.3000000000004377
 30
0.0
 11
338.0
 21
59.7197802197802119
 31
0.0
  0
LINE
  5
17FF9
  8
0
 10
338.0
 20
50.2913342184963383
 30
0.0
 11
338.0
 21
53.6999999999982833
 31
0.0
  0
ARC
  5
17FFA
  8
0
 10
337.700000000005673
 20
53.700000000005673
 30
0.0
 40
0.299999999994327
 50
359.9999999985897716
 51
90.0000000010747812
  0
LINE
  5
17FFB
  8
0
 10
337.7000000000001023
 20
54.0
 30
0.0
 11
337.0500000000000114
 21
54.0
 31
0.0
  0
ARC
  5
17FFC
  8
0
 10
337.050000000004502
 20
53.6999999999954909
 30
0.0
 40
0.300000000004502
 50
90.0000000008467822
 51
179.9999999992460005
  0
LINE
  5
17FFD
  8
0
 10
336.7499999999998863
 20
53.6999999999994486
 30
0.0
 11
336.75
 21
50.3076923076923279
 31
0.0
  0
LINE
  5
17FFF
  8
0
 10
335.5
 20
58.6128838821343479
 30
0.0
 11
335.5
 21
50.4377523609360594
 31
0.0
  0
LINE
  5
18001
  8
0
 10
336.75
 20
59.6799523270137513
 30
0.0
 11
336.75
 21
56.3000000000063423
 31
0.0
  0
LINE
  5
18002
  8
0
 10
339.25
 20
50.322509239862157
 30
0.0
 11
339.25
 21
58.8246754973478971
 31
0.0
  0
LINE
  5
18004
  8
0
 10
125.4999999999901945
 20
59.3968088568262331
 30
0.0
 11
125.5000000000012932
 21
50.6031911431651977
 31
0.0
  0
LINE
  5
18006
  8
0
 10
124.2500000000005969
 20
50.4175824175824374
 30
0.0
 11
124.25
 21
53.6999999999995907
 31
0.0
  0
ARC
  5
18007
  8
0
 10
123.9500000000000028
 20
53.6999999999999318
 30
0.0
 40
0.3000000000000682
 50
359.9999999999349143
 51
90.00000000000081
  0
LINE
  5
18008
  8
0
 10
123.9500000000000028
 20
54.0000000000000284
 30
0.0
 11
123.2999999999999972
 21
54.0
 31
0.0
  0
ARC
  5
18009
  8
0
 10
123.2999999999998977
 20
53.7000000000000099
 30
0.0
 40
0.2999999999999829
 50
89.9999999999894129
 51
180.0
  0
LINE
  5
1800A
  8
0
 10
123.0
 20
53.7000000000000099
 30
0.0
 11
122.9999999999999005
 21
50.3901098901098692
 31
0.0
  0
LINE
  5
1800C
  8
0
 10
121.75
 20
50.4777007854114714
 30
0.0
 11
121.75
 21
59.5222992145886209
 31
0.0
  0
LINE
  5
1800E
  8
0
 10
123.0
 20
59.6098901098901024
 30
0.0
 11
123.0
 21
56.3000000000006295
 31
0.0
  0
ARC
  5
1800F
  8
0
 10
123.2999999999999972
 20
56.3000000000000114
 30
0.0
 40
0.3000000000000114
 50
179.999999999881112
 51
270.0000000000007958
  0
LINE
  5
18010
  8
0
 10
123.2999999999999972
 20
56.0
 30
0.0
 11
123.9500000000000028
 21
56.0
 31
0.0
  0
ARC
  5
18011
  8
0
 10
123.9499999999999034
 20
56.3000000000001322
 30
0.0
 40
0.300000000000125
 50
270.0000000000114255
 51
0.0000000000276835
  0
LINE
  5
18012
  8
0
 10
124.25
 20
56.3000000000002672
 30
0.0
 11
124.25
 21
59.5824175824175768
 31
0.0
  0
ARC
  5
18013
  8
0
 10
332.0499999999994998
 20
56.2999999999994216
 30
0.0
 40
0.2999999999994429
 50
179.999999999755687
 51
270.000000000120508
  0
LINE
  5
18014
  8
0
 10
332.0500000000001251
 20
55.9999999999999716
 30
0.0
 11
332.6999999999999886
 21
56.0
 31
0.0
  0
ARC
  5
18015
  8
0
 10
332.7000000000051045
 20
56.2999999999950376
 30
0.0
 40
0.2999999999950376
 50
269.9999999990457127
 51
0.0000000009558966
  0
LINE
  5
18016
  8
0
 10
333.0000000000001137
 20
56.3000000000000114
 30
0.0
 11
332.9999999999998863
 21
59.6098901098901024
 31
0.0
  0
LINE
  5
18019
  8
0
 10
332.9999999999998863
 20
50.3901098901098692
 30
0.0
 11
333.0
 21
53.6999999999995907
 31
0.0
  0
ARC
  5
1801A
  8
0
 10
332.7000000000051045
 20
53.7000000000050477
 30
0.0
 40
0.2999999999949523
 50
359.9999999989577759
 51
90.0000000009452776
  0
LINE
  5
1801B
  8
0
 10
332.7000000000001023
 20
54.0
 30
0.0
 11
332.0500000000001251
 21
54.0
 31
0.0
  0
ARC
  5
1801C
  8
0
 10
332.0500000000046725
 20
53.6999999999953488
 30
0.0
 40
0.3000000000046441
 50
90.0000000008793393
 51
179.9999999991042898
  0
LINE
  5
1801D
  8
0
 10
331.75
 20
53.7000000000000099
 30
0.0
 11
331.7500000000150067
 21
50.4175824175821035
 31
0.0
  0
LINE
  5
1801F
  8
0
 10
330.5000000000001137
 20
59.3968088568319885
 30
0.0
 11
330.5000000000001137
 21
50.603191143168111
 31
0.0
  0
LINE
  5
18021
  8
0
 10
331.75
 20
59.5824175824175768
 30
0.0
 11
331.75
 21
56.3000000000007006
 31
0.0
  0
LINE
  5
18022
  8
0
 10
334.25
 20
50.4777007854114572
 30
0.0
 11
334.25
 21
58.5426035055137106
 31
0.0
  0
LINE
  5
18023
  8
0
 10
126.7500000000003979
 20
50.647217504451632
 30
0.0
 11
126.7499999999966036
 21
59.3527824955576619
 31
0.0
  0
LINE
  5
18027
  8
0
 10
329.25
 20
50.6472175044505093
 30
0.0
 11
329.25
 21
59.3527824955495404
 31
0.0
  0
LINE
  5
1802C
  8
0
 10
128.0
 20
59.2065209594447026
 30
0.0
 11
128.0
 21
50.7934790405554395
 31
0.0
  0
LINE
  5
1802E
  8
0
 10
328.0
 20
52.0096316411728594
 30
0.0
 11
328.0
 21
57.9903683588266006
 31
0.0
  0
LINE
  5
18040
  8
0
 10
340.5000000000001137
 20
59.2556170562152218
 30
0.0
 11
340.5000000000001137
 21
58.8960100543023088
 31
0.0
  0
LINE
  5
1807E
  8
0
 10
116.75
 20
55.6500000000000128
 30
0.0
 11
115.5
 21
55.6500000000000128
 31
0.0
  0
LINE
  5
1807F
  8
0
 10
116.75
 20
54.3499999999999872
 30
0.0
 11
115.5
 21
54.3499999999999872
 31
0.0
  0
LINE
  5
18085
  8
0
 10
339.25
 20
58.8246754973478971
 30
0.0
 11
339.25
 21
59.1596053303648617
 31
0.0
  0
LINE
  5
18086
  8
0
 10
340.5000000000001137
 20
54.3499999999999872
 30
0.0
 11
339.25
 21
54.3499999999999872
 31
0.0
  0
LINE
  5
18087
  8
0
 10
340.5000000000001137
 20
55.6500000000000128
 30
0.0
 11
339.25
 21
55.6500000000000128
 31
0.0
  0
LINE
  5
1808B
  8
0
 10
121.75
 20
54.3499999999999872
 30
0.0
 11
120.5
 21
54.3499999999999872
 31
0.0
  0
LINE
  5
1808C
  8
0
 10
121.75
 20
55.6500000000000128
 30
0.0
 11
120.5
 21
55.6500000000000128
 31
0.0
  0
ARC
  5
1808D
  8
0
 10
115.6872840260087969
 20
50.9590732983731129
 30
0.0
 40
0.6991917264013389
 50
254.4631610349075004
 51
279.2770757841091154
  0
POLYLINE
  5
1808E
  8
0
 66
     1
 10
0.0
 20
0.0
 30
0.0
 70
   128
  0
VERTEX
  5
1A594
  8
0
 10
115.7999999999999972
 20
50.269026793074147
 30
0.0
  0
VERTEX
  5
1A595
  8
0
 10
116.1640003111624964
 20
50.2786733208098369
 30
0.0
  0
VERTEX
  5
1A596
  8
0
 10
116.4500000000000028
 20
50.2862736728440893
 30
0.0
  0
SEQEND
  5
1A597
  8
0
  0
ARC
  5
1808F
  8
0
 10
116.5123069908469944
 20
51.0304157719863269
 30
0.0
 40
0.7467460243109607
 50
265.2137905388037211
 51
288.5604506846361232
  0
ARC
  5
18094
  8
0
 10
116.5122509869321021
 20
58.969120562727511
 30
0.0
 40
0.7472034059037445
 50
71.4467952914142046
 51
94.7789634852020413
  0
POLYLINE
  5
18095
  8
0
 66
     1
 10
0.0
 20
0.0
 30
0.0
 70
   128
  0
VERTEX
  5
1A598
  8
0
 10
116.4500000000000028
 20
59.7137263271559604
 30
0.0
  0
VERTEX
  5
1A599
  8
0
 10
116.0860003105742067
 20
59.7233962864717398
 30
0.0
  0
VERTEX
  5
1A59A
  8
0
 10
115.7999999999999972
 20
59.7309732069259667
 30
0.0
  0
SEQEND
  5
1A59B
  8
0
  0
ARC
  5
18096
  8
0
 10
115.6965510561119004
 20
58.8714527298793584
 30
0.0
 40
0.8657234745887294
 50
83.1370870087831122
 51
103.122676172203299
  0
LINE
  5
1809B
  8
0
 10
335.5
 20
54.3499999999999872
 30
0.0
 11
334.25
 21
54.3499999999999872
 31
0.0
  0
LINE
  5
1809C
  8
0
 10
335.5
 20
55.6500000000000128
 30
0.0
 11
334.25
 21
55.6500000000000128
 31
0.0
  0
ARC
  5
180A3
  8
0
 10
339.4877490129974262
 20
51.0308794366883873
 30
0.0
 40
0.7472034053274066
 50
251.4467952822793109
 51
274.7789634943212036
  0
POLYLINE
  5
180A4
  8
0
 66
     1
 10
0.0
 20
0.0
 30
0.0
 70
   128
  0
VERTEX
  5
1A59C
  8
0
 10
340.2000000000001023
 20
50.269026793074147
 30
0.0
  0
VERTEX
  5
1A59D
  8
0
 10
339.8359996888374894
 20
50.2786733208098724
 30
0.0
  0
VERTEX
  5
1A59E
  8
0
 10
339.5500000000001251
 20
50.2862736728441391
 30
0.0
  0
SEQEND
  5
1A59F
  8
0
  0
ARC
  5
180A5
  8
0
 10
340.3034489438883838
 20
51.1285472701165133
 30
0.0
 40
0.8657234745845588
 50
263.1370870087314984
 51
283.1226761722476226
  0
ARC
  5
180AA
  8
0
 10
340.3127159739908052
 20
59.0409267016222188
 30
0.0
 40
0.6991917264059451
 50
74.46316103498269
 51
99.2770757840167306
  0
POLYLINE
  5
180AB
  8
0
 66
     1
 10
0.0
 20
0.0
 30
0.0
 70
   128
  0
VERTEX
  5
1A5A0
  8
0
 10
339.5500000000001251
 20
59.7137263271559604
 30
0.0
  0
VERTEX
  5
1A5A1
  8
0
 10
339.9139996894257933
 20
59.7233962864717114
 30
0.0
  0
VERTEX
  5
1A5A2
  8
0
 10
340.2000000000001023
 20
59.7309732069259098
 30
0.0
  0
SEQEND
  5
1A5A3
  8
0
  0
ARC
  5
180AC
  8
0
 10
339.4876930091995746
 20
58.9695842276271378
 30
0.0
 40
0.7467460246923184
 50
85.2137905448369821
 51
108.5604506785833934
  0
LINE
  5
180AE
  8
0
 10
339.25
 20
59.1596053303648617
 30
0.0
 11
339.25
 21
59.6774907601378786
 31
0.0
  0
LINE
  5
180B0
  8
0
 10
340.5000000000001137
 20
59.7145688647001407
 30
0.0
 11
340.5000000000001137
 21
59.2556170562152218
 31
0.0
  0
LINE
  5
180B3
  8
0
 10
335.5
 20
58.8598628807515567
 30
0.0
 11
335.5
 21
58.6128838821343479
 31
0.0
  0
LINE
  5
180B9
  8
0
 10
126.75
 20
55.6500000000000128
 30
0.0
 11
125.5
 21
55.6500000000000128
 31
0.0
  0
LINE
  5
180BA
  8
0
 10
126.75
 20
54.3499999999999872
 30
0.0
 11
125.5
 21
54.3499999999999872
 31
0.0
  0
LINE
  5
180C0
  8
0
 10
330.5000000000001137
 20
55.6500000000000128
 30
0.0
 11
329.25
 21
55.6500000000000128
 31
0.0
  0
LINE
  5
180C1
  8
0
 10
330.5000000000001137
 20
54.3499999999999872
 30
0.0
 11
329.25
 21
54.3499999999999872
 31
0.0
  0
LINE
  5
180CB
  8
0
 10
334.25
 20
58.5426035055137106
 30
0.0
 11
334.25
 21
58.7551267336661809
 31
0.0
  0
ARC
  5
180CF
  8
0
 10
121.5183797758541999
 20
59.1063136108579386
 30
0.0
 40
0.4761217814220605
 50
60.8909985226520973
 51
98.2572731458647155
  0
POLYLINE
  5
180D0
  8
0
 66
     1
 10
0.0
 20
0.0
 30
0.0
 70
   128
  0
VERTEX
  5
1A5A4
  8
0
 10
121.4499999999999034
 20
59.5774995157814828
 30
0.0
  0
VERTEX
  5
1A5A5
  8
0
 10
121.0860004457469046
 20
59.5876540580538574
 30
0.0
  0
VERTEX
  5
1A5A6
  8
0
 10
120.7999999999999972
 20
59.5956040438935872
 30
0.0
  0
SEQEND
  5
1A5A7
  8
0
  0
ARC
  5
180D1
  8
0
 10
120.7063115844776036
 20
59.0724721205373768
 30
0.0
 40
0.5314551048183349
 50
79.8464608056803229
 51
112.8426278036563986
  0
ARC
  5
180D6
  8
0
 10
120.6953656722025983
 20
50.8290828072447809
 30
0.0
 40
0.437386858608519
 50
243.4700460355230121
 51
283.8408653552348824
  0
POLYLINE
  5
180D7
  8
0
 66
     1
 10
0.0
 20
0.0
 30
0.0
 70
   128
  0
VERTEX
  5
1A5A8
  8
0
 10
120.7999999999999972
 20
50.4043959561064412
 30
0.0
  0
VERTEX
  5
1A5A9
  8
0
 10
121.1640004466967042
 20
50.4145184581277306
 30
0.0
  0
VERTEX
  5
1A5AA
  8
0
 10
121.4499999999999034
 20
50.4225004842186024
 30
0.0
  0
SEQEND
  5
1A5AB
  8
0
  0
ARC
  5
180D8
  8
0
 10
121.5184316976621943
 20
50.8934042069430177
 30
0.0
 40
0.4758499903547783
 50
261.731660218756474
 51
299.1200681127145913
  0
ARC
  5
180DD
  8
0
 10
335.3046343277969754
 20
59.1709171927498687
 30
0.0
 40
0.4373868586136239
 50
63.4700460358011682
 51
103.8408653550169021
  0
POLYLINE
  5
180DE
  8
0
 66
     1
 10
0.0
 20
0.0
 30
0.0
 70
   128
  0
VERTEX
  5
1A5AC
  8
0
 10
334.5500000000001251
 20
59.5774995157814828
 30
0.0
  0
VERTEX
  5
1A5AD
  8
0
 10
334.9139995542532802
 20
59.5876540580538574
 30
0.0
  0
VERTEX
  5
1A5AE
  8
0
 10
335.1999999999999886
 20
59.5956040438935872
 30
0.0
  0
SEQEND
  5
1A5AF
  8
0
  0
ARC
  5
180DF
  8
0
 10
334.4815683023214206
 20
59.1065957931455088
 30
0.0
 40
0.4758499902696159
 50
81.731660215262977
 51
119.1200681161679995
  0
LINE
  5
180E2
  8
0
 10
334.25
 20
58.7551267336661809
 30
0.0
 11
334.25
 21
59.522299214588692
 31
0.0
  0
LINE
  5
180E3
  8
0
 10
335.5
 20
59.5622476390641609
 30
0.0
 11
335.5
 21
58.8598628807515567
 31
0.0
  0
ARC
  5
180E4
  8
0
 10
334.4816202241590872
 20
50.8936863892151905
 30
0.0
 40
0.476121781492364
 50
240.8909985255372987
 51
278.2572731430295221
  0
POLYLINE
  5
180E5
  8
0
 66
     1
 10
0.0
 20
0.0
 30
0.0
 70
   128
  0
VERTEX
  5
1A5B0
  8
0
 10
335.1999999999999886
 20
50.4043959561064909
 30
0.0
  0
VERTEX
  5
1A5B1
  8
0
 10
334.8359995533035089
 20
50.414518458127759
 30
0.0
  0
VERTEX
  5
1A5B2
  8
0
 10
334.5500000000001251
 20
50.4225004842186593
 30
0.0
  0
SEQEND
  5
1A5B3
  8
0
  0
ARC
  5
180E6
  8
0
 10
335.2936884155221833
 20
50.9275278794680375
 30
0.0
 40
0.5314551048235611
 50
259.8464608058043837
 51
292.8426278034391999
  0
POLYLINE
  5
180F9
  8
0
 66
     1
 10
0.0
 20
0.0
 30
0.0
 70
   128
  0
VERTEX
  5
1A5B4
  8
0
 10
126.4499999999999034
 20
59.4333159451376218
 30
0.0
  0
VERTEX
  5
1A5B5
  8
0
 10
126.5645735974707975
 20
59.4251888426551602
 30
0.0
  0
VERTEX
  5
1A5B6
  8
0
 10
126.6172391174419971
 20
59.417628203661053
 30
0.0
  0
VERTEX
  5
1A5B7
  8
0
 10
126.6637690606881961
 20
59.4077361728317612
 30
0.0
  0
VERTEX
  5
1A5B8
  8
0
 10
126.7228882393753935
 20
59.3855637902957483
 30
0.0
  0
VERTEX
  5
1A5B9
  8
0
 10
126.7424982826650961
 20
59.3704992569489889
 30
0.0
  0
VERTEX
  5
1A5BA
  8
0
 10
126.75
 20
59.3527824955496612
 30
0.0
  0
SEQEND
  5
1A5BB
  8
0
  0
POLYLINE
  5
180FA
  8
0
 66
     1
 10
0.0
 20
0.0
 30
0.0
 70
   128
  0
VERTEX
  5
1A5BC
  8
0
 10
126.4499999999999034
 20
59.4333159451376218
 30
0.0
  0
VERTEX
  5
1A5BD
  8
0
 10
126.086000669182198
 20
59.4441438115875371
 30
0.0
  0
VERTEX
  5
1A5BE
  8
0
 10
125.7999999999999972
 20
59.452611155913111
 30
0.0
  0
SEQEND
  5
1A5BF
  8
0
  0
ARC
  5
180FB
  8
0
 10
125.7250253776111037
 20
59.0213643798662702
 30
0.0
 40
0.4377156335489321
 50
80.1373934852247345
 51
120.9366712177928065
  0
POLYLINE
  5
18100
  8
0
 66
     1
 10
0.0
 20
0.0
 30
0.0
 70
   128
  0
VERTEX
  5
1A5C0
  8
0
 10
125.7999999999999972
 20
50.5473888440869601
 30
0.0
  0
VERTEX
  5
1A5C1
  8
0
 10
125.6916935559683992
 20
50.5484728108742729
 30
0.0
  0
VERTEX
  5
1A5C2
  8
0
 10
125.5945700142872994
 20
50.5581345163168692
 30
0.0
  0
VERTEX
  5
1A5C3
  8
0
 10
125.5555263521850975
 20
50.566182021033967
 30
0.0
  0
VERTEX
  5
1A5C4
  8
0
 10
125.5255904593389999
 20
50.5763739604148483
 30
0.0
  0
VERTEX
  5
1A5C5
  8
0
 10
125.5065883647598071
 20
50.5887103344595701
 30
0.0
  0
VERTEX
  5
1A5C6
  8
0
 10
125.5
 20
50.6031911431681465
 30
0.0
  0
SEQEND
  5
1A5C7
  8
0
  0
POLYLINE
  5
18101
  8
0
 66
     1
 10
0.0
 20
0.0
 30
0.0
 70
   128
  0
VERTEX
  5
1A5C8
  8
0
 10
125.7999999999999972
 20
50.5473888440869601
 30
0.0
  0
VERTEX
  5
1A5C9
  8
0
 10
126.164000670819803
 20
50.5581715714120321
 30
0.0
  0
VERTEX
  5
1A5CA
  8
0
 10
126.4499999999999034
 20
50.5666840548624918
 30
0.0
  0
SEQEND
  5
1A5CB
  8
0
  0
POLYLINE
  5
18102
  8
0
 66
     1
 10
0.0
 20
0.0
 30
0.0
 70
   128
  0
VERTEX
  5
1A5CC
  8
0
 10
126.75
 20
50.6472175044504809
 30
0.0
  0
VERTEX
  5
1A5CD
  8
0
 10
126.742514014261701
 20
50.6295186893970026
 30
0.0
  0
VERTEX
  5
1A5CE
  8
0
 10
126.7229431012469973
 20
50.6144669846386179
 30
0.0
  0
VERTEX
  5
1A5CF
  8
0
 10
126.6639276639020011
 20
50.5923049060070298
 30
0.0
  0
VERTEX
  5
1A5D0
  8
0
 10
126.6173811535773979
 20
50.5823962129963078
 30
0.0
  0
VERTEX
  5
1A5D1
  8
0
 10
126.5646799524341048
 20
50.5748231734686371
 30
0.0
  0
VERTEX
  5
1A5D2
  8
0
 10
126.4499999999999034
 20
50.5666840548624918
 30
0.0
  0
SEQEND
  5
1A5D3
  8
0
  0
POLYLINE
  5
18107
  8
0
 66
     1
 10
0.0
 20
0.0
 30
0.0
 70
   128
  0
VERTEX
  5
1A5D4
  8
0
 10
330.1999999999999886
 20
59.452611155913111
 30
0.0
  0
VERTEX
  5
1A5D5
  8
0
 10
330.3083064440315866
 20
59.4515271891257484
 30
0.0
  0
VERTEX
  5
1A5D6
  8
0
 10
330.4054299857123738
 20
59.4418654836831593
 30
0.0
  0
VERTEX
  5
1A5D7
  8
0
 10
330.4444736478146751
 20
59.4338179789660899
 30
0.0
  0
VERTEX
  5
1A5D8
  8
0
 10
330.4744095406608153
 20
59.4236260395852298
 30
0.0
  0
VERTEX
  5
1A5D9
  8
0
 10
330.4934116352400792
 20
59.4112896655405507
 30
0.0
  0
VERTEX
  5
1A5DA
  8
0
 10
330.5000000000001137
 20
59.3968088568319885
 30
0.0
  0
SEQEND
  5
1A5DB
  8
0
  0
POLYLINE
  5
18108
  8
0
 66
     1
 10
0.0
 20
0.0
 30
0.0
 70
   128
  0
VERTEX
  5
1A5DC
  8
0
 10
329.5500000000000114
 20
59.4333159451375721
 30
0.0
  0
VERTEX
  5
1A5DD
  8
0
 10
329.9139993308178873
 20
59.4441438115875016
 30
0.0
  0
VERTEX
  5
1A5DE
  8
0
 10
330.1999999999999886
 20
59.452611155913111
 30
0.0
  0
SEQEND
  5
1A5DF
  8
0
  0
POLYLINE
  5
18109
  8
0
 66
     1
 10
0.0
 20
0.0
 30
0.0
 70
   128
  0
VERTEX
  5
1A5E0
  8
0
 10
329.25
 20
59.3527824955495404
 30
0.0
  0
VERTEX
  5
1A5E1
  8
0
 10
329.2574859857376168
 20
59.3704813106019103
 30
0.0
  0
VERTEX
  5
1A5E2
  8
0
 10
329.2770568987508
 20
59.3855330153599823
 30
0.0
  0
VERTEX
  5
1A5E3
  8
0
 10
329.3360723360980273
 20
59.4076950939929986
 30
0.0
  0
VERTEX
  5
1A5E4
  8
0
 10
329.3826188464200868
 20
59.4176037870035998
 30
0.0
  0
VERTEX
  5
1A5E5
  8
0
 10
329.4353200475620724
 20
59.4251768265312421
 30
0.0
  0
VERTEX
  5
1A5E6
  8
0
 10
329.5500000000000114
 20
59.4333159451375721
 30
0.0
  0
SEQEND
  5
1A5E7
  8
0
  0
POLYLINE
  5
1810E
  8
0
 66
     1
 10
0.0
 20
0.0
 30
0.0
 70
   128
  0
VERTEX
  5
1A5E8
  8
0
 10
329.5500000000000114
 20
50.5666840548625487
 30
0.0
  0
VERTEX
  5
1A5E9
  8
0
 10
329.4354264025046177
 20
50.5748111573457777
 30
0.0
  0
VERTEX
  5
1A5EA
  8
0
 10
329.3827608825415041
 20
50.582371796339622
 30
0.0
  0
VERTEX
  5
1A5EB
  8
0
 10
329.3362309393119176
 20
50.5922638271683525
 30
0.0
  0
VERTEX
  5
1A5EC
  8
0
 10
329.2771117606101825
 20
50.6144362097138014
 30
0.0
  0
VERTEX
  5
1A5ED
  8
0
 10
329.2575017173292053
 20
50.6295007430582302
 30
0.0
  0
VERTEX
  5
1A5EE
  8
0
 10
329.25
 20
50.6472175044505093
 30
0.0
  0
SEQEND
  5
1A5EF
  8
0
  0
POLYLINE
  5
1810F
  8
0
 66
     1
 10
0.0
 20
0.0
 30
0.0
 70
   128
  0
VERTEX
  5
1A5F0
  8
0
 10
330.1999999999999886
 20
50.5473888440870383
 30
0.0
  0
VERTEX
  5
1A5F1
  8
0
 10
329.8359993291803107
 20
50.558171571412089
 30
0.0
  0
VERTEX
  5
1A5F2
  8
0
 10
329.5500000000000114
 20
50.5666840548625487
 30
0.0
  0
SEQEND
  5
1A5F3
  8
0
  0
ARC
  5
18110
  8
0
 10
330.2749746223889247
 20
50.9786356201337867
 30
0.0
 40
0.437715633548848
 50
260.137393485223015
 51
300.9366712178016883
  0
LINE
  5
18129
  8
0
 10
328.0
 20
52.0055212212906497
 30
0.0
 11
327.9999999999998863
 21
50.793479041720019
 31
0.0
  0
LINE
  5
1812A
  8
0
 10
328.0
 20
57.9944787787094569
 30
0.0
 11
328.0000000000001137
 21
59.2065209582800733
 31
0.0
  0
LINE
  5
1812B
  8
0
 10
108.4000000000000057
 20
70.7999999999999829
 30
0.0
 11
108.4000000000000057
 21
69.0
 31
0.0
  0
LINE
  5
1812C
  8
0
 10
102.0999999999999943
 20
70.7999999999999829
 30
0.0
 11
102.0999999999999943
 21
69.0
 31
0.0
  0
LINE
  5
1812F
  8
0
 10
347.6000000000000227
 20
70.7999999999999829
 30
0.0
 11
347.6000000000000227
 21
69.0
 31
0.0
  0
LINE
  5
18130
  8
0
 10
353.9000000000000909
 20
70.7999999999999829
 30
0.0
 11
353.9000000000000909
 21
69.0
 31
0.0
  0
LINE
  5
18139
  8
0
 10
125.4999999999989058
 20
52.4920127592031704
 30
0.0
 11
126.7499999999996021
 21
52.4920127592031704
 31
0.0
  0
LINE
  5
1813B
  8
0
 10
126.7499999999973994
 20
57.5079872407969503
 30
0.0
 11
125.4999999999925961
 21
57.5079872407969503
 31
0.0
  0
LINE
  5
1813F
  8
0
 10
120.5
 20
52.4920127592031704
 30
0.0
 11
121.75
 21
52.4920127592031704
 31
0.0
  0
LINE
  5
18141
  8
0
 10
121.75
 20
57.5079872407969503
 30
0.0
 11
120.5
 21
57.5079872407969503
 31
0.0
  0
LINE
  5
18145
  8
0
 10
115.5
 20
52.4920127592031704
 30
0.0
 11
116.7499999999962057
 21
52.4920127592031704
 31
0.0
  0
LINE
  5
18147
  8
0
 10
116.7499999999816964
 20
57.5079872407969432
 30
0.0
 11
115.5
 21
57.5079872407969575
 31
0.0
  0
LINE
  5
1814B
  8
0
 10
330.5
 20
52.4920127592032486
 30
0.0
 11
329.25
 21
52.4920127592032486
 31
0.0
  0
LINE
  5
1814D
  8
0
 10
329.2499999999998863
 20
57.507987240796858
 30
0.0
 11
330.5000000000001137
 21
57.5079872407968722
 31
0.0
  0
LINE
  5
18151
  8
0
 10
335.5
 20
52.4920127592032486
 30
0.0
 11
334.2499999999998863
 21
52.4920127592032486
 31
0.0
  0
LINE
  5
18153
  8
0
 10
334.25
 20
57.5079872407968722
 30
0.0
 11
335.5
 21
57.507987240796858
 31
0.0
  0
LINE
  5
18157
  8
0
 10
340.5
 20
52.4920127592032486
 30
0.0
 11
339.25
 21
52.4920127592032415
 31
0.0
  0
LINE
  5
18159
  8
0
 10
339.25
 20
57.507987240796858
 30
0.0
 11
340.5000000000001137
 21
57.507987240796858
 31
0.0
  0
LINE
  5
1815B
  8
0
 10
123.0
 20
52.3794084637243031
 30
0.0
 11
124.25
 21
52.3794084637243031
 31
0.0
  0
LINE
  5
1815C
  8
0
 10
113.0
 20
52.3794084637243031
 30
0.0
 11
114.25
 21
52.3794084637243031
 31
0.0
  0
LINE
  5
1815D
  8
0
 10
114.25
 20
57.6205915362757466
 30
0.0
 11
113.0
 21
57.6205915362757466
 31
0.0
  0
LINE
  5
1815E
  8
0
 10
117.9999999999999005
 20
52.3794084637243031
 30
0.0
 11
119.25
 21
52.3794084637243031
 31
0.0
  0
LINE
  5
1815F
  8
0
 10
119.25
 20
57.6205915362757466
 30
0.0
 11
117.9999999999999005
 21
57.6205915362757466
 31
0.0
  0
LINE
  5
18160
  8
0
 10
124.25
 20
57.6205915362757466
 30
0.0
 11
123.0
 21
57.6205915362757466
 31
0.0
  0
LINE
  5
18161
  8
0
 10
343.0
 20
52.3794084637243031
 30
0.0
 11
341.75
 21
52.3794084637243031
 31
0.0
  0
LINE
  5
18162
  8
0
 10
338.0
 20
52.3794084637243031
 30
0.0
 11
336.75
 21
52.3794084637243031
 31
0.0
  0
LINE
  5
18163
  8
0
 10
331.75
 20
57.6205915362757466
 30
0.0
 11
333.0
 21
57.6205915362757466
 31
0.0
  0
LINE
  5
18164
  8
0
 10
341.75
 20
57.6205915362757466
 30
0.0
 11
343.0
 21
57.6205915362757466
 31
0.0
  0
LINE
  5
18165
  8
0
 10
333.0
 20
52.3794084637243031
 30
0.0
 11
331.75
 21
52.3794084637243031
 31
0.0
  0
LINE
  5
18166
  8
0
 10
336.75
 20
57.6205915362757466
 30
0.0
 11
338.0
 21
57.6205915362757466
 31
0.0
  0
LINE
  5
1817F
  8
0
 10
123.0
 20
51.1136363636365232
 30
0.0
 11
124.25
 21
51.1590909090910486
 31
0.0
  0
LINE
  5
18180
  8
0
 10
124.25
 20
58.8409090909090366
 30
0.0
 11
123.0
 21
58.8863636363636189
 31
0.0
  0
LINE
  5
18181
  8
0
 10
118.0000000000052012
 20
50.9381845653369609
 30
0.0
 11
119.25
 21
50.9772727272727977
 31
0.0
  0
LINE
  5
18182
  8
0
 10
119.25
 20
58.9619936277107115
 30
0.0
 11
117.9999999999999005
 21
59.068181818181813
 31
0.0
  0
LINE
  5
18183
  8
0
 10
114.25
 20
59.204545454545503
 30
0.0
 11
113.0
 21
59.2500000000000284
 31
0.0
  0
LINE
  5
18184
  8
0
 10
113.0
 20
50.75
 30
0.0
 11
114.25
 21
50.7954545454546178
 31
0.0
  0
LINE
  5
18185
  8
0
 10
331.75
 20
58.8409090909090366
 30
0.0
 11
333.0
 21
58.8863636363636189
 31
0.0
  0
LINE
  5
18186
  8
0
 10
333.0
 20
51.1136363636365232
 30
0.0
 11
331.75
 21
51.1590909090910486
 31
0.0
  0
LINE
  5
18187
  8
0
 10
338.0
 20
50.9381845653365417
 30
0.0
 11
336.75
 21
50.9772727272727977
 31
0.0
  0
LINE
  5
18188
  8
0
 10
336.75
 20
58.9619936277105126
 30
0.0
 11
338.0
 21
59.068181818181813
 31
0.0
  0
LINE
  5
18189
  8
0
 10
341.75
 20
59.204545454545503
 30
0.0
 11
343.0
 21
59.2500000000000284
 31
0.0
  0
LINE
  5
1818A
  8
0
 10
343.0
 20
50.75
 30
0.0
 11
341.75
 21
50.7954545454546178
 31
0.0
  0
LINE
  5
1818F
  8
0
 10
108.7950869831652057
 20
125.4479211413434996
 30
0.0
 11
115.4996750520321029
 21
125.5952747252747059
 31
0.0
  0
LINE
  5
18190
  8
0
 10
106.995603552658693
 20
125.4083720549588037
 30
0.0
 11
108.1095169569094026
 21
125.4328536682390052
 31
0.0
  0
LINE
  5
18193
  8
0
 10
108.1095075296650947
 20
135.3071465389531056
 30
0.0
 11
106.995603552658693
 21
135.3316279450411059
 31
0.0
  0
LINE
  5
18194
  8
0
 10
115.4996750520321029
 20
135.1447252747252037
 30
0.0
 11
108.7950869831655041
 21
135.2920788586563958
 31
0.0
  0
LINE
  5
18198
  8
0
 10
116.7496750520321029
 20
125.6326602842839009
 30
0.0
 11
120.4996750520321029
 21
125.7051648351647941
 31
0.0
  0
LINE
  5
1819A
  8
0
 10
120.4996750520321029
 20
135.0348351648351013
 30
0.0
 11
116.7496750520321029
 21
135.1172527472527065
 31
0.0
  0
LINE
  5
1819B
  8
0
 10
125.4996750520321029
 20
134.9249450549449989
 30
0.0
 11
121.7496750520321029
 21
135.0073626373626041
 31
0.0
  0
LINE
  5
1819D
  8
0
 10
121.7496750520321029
 20
125.7326373626373055
 30
0.0
 11
125.4996750520321029
 21
125.8150549450548965
 31
0.0
  0
LINE
  5
181A0
  8
0
 10
126.7496750520292039
 20
125.8425274725273937
 30
0.0
 11
127.7391586650901019
 21
125.8642743651220997
 31
0.0
  0
LINE
  5
181A1
  8
0
 10
127.706267145946299
 20
134.8764351122478047
 30
0.0
 11
126.7496750520321029
 21
134.8974725274725017
 31
0.0
  0
ARC
  5
181A4
  8
0
 10
127.6996750510924983
 20
126.1634790405553019
 30
0.0
 40
0.3000000009396376
 50
271.259045382574925
 51
0.0000002224405646
  0
ARC
  5
181A5
  8
0
 10
127.6996750510924983
 20
134.5765209594447072
 30
0.0
 40
0.3000000009396331
 50
359.9999997775660177
 51
88.740954617425885
  0
LINE
  5
181B7
  8
0
 10
108.1291267820646027
 20
130.0200000000000102
 30
0.0
 11
107.8003249479676953
 21
130.0200000000000102
 31
0.0
  0
LINE
  5
181BA
  8
0
 10
107.8003249479676953
 20
130.7199999999999989
 30
0.0
 11
108.1291267820646027
 21
130.7199999999999989
 31
0.0
  0
LINE
  5
1829D
  8
0
 10
112.9996750520321029
 20
135.1570167671630998
 30
0.0
 11
112.9996750520321029
 21
125.5829832328361988
 31
0.0
  0
LINE
  5
182BA
  8
0
 10
116.7496750520321029
 20
125.6326602842839009
 30
0.0
 11
116.7496750520321029
 21
129.0700000000009879
 31
0.0
  0
ARC
  5
182BB
  8
0
 10
116.4496750520322053
 20
129.0699999999999932
 30
0.0
 40
0.2999999999999545
 50
0.0000000001791288
 51
90.0000000000106013
  0
LINE
  5
182BC
  8
0
 10
116.4496750520321058
 20
129.3700000000000045
 30
0.0
 11
115.7996750520321001
 21
129.3700000000000045
 31
0.0
  0
ARC
  5
182BD
  8
0
 10
115.7996750520321001
 20
129.0699999999999079
 30
0.0
 40
0.3000000000000682
 50
90.0
 51
179.9999999999836859
  0
LINE
  5
182BE
  8
0
 10
115.4996750520321029
 20
129.0699999999999932
 30
0.0
 11
115.4996750520321029
 21
125.5952747252747059
 31
0.0
  0
LINE
  5
182C1
  8
0
 10
115.4996750520321029
 20
131.6700000000001864
 30
0.0
 11
115.4996750520321029
 21
135.1447252747252037
 31
0.0
  0
ARC
  5
182C2
  8
0
 10
115.7996750520321001
 20
131.6700000000004138
 30
0.0
 40
0.3000000000000398
 50
180.0000000000391083
 51
270.0000000000007958
  0
LINE
  5
182C3
  8
0
 10
116.4496750520321058
 20
131.3700000000002035
 30
0.0
 11
115.7996750520321001
 21
131.3700000000002035
 31
0.0
  0
ARC
  5
182C4
  8
0
 10
116.4496750520321058
 20
131.6700000000001864
 30
0.0
 40
0.3000000000000114
 50
270.0000000000007958
 51
0.0000000000113991
  0
LINE
  5
182C5
  8
0
 10
116.7496750520321029
 20
135.1172527472527918
 30
0.0
 11
116.7496750520321029
 21
131.6700000000001864
 31
0.0
  0
LINE
  5
182C7
  8
0
 10
117.9996750520321029
 20
135.0097809136129001
 30
0.0
 11
117.9996750520321029
 21
125.7302190863871942
 31
0.0
  0
LINE
  5
182C8
  8
0
 10
114.2496750520321029
 20
125.6189368970455007
 30
0.0
 11
114.2496750520321029
 21
135.1210631029543947
 31
0.0
  0
LINE
  5
182DA
  8
0
 10
121.7496750520321029
 20
125.7326373626373055
 30
0.0
 11
121.7496750520321029
 21
129.0699999999999932
 31
0.0
  0
ARC
  5
182DB
  8
0
 10
121.4496750520321058
 20
129.0699999999999932
 30
0.0
 40
0.3000000000000114
 50
359.9999999999951115
 51
90.0
  0
LINE
  5
182DC
  8
0
 10
121.4496750520321058
 20
129.3700000000000045
 30
0.0
 11
120.7996750520321001
 21
129.3700000000000045
 31
0.0
  0
ARC
  5
182DD
  8
0
 10
120.7996750520321001
 20
129.0699999999999079
 30
0.0
 40
0.3000000000000114
 50
89.9999999999942872
 51
180.0000000003973071
  0
LINE
  5
182DE
  8
0
 10
120.4996750520321029
 20
129.06999999999789
 30
0.0
 11
120.4996750520321029
 21
125.7051648351647941
 31
0.0
  0
LINE
  5
182E1
  8
0
 10
120.4996750520321029
 20
131.6699999999993906
 30
0.0
 11
120.4996750520321029
 21
135.0348351648351013
 31
0.0
  0
ARC
  5
182E2
  8
0
 10
120.7996750520321996
 20
131.6700000000004991
 30
0.0
 40
0.300000000000125
 50
180.0000000002067964
 51
269.9999999999902229
  0
LINE
  5
182E3
  8
0
 10
121.4496750520321058
 20
131.3700000000002035
 30
0.0
 11
120.7996750520321001
 21
131.3700000000002035
 31
0.0
  0
ARC
  5
182E4
  8
0
 10
121.4496750520322053
 20
131.6700000000001012
 30
0.0
 40
0.2999999999999545
 50
269.9999999999902229
 51
359.9999999999250804
  0
LINE
  5
182E5
  8
0
 10
121.7496750520321029
 20
135.0073626373626041
 30
0.0
 11
121.7496750520321029
 21
131.6699999999997033
 31
0.0
  0
LINE
  5
182E7
  8
0
 10
122.9996750520321029
 20
134.8514671025475877
 30
0.0
 11
122.9996750520321029
 21
125.8885328974523929
 31
0.0
  0
LINE
  5
182E8
  8
0
 10
119.2496750520321029
 20
125.7686137709467999
 30
0.0
 11
119.2496750520321029
 21
134.9713862290523991
 31
0.0
  0
LINE
  5
182E9
  8
0
 10
126.7496750520321029
 20
125.8425274725274932
 30
0.0
 11
126.7496750520321029
 21
129.0699999999999932
 31
0.0
  0
ARC
  5
182EA
  8
0
 10
126.4496750520322053
 20
129.0699999999999932
 30
0.0
 40
0.2999999999999829
 50
359.9999999999951115
 51
90.0000000000056986
  0
LINE
  5
182EB
  8
0
 10
126.4496750520321058
 20
129.3700000000000045
 30
0.0
 11
125.7996750520321001
 21
129.3700000000000045
 31
0.0
  0
ARC
  5
182EC
  8
0
 10
125.7996750520320006
 20
129.0700000000001069
 30
0.0
 40
0.2999999999998977
 50
89.9999999999780158
 51
180.0000000000163141
  0
LINE
  5
182ED
  8
0
 10
125.4996750520321029
 20
129.0699999999999932
 30
0.0
 11
125.4996750520321029
 21
125.8150549450548965
 31
0.0
  0
LINE
  5
182F0
  8
0
 10
125.4996750520321029
 20
131.6700000000001864
 30
0.0
 11
125.4996750520321029
 21
134.9249450549449989
 31
0.0
  0
ARC
  5
182F1
  8
0
 10
125.7996750520320006
 20
131.6700000000003001
 30
0.0
 40
0.2999999999998977
 50
180.0000000000113971
 51
270.0000000000276827
  0
LINE
  5
182F2
  8
0
 10
126.4496750520321058
 20
131.3700000000002035
 30
0.0
 11
125.7996750520321001
 21
131.3700000000000045
 31
0.0
  0
ARC
  5
182F3
  8
0
 10
126.4496750520321058
 20
131.6700000000001864
 30
0.0
 40
0.3000000000000398
 50
270.0000000000064801
 51
0.0000000000065138
  0
LINE
  5
182F4
  8
0
 10
126.7496750520321029
 20
134.8974725274725017
 30
0.0
 11
126.7496750520322024
 21
131.6700000000001864
 31
0.0
  0
LINE
  5
182F8
  8
0
 10
124.2496750520322024
 20
125.9303317504905948
 30
0.0
 11
124.2496750520322024
 21
134.8096682495092011
 31
0.0
  0
LINE
  5
1830D
  8
0
 10
127.9996750520321029
 20
134.5765209594447072
 30
0.0
 11
127.9996750520321029
 21
126.1634790405553019
 31
0.0
  0
ARC
  5
18310
  8
0
 10
113.1904345846591013
 20
126.8720216937690992
 30
0.0
 40
1.303076879179599
 50
261.5821269885437914
 51
274.8089045489865043
  0
POLYLINE
  5
18311
  8
0
 66
     1
 10
0.0
 20
0.0
 30
0.0
 70
   128
  0
VERTEX
  5
1A5F4
  8
0
 10
113.2996750520321996
 20
125.5735318503970035
 30
0.0
  0
VERTEX
  5
1A5F5
  8
0
 10
113.6636753152508987
 20
125.5829894957254993
 30
0.0
  0
VERTEX
  5
1A5F6
  8
0
 10
113.9496750520321058
 20
125.590438570888594
 30
0.0
  0
SEQEND
  5
1A5F7
  8
0
  0
ARC
  5
18312
  8
0
 10
114.0049151015931983
 20
126.6022194828560998
 30
0.0
 40
1.0132877562159519
 50
266.8749336020687224
 51
283.9780577523960119
  0
POLYLINE
  5
18313
  8
0
 66
     1
 10
0.0
 20
0.0
 30
0.0
 70
   128
  0
VERTEX
  5
1A5F8
  8
0
 10
108.4496750520321058
 20
125.4407151729104015
 30
0.0
  0
VERTEX
  5
1A5F9
  8
0
 10
108.537047338086893
 20
125.4425658111538979
 30
0.0
  0
VERTEX
  5
1A5FA
  8
0
 10
108.6190481763676985
 20
125.4441950470672964
 30
0.0
  0
VERTEX
  5
1A5FB
  8
0
 10
108.6920919752889034
 20
125.4456028806505969
 30
0.0
  0
VERTEX
  5
1A5FC
  8
0
 10
108.7532654633167937
 20
125.4467893119037996
 30
0.0
  0
VERTEX
  5
1A5FD
  8
0
 10
108.7950869831652057
 20
125.4479211413434996
 30
0.0
  0
SEQEND
  5
1A5FE
  8
0
  0
ARC
  5
18314
  8
0
 10
112.8961866516077066
 20
-74.3176832200117872
 30
0.0
 40
199.8078807102226904
 50
91.2751618219826781
 51
91.3727296948726462
  0
ARC
  5
18321
  8
0
 10
114.0048559960548005
 20
134.1371583170399049
 30
0.0
 40
1.013905813138013
 50
76.0271941304988701
 51
93.1198145150379304
  0
POLYLINE
  5
18322
  8
0
 66
     1
 10
0.0
 20
0.0
 30
0.0
 70
   128
  0
VERTEX
  5
1A5FF
  8
0
 10
113.9496750520321058
 20
135.1495614291112872
 30
0.0
  0
VERTEX
  5
1A600
  8
0
 10
113.5856753147786975
 20
135.159039295527009
 30
0.0
  0
VERTEX
  5
1A601
  8
0
 10
113.2996750520321996
 20
135.1664681496029061
 30
0.0
  0
SEQEND
  5
1A602
  8
0
  0
ARC
  5
18323
  8
0
 10
113.1904345846591013
 20
133.8679783063205946
 30
0.0
 40
1.303076879090187
 50
85.1910954506834059
 51
98.4178730120373046
  0
ARC
  5
18325
  8
0
 10
112.8954166179164957
 20
335.0248402397447194
 30
0.0
 40
199.7750287272264984
 50
268.6272627292391917
 51
268.7248493510730896
  0
POLYLINE
  5
18326
  8
0
 66
     1
 10
0.0
 20
0.0
 30
0.0
 70
   128
  0
VERTEX
  5
1A603
  8
0
 10
108.4496750520350048
 20
135.2992848270895081
 30
0.0
  0
VERTEX
  5
1A604
  8
0
 10
108.5370473380870067
 20
135.2974341888460117
 30
0.0
  0
VERTEX
  5
1A605
  8
0
 10
108.619048176367798
 20
135.295804952932599
 30
0.0
  0
VERTEX
  5
1A606
  8
0
 10
108.6920919752891024
 20
135.2943971193494122
 30
0.0
  0
VERTEX
  5
1A607
  8
0
 10
108.7532654633170068
 20
135.2932106880961101
 30
0.0
  0
VERTEX
  5
1A608
  8
0
 10
108.7950930393775053
 20
135.2923544163012082
 30
0.0
  0
SEQEND
  5
1A609
  8
0
  0
LINE
  5
1833B
  8
0
 10
114.2496750520321029
 20
129.7199999999999989
 30
0.0
 11
112.9996750520321029
 21
129.7199999999999989
 31
0.0
  0
LINE
  5
1833C
  8
0
 10
114.2496750520321029
 20
131.0200000000000102
 30
0.0
 11
112.9996750520321029
 21
131.0200000000000102
 31
0.0
  0
LINE
  5
1834D
  8
0
 10
119.2496750520321029
 20
131.0200000000000102
 30
0.0
 11
117.9996750520321029
 21
131.0200000000000102
 31
0.0
  0
LINE
  5
1834E
  8
0
 10
119.2496750520321029
 20
129.7199999999999989
 30
0.0
 11
117.9996750520321029
 21
129.7199999999999989
 31
0.0
  0
LINE
  5
1835B
  8
0
 10
124.2496750520322024
 20
129.7199999999999989
 30
0.0
 11
122.9996750520321029
 21
129.7199999999999989
 31
0.0
  0
LINE
  5
1835C
  8
0
 10
124.2496750520322024
 20
131.0200000000000102
 30
0.0
 11
122.9996750520321029
 21
131.0200000000000102
 31
0.0
  0
ARC
  5
18366
  8
0
 10
118.1916342261020958
 20
126.2357860629213064
 30
0.0
 40
0.5407830362275658
 50
249.2086866634211901
 51
281.5244393664984841
  0
POLYLINE
  5
18367
  8
0
 66
     1
 10
0.0
 20
0.0
 30
0.0
 70
   128
  0
VERTEX
  5
1A60A
  8
0
 10
118.2996750520321996
 20
125.7059054422115025
 30
0.0
  0
VERTEX
  5
1A60B
  8
0
 10
118.6636754230387965
 20
125.7157714161456994
 30
0.0
  0
VERTEX
  5
1A60C
  8
0
 10
118.9496750520321058
 20
125.7235476569123023
 30
0.0
  0
SEQEND
  5
1A60D
  8
0
  0
ARC
  5
18368
  8
0
 10
119.015889632039503
 20
126.3038307337898942
 30
0.0
 40
0.584048645162426
 50
263.4902846681141
 51
293.5959437489984225
  0
ARC
  5
18374
  8
0
 10
119.0158360134396958
 20
134.4358123332928869
 30
0.0
 40
0.5843972054937242
 50
66.4132466582001939
 51
96.5005249244117209
  0
POLYLINE
  5
18375
  8
0
 66
     1
 10
0.0
 20
0.0
 30
0.0
 70
   128
  0
VERTEX
  5
1A60E
  8
0
 10
118.9496750520321058
 20
135.0164523430877068
 30
0.0
  0
VERTEX
  5
1A60F
  8
0
 10
118.5856754222966032
 20
135.0263456274257976
 30
0.0
  0
VERTEX
  5
1A610
  8
0
 10
118.2996750520321996
 20
135.0340945577885066
 30
0.0
  0
SEQEND
  5
1A611
  8
0
  0
ARC
  5
18376
  8
0
 10
118.2019361966687967
 20
134.3771004880312887
 30
0.0
 40
0.6642244285961575
 50
81.5383534796150258
 51
107.7285204904199958
  0
ARC
  5
18387
  8
0
 10
124.0191089250318015
 20
134.4818732944816873
 30
0.0
 40
0.4007621133059246
 50
54.8780129645097574
 51
99.9771016282380742
  0
POLYLINE
  5
18388
  8
0
 66
     1
 10
0.0
 20
0.0
 30
0.0
 70
   128
  0
VERTEX
  5
1A612
  8
0
 10
123.9496750520321058
 20
134.8765747116842988
 30
0.0
  0
VERTEX
  5
1A613
  8
0
 10
123.5856755946737024
 20
134.887037045552205
 30
0.0
  0
VERTEX
  5
1A614
  8
0
 10
123.2996750520321001
 20
134.8952236692971951
 30
0.0
  0
SEQEND
  5
1A615
  8
0
  0
ARC
  5
18389
  8
0
 10
123.2033678331869027
 20
134.5052215694763049
 30
0.0
 40
0.4017172118125087
 50
76.128872923536008
 51
120.4678730877048025
  0
ARC
  5
18398
  8
0
 10
123.2033678331868032
 20
126.2347784305222973
 30
0.0
 40
0.4017172118112197
 50
239.5321269122017895
 51
283.8711270765227255
  0
POLYLINE
  5
18399
  8
0
 66
     1
 10
0.0
 20
0.0
 30
0.0
 70
   128
  0
VERTEX
  5
1A616
  8
0
 10
123.2996750520321001
 20
125.8447763307027003
 30
0.0
  0
VERTEX
  5
1A617
  8
0
 10
123.6636755959092966
 20
125.8552007956678978
 30
0.0
  0
VERTEX
  5
1A618
  8
0
 10
123.9496750520321058
 20
125.8634252883156961
 30
0.0
  0
SEQEND
  5
1A619
  8
0
  0
ARC
  5
1839A
  8
0
 10
124.0191596743332951
 20
126.2578991521561989
 30
0.0
 40
0.4005468037440889
 50
260.0101093185641048
 51
305.1347760886267224
  0
LINE
  5
183C9
  8
0
 10
127.9996750520321029
 20
133.082847205658112
 30
0.0
 11
327.9996750520322166
 21
133.0828472056601015
 31
0.0
  0
LINE
  5
183CA
  8
0
 10
127.9996750520321029
 20
127.6680311132231935
 30
0.0
 11
327.9996750520322166
 21
127.6828472056601953
 31
0.0
  0
LINE
  5
183CE
  8
0
 10
114.2496750520321029
 20
132.8779872407968128
 30
0.0
 11
112.9996750520322024
 21
132.8779872407968128
 31
0.0
  0
LINE
  5
183D4
  8
0
 10
119.2496750520321029
 20
132.8779872407968128
 30
0.0
 11
117.9996750520321029
 21
132.8779872407968128
 31
0.0
  0
LINE
  5
183DD
  8
0
 10
124.2496750520322024
 20
132.8779872407968128
 30
0.0
 11
122.9996750520321029
 21
132.8779872407968128
 31
0.0
  0
LINE
  5
183E1
  8
0
 10
112.9996750520321029
 20
127.8620127592030968
 30
0.0
 11
114.2496750520321029
 21
127.8620127592030968
 31
0.0
  0
LINE
  5
183E7
  8
0
 10
117.9996750520321029
 20
127.8620127592030968
 30
0.0
 11
119.2496750520321029
 21
127.8620127592030968
 31
0.0
  0
LINE
  5
183F0
  8
0
 10
122.9996750520321029
 20
127.8620127592030968
 30
0.0
 11
124.2496750520322024
 21
127.8620127592030968
 31
0.0
  0
LINE
  5
183F2
  8
0
 10
126.7496750520321029
 20
127.749408463724194
 30
0.0
 11
125.4996750520321029
 21
127.749408463724194
 31
0.0
  0
LINE
  5
183F3
  8
0
 10
116.7496750520321029
 20
127.749408463724194
 30
0.0
 11
115.4996750520321029
 21
127.749408463724194
 31
0.0
  0
LINE
  5
183F6
  8
0
 10
125.4996750520321029
 20
132.9905915362757014
 30
0.0
 11
126.7496750520321029
 21
132.9905915362757014
 31
0.0
  0
LINE
  5
183F7
  8
0
 10
120.4996750520321029
 20
132.9905915362757014
 30
0.0
 11
121.7496750520321029
 21
132.9905915362757014
 31
0.0
  0
LINE
  5
183F8
  8
0
 10
121.7496750520321029
 20
127.749408463724194
 30
0.0
 11
120.4996750520321029
 21
127.749408463724194
 31
0.0
  0
LINE
  5
183FA
  8
0
 10
115.4996750520321029
 20
132.9905915362757014
 30
0.0
 11
116.7496750520321029
 21
132.9905915362757014
 31
0.0
  0
LINE
  5
18417
  8
0
 10
125.4996750520321029
 20
134.1735714285715915
 30
0.0
 11
126.7496750520321029
 21
134.1289285714287018
 31
0.0
  0
LINE
  5
1841A
  8
0
 10
120.4996750520321029
 20
134.3521428571428942
 30
0.0
 11
121.7496750520321029
 21
134.3075000000000898
 31
0.0
  0
LINE
  5
1841B
  8
0
 10
121.7496750520321029
 20
126.4324999999998056
 30
0.0
 11
120.4996750520321029
 21
126.3878571428570012
 31
0.0
  0
LINE
  5
1841C
  8
0
 10
116.7496750520101045
 20
126.2103946696335015
 30
0.0
 11
115.4996750520321029
 21
126.2092857142855991
 31
0.0
  0
LINE
  5
1841E
  8
0
 10
126.7496750520321029
 20
126.6110714285711936
 30
0.0
 11
125.4996750520321029
 21
126.5664285714284034
 31
0.0
  0
LINE
  5
18B57
  8
0
 10
109.2500000000002984
 20
74.8000000000000682
 30
0.0
 11
109.249999999999801
 21
78.8710986157699381
 31
0.0
  0
LINE
  5
18B58
  8
0
 10
109.2499999999999005
 20
78.8710986157699381
 30
0.0
 11
108.7999999999999972
 21
79.8361267301091857
 31
0.0
  0
LINE
  5
18B59
  8
0
 10
101.2499999999999005
 20
78.8710986157703928
 30
0.0
 11
101.2499999999999005
 21
74.8000000000000682
 31
0.0
  0
LINE
  5
18B5A
  8
0
 10
101.6999999999999034
 20
79.836126730108731
 30
0.0
 11
101.2499999999999005
 21
78.8710986157705065
 31
0.0
  0
LINE
  5
18B5B
  8
0
 10
109.2500000000003979
 20
74.7999999999999545
 30
0.0
 11
101.2499999999999005
 21
74.8000000000000682
 31
0.0
  0
LINE
  5
18B5C
  8
0
 10
101.4499999999999034
 20
79.2999999999550482
 30
0.0
 11
109.0499999999838963
 21
79.2999999999550482
 31
0.0
  0
LINE
  5
18B5D
  8
0
 10
108.7999999999998977
 20
80.3700000000000045
 30
0.0
 11
108.7999999999999972
 21
79.8361267301094131
 31
0.0
  0
LINE
  5
18B5E
  8
0
 10
101.6999999999999034
 20
80.3700000000000045
 30
0.0
 11
101.6999999999999034
 21
79.8361267301086173
 31
0.0
  0
LINE
  5
18B5F
  8
0
 10
108.7999999999998977
 20
80.3700000000000045
 30
0.0
 11
101.6999999999999034
 21
80.3700000000000045
 31
0.0
  0
LINE
  5
18B60
  8
1
 10
105.2499999999999005
 20
82.3700000000000045
 30
0.0
 11
105.2499999999999005
 21
67.0
 31
0.0
  0
LINE
  5
18B61
  8
3
 10
101.5906493626677047
 20
74.8000000000001819
 30
0.0
 11
101.5906493626676053
 21
79.6016235315611311
 31
0.0
  0
LINE
  5
18B62
  8
3
 10
108.9141606828946038
 20
74.7999999999997129
 30
0.0
 11
108.9141606828946038
 21
79.5913083555636831
 31
0.0
  0
LINE
  5
18B63
  8
0
 10
101.6999999999999034
 20
79.8361267301086173
 30
0.0
 11
108.7999999999999972
 21
79.8361267301094131
 31
0.0
  0
LINE
  5
18BA9
  8
0
 10
354.5500000000000114
 20
73.7999999999999829
 30
0.0
 11
354.5500000000000114
 21
74.8000000000000114
 31
0.0
  0
LINE
  5
18BAA
  8
0
 10
346.9499999999999886
 20
74.8000000000000114
 30
0.0
 11
346.9499999999999886
 21
73.7999999999999829
 31
0.0
  0
LINE
  5
18BAC
  8
0
 10
354.7500000000003979
 20
74.8000000000000682
 30
0.0
 11
354.7499999999998863
 21
78.8710986157699381
 31
0.0
  0
LINE
  5
18BAD
  8
0
 10
354.7499999999998863
 20
78.8710986157699381
 30
0.0
 11
354.3000000000001251
 21
79.8361267301091857
 31
0.0
  0
LINE
  5
18BAE
  8
0
 10
346.7499999999998863
 20
78.8710986157703928
 30
0.0
 11
346.7499999999998863
 21
74.8000000000000682
 31
0.0
  0
LINE
  5
18BAF
  8
0
 10
347.1999999999999886
 20
79.836126730108731
 30
0.0
 11
346.7499999999998863
 21
78.8710986157705065
 31
0.0
  0
LINE
  5
18BB0
  8
0
 10
354.7500000000005116
 20
74.7999999999999545
 30
0.0
 11
346.7499999999998863
 21
74.8000000000000682
 31
0.0
  0
LINE
  5
18BB1
  8
0
 10
346.9499999999999886
 20
79.2999999999550482
 30
0.0
 11
354.5499999999839815
 21
79.2999999999550482
 31
0.0
  0
LINE
  5
18BB2
  8
0
 10
354.3000000000000114
 20
80.3700000000000045
 30
0.0
 11
354.3000000000001251
 21
79.8361267301094131
 31
0.0
  0
LINE
  5
18BB3
  8
0
 10
347.1999999999999886
 20
80.3700000000000045
 30
0.0
 11
347.1999999999999886
 21
79.8361267301086173
 31
0.0
  0
LINE
  5
18BB4
  8
0
 10
354.3000000000000114
 20
80.3700000000000045
 30
0.0
 11
347.1999999999999886
 21
80.3700000000000045
 31
0.0
  0
LINE
  5
18BB5
  8
1
 10
350.75
 20
82.3700000000000045
 30
0.0
 11
350.75
 21
67.0
 31
0.0
  0
LINE
  5
18BB6
  8
3
 10
347.0906493626678184
 20
74.8000000000001819
 30
0.0
 11
347.0906493626677047
 21
79.6016235315611311
 31
0.0
  0
LINE
  5
18BB7
  8
3
 10
354.4141606828947033
 20
74.7999999999997129
 30
0.0
 11
354.4141606828947033
 21
79.5913083555636831
 31
0.0
  0
LINE
  5
18BB8
  8
0
 10
347.1999999999999886
 20
79.8361267301086173
 30
0.0
 11
354.3000000000001251
 21
79.8361267301094131
 31
0.0
  0
LINE
  5
18C20
  8
1
 10
104.9659193549757958
 20
55.0000000000003695
 30
0.0
 11
351.0340806451014259
 21
54.9999999999972573
 31
0.0
  0
CIRCLE
  5
18C47
  8
0
 10
108.4500000000000028
 20
54.8000000000000114
 30
0.0
 40
0.4000000000000057
  0
CIRCLE
  5
18CD4
  8
0
 10
347.5500000000000114
 20
54.8000000000000114
 30
0.0
 40
0.4000000000000057
  0
LINE
  5
18E77
  8
0
 10
53.7999999999999901
 20
73.7999999999999829
 30
0.0
 11
53.7999999999999901
 21
74.8000000000000114
 31
0.0
  0
LINE
  5
18E78
  8
0
 10
46.2000000000000028
 20
74.8000000000000114
 30
0.0
 11
46.2000000000000028
 21
73.7999999999999829
 31
0.0
  0
LINE
  5
18E7A
  8
0
 10
54.0000000000003482
 20
74.8000000000000682
 30
0.0
 11
53.9999999999998366
 21
78.8710986157699381
 31
0.0
  0
LINE
  5
18E7B
  8
0
 10
53.9999999999999005
 20
78.8710986157699381
 30
0.0
 11
53.5500000000000327
 21
79.8361267301091857
 31
0.0
  0
LINE
  5
18E7C
  8
0
 10
45.9999999999998934
 20
78.8710986157703928
 30
0.0
 11
45.9999999999998934
 21
74.8000000000000682
 31
0.0
  0
LINE
  5
18E7D
  8
0
 10
46.4499999999999531
 20
79.836126730108731
 30
0.0
 11
45.9999999999998934
 21
78.8710986157705065
 31
0.0
  0
LINE
  5
18E7E
  8
0
 10
54.0000000000004121
 20
74.7999999999999545
 30
0.0
 11
45.9999999999998934
 21
74.8000000000000682
 31
0.0
  0
LINE
  5
18E7F
  8
0
 10
46.1999999999998892
 20
79.2999999999550482
 30
0.0
 11
53.7999999999839389
 21
79.2999999999550482
 31
0.0
  0
LINE
  5
18E80
  8
0
 10
53.5499999999999616
 20
80.3700000000000045
 30
0.0
 11
53.5500000000000327
 21
79.8361267301094131
 31
0.0
  0
LINE
  5
18E81
  8
0
 10
46.4499999999999531
 20
80.3700000000000045
 30
0.0
 11
46.4499999999999531
 21
79.8361267301086173
 31
0.0
  0
LINE
  5
18E82
  8
0
 10
53.5499999999999616
 20
80.3700000000000045
 30
0.0
 11
46.4499999999999531
 21
80.3700000000000045
 31
0.0
  0
LINE
  5
18E83
  8
1
 10
49.9999999999999574
 20
84.3700000000000045
 30
0.0
 11
49.9999999999999574
 21
46.0
 31
0.0
  0
LINE
  5
18E84
  8
3
 10
46.3406493626677189
 20
74.8000000000001819
 30
0.0
 11
46.3406493626676621
 21
79.6016235315611311
 31
0.0
  0
LINE
  5
18E85
  8
3
 10
53.6641606828946607
 20
74.7999999999997129
 30
0.0
 11
53.6641606828946607
 21
79.5913083555636831
 31
0.0
  0
LINE
  5
18E86
  8
0
 10
46.4499999999999531
 20
79.8361267301086173
 30
0.0
 11
53.5500000000000327
 21
79.8361267301094131
 31
0.0
  0
LINE
  5
18E8E
  8
0
 10
116.7496750520101045
 20
134.5296053303665076
 30
0.0
 11
115.4996750520321029
 21
134.5307142857143106
 31
0.0
  0
CIRCLE
  5
18E8F
  8
0
 10
105.6650669390598978
 20
128.5185104832646914
 30
0.0
 40
0.3000000000000398
  0
CIRCLE
  5
18E97
  8
0
 10
104.1146945273594042
 20
128.9186325395247934
 30
0.0
 40
0.3000000000000398
  0
CIRCLE
  5
18E98
  8
0
 10
103.4646770948482981
 20
130.3689416447124074
 30
0.0
 40
0.3000000000000398
  0
CIRCLE
  5
18E9A
  8
0
 10
106.9654380602134012
 20
129.4689409453839914
 30
0.0
 40
0.3000000000000398
  0
CIRCLE
  5
18E9B
  8
0
 10
106.9654370173946063
 20
131.2689717906175986
 30
0.0
 40
0.3000000000000398
  0
CIRCLE
  5
18E9C
  8
0
 10
105.6650768314518984
 20
132.2193712007326951
 30
0.0
 40
0.3000000000000398
  0
CIRCLE
  5
18E9D
  8
0
 10
104.1148160532445957
 20
131.8192081013503127
 30
0.0
 40
0.3000000000000398
  0
CIRCLE
  5
18E9E
  8
0
 10
105.2499999999999005
 20
130.3700000000000045
 30
0.0
 40
0.3000000000000398
  0
ARC
  5
18E9F
  8
0
 10
107.8003249479676953
 20
130.3700000000000045
 30
0.0
 40
0.3500000000000227
 50
90.0
 51
270.0
  0
CIRCLE
  5
18EA0
  8
0
 10
105.2499999999999005
 20
130.3700000000000045
 30
0.0
 40
2.8996750520322219
  0
CIRCLE
  5
18EBD
  8
0
 10
105.2496750520321029
 20
130.3700000000000045
 30
0.0
 40
4.0
  0
CIRCLE
  5
18ECC
  8
3
 10
105.2496750520321029
 20
130.3700000000000045
 30
0.0
 40
3.6593506373324369
  0
CIRCLE
  5
18EDA
  8
0
 10
105.2496750520321029
 20
130.3700000000000045
 30
0.0
 40
3.5500000000000109
  0
CIRCLE
  5
18EDB
  8
0
 10
105.2499999999999005
 20
130.3700000000000045
 30
0.0
 40
5.2503249479677967
  0
LINE
  5
18F52
  8
0
 10
347.2042631208990997
 20
125.4479211413434996
 30
0.0
 11
340.4996750520322166
 21
125.5952747252747059
 31
0.0
  0
LINE
  5
18F53
  8
0
 10
349.003746551405527
 20
125.4083720549588037
 30
0.0
 11
347.8898331471548886
 21
125.4328536682390052
 31
0.0
  0
LINE
  5
18F54
  8
0
 10
347.8898425743992107
 20
135.3071465389531056
 30
0.0
 11
349.003746551405527
 21
135.3316279450411059
 31
0.0
  0
LINE
  5
18F55
  8
0
 10
340.4996750520322166
 20
135.1447252747252037
 30
0.0
 11
347.2042631208988155
 21
135.2920788586563958
 31
0.0
  0
LINE
  5
18F56
  8
0
 10
339.2496750520322166
 20
125.6326602842839009
 30
0.0
 11
335.4996750520322166
 21
125.7051648351647941
 31
0.0
  0
LINE
  5
18F57
  8
0
 10
335.4996750520322166
 20
135.0348351648351013
 30
0.0
 11
339.2496750520322166
 21
135.1172527472527065
 31
0.0
  0
LINE
  5
18F58
  8
0
 10
330.4996750520321029
 20
134.9249450549449989
 30
0.0
 11
334.2496750520322166
 21
135.0073626373626041
 31
0.0
  0
LINE
  5
18F59
  8
0
 10
334.2496750520322166
 20
125.7326373626373055
 30
0.0
 11
330.4996750520321029
 21
125.8150549450548965
 31
0.0
  0
LINE
  5
18F5A
  8
0
 10
329.2496750520351156
 20
125.8425274725273937
 30
0.0
 11
328.2601914389741751
 21
125.8642743651220997
 31
0.0
  0
LINE
  5
18F5B
  8
0
 10
328.2930829581180205
 20
134.8764351122478047
 30
0.0
 11
329.2496750520322166
 21
134.8974725274725017
 31
0.0
  0
ARC
  5
18F5C
  8
0
 10
328.2996750529717929
 20
126.1634790405553019
 30
0.0
 40
0.3000000009396376
 50
179.9999997775593954
 51
268.7409546174259276
  0
ARC
  5
18F5D
  8
0
 10
328.2996750529717929
 20
134.5765209594447072
 30
0.0
 40
0.3000000009396331
 50
91.259045382574115
 51
180.0000002224340108
  0
LINE
  5
18F5E
  8
0
 10
347.8708732179351841
 20
130.0199999999998965
 30
0.0
 11
348.1996750520320916
 21
130.0199999999998965
 31
0.0
  0
LINE
  5
18F5F
  8
0
 10
348.1996750520320916
 20
130.7199999999999136
 30
0.0
 11
347.8708732179351841
 21
130.7199999999999136
 31
0.0
  0
LINE
  5
18F60
  8
0
 10
342.9996750520321029
 20
135.1570167671630998
 30
0.0
 11
342.9996750520321029
 21
125.5829832328361988
 31
0.0
  0
LINE
  5
18F61
  8
0
 10
339.2496750520322166
 20
125.6326602842839009
 30
0.0
 11
339.2496750520322166
 21
129.0700000000009879
 31
0.0
  0
ARC
  5
18F62
  8
0
 10
339.5496750520321143
 20
129.0699999999999932
 30
0.0
 40
0.2999999999999545
 50
89.9999999999902229
 51
179.9999999998208011
  0
LINE
  5
18F63
  8
0
 10
339.549675052032228
 20
129.3700000000000045
 30
0.0
 11
340.1996750520320916
 21
129.3700000000000045
 31
0.0
  0
ARC
  5
18F64
  8
0
 10
340.1996750520320916
 20
129.0699999999999079
 30
0.0
 40
0.3000000000000682
 50
0.0000000000162844
 51
90.0
  0
LINE
  5
18F65
  8
0
 10
340.4996750520322166
 20
129.0699999999999932
 30
0.0
 11
340.4996750520322166
 21
125.5952747252747059
 31
0.0
  0
LINE
  5
18F66
  8
0
 10
340.4996750520322166
 20
131.6700000000001864
 30
0.0
 11
340.4996750520322166
 21
135.1447252747252037
 31
0.0
  0
ARC
  5
18F67
  8
0
 10
340.1996750520320916
 20
131.6700000000004138
 30
0.0
 40
0.3000000000000398
 50
270.0
 51
359.9999999999608917
  0
LINE
  5
18F68
  8
0
 10
339.549675052032228
 20
131.3700000000002035
 30
0.0
 11
340.1996750520320916
 21
131.3700000000002035
 31
0.0
  0
ARC
  5
18F69
  8
0
 10
339.549675052032228
 20
131.6700000000001864
 30
0.0
 40
0.3000000000000114
 50
179.9999999999886029
 51
270.0
  0
LINE
  5
18F6A
  8
0
 10
339.2496750520322166
 20
135.1172527472527918
 30
0.0
 11
339.2496750520322166
 21
131.6700000000001864
 31
0.0
  0
LINE
  5
18F6B
  8
0
 10
337.9996750520322166
 20
135.0097809136129001
 30
0.0
 11
337.9996750520322166
 21
125.7302190863871942
 31
0.0
  0
LINE
  5
18F6C
  8
0
 10
341.7496750520322166
 20
125.6189368970455007
 30
0.0
 11
341.7496750520322166
 21
135.1210631029543947
 31
0.0
  0
LINE
  5
18F6D
  8
0
 10
334.2496750520322166
 20
125.7326373626373055
 30
0.0
 11
334.2496750520322166
 21
129.0699999999999932
 31
0.0
  0
ARC
  5
18F6E
  8
0
 10
334.549675052032228
 20
129.0699999999999932
 30
0.0
 40
0.3000000000000114
 50
90.0
 51
180.0000000000048885
  0
LINE
  5
18F6F
  8
0
 10
334.549675052032228
 20
129.3700000000000045
 30
0.0
 11
335.1996750520322053
 21
129.3700000000000045
 31
0.0
  0
ARC
  5
18F70
  8
0
 10
335.1996750520322053
 20
129.0699999999999079
 30
0.0
 40
0.3000000000000114
 50
359.9999999996027213
 51
90.0000000000065086
  0
LINE
  5
18F71
  8
0
 10
335.4996750520322166
 20
129.06999999999789
 30
0.0
 11
335.4996750520322166
 21
125.7051648351647941
 31
0.0
  0
LINE
  5
18F72
  8
0
 10
335.4996750520322166
 20
131.6699999999993906
 30
0.0
 11
335.4996750520322166
 21
135.0348351648351013
 31
0.0
  0
ARC
  5
18F73
  8
0
 10
335.1996750520319779
 20
131.6700000000004991
 30
0.0
 40
0.300000000000125
 50
270.0000000000097771
 51
359.9999999997932036
  0
LINE
  5
18F74
  8
0
 10
334.549675052032228
 20
131.3700000000002035
 30
0.0
 11
335.1996750520322053
 21
131.3700000000002035
 31
0.0
  0
ARC
  5
18F75
  8
0
 10
334.5496750520321143
 20
131.6700000000001012
 30
0.0
 40
0.2999999999999545
 50
180.0000000000748912
 51
270.0000000000097771
  0
LINE
  5
18F76
  8
0
 10
334.2496750520322166
 20
135.0073626373626041
 30
0.0
 11
334.2496750520322166
 21
131.6699999999997033
 31
0.0
  0
LINE
  5
18F77
  8
0
 10
332.9996750520322166
 20
134.8514671025475877
 30
0.0
 11
332.9996750520322166
 21
125.8885328974523929
 31
0.0
  0
LINE
  5
18F78
  8
0
 10
336.7496750520321029
 20
125.7686137709467999
 30
0.0
 11
336.7496750520321029
 21
134.9713862290523991
 31
0.0
  0
LINE
  5
18F79
  8
0
 10
329.2496750520322166
 20
125.8425274725274932
 30
0.0
 11
329.2496750520322166
 21
129.0699999999999932
 31
0.0
  0
ARC
  5
18F7A
  8
0
 10
329.5496750520321143
 20
129.0699999999999932
 30
0.0
 40
0.2999999999999829
 50
89.9999999999934914
 51
180.0000000000048885
  0
LINE
  5
18F7B
  8
0
 10
329.549675052032228
 20
129.3700000000000045
 30
0.0
 11
330.1996750520320916
 21
129.3700000000000045
 31
0.0
  0
ARC
  5
18F7C
  8
0
 10
330.1996750520323189
 20
129.0700000000001069
 30
0.0
 40
0.2999999999998977
 50
359.9999999999836859
 51
90.0000000000227942
  0
LINE
  5
18F7D
  8
0
 10
330.4996750520321029
 20
129.0699999999999932
 30
0.0
 11
330.4996750520322166
 21
125.8150549450548965
 31
0.0
  0
LINE
  5
18F7E
  8
0
 10
330.4996750520321029
 20
131.6700000000001864
 30
0.0
 11
330.4996750520322166
 21
134.9249450549449989
 31
0.0
  0
ARC
  5
18F7F
  8
0
 10
330.1996750520323189
 20
131.6700000000003001
 30
0.0
 40
0.2999999999998977
 50
269.9999999999739089
 51
359.9999999999885745
  0
LINE
  5
18F80
  8
0
 10
329.549675052032228
 20
131.3700000000002035
 30
0.0
 11
330.1996750520320916
 21
131.3700000000000045
 31
0.0
  0
ARC
  5
18F81
  8
0
 10
329.549675052032228
 20
131.6700000000001864
 30
0.0
 40
0.3000000000000398
 50
179.9999999999934914
 51
269.9999999999935199
  0
LINE
  5
18F82
  8
0
 10
329.2496750520322166
 20
134.8974725274725017
 30
0.0
 11
329.2496750520321029
 21
131.6700000000001864
 31
0.0
  0
LINE
  5
18F83
  8
0
 10
331.7496750520321029
 20
125.9303317504905948
 30
0.0
 11
331.7496750520321029
 21
134.8096682495092011
 31
0.0
  0
LINE
  5
18F84
  8
0
 10
327.9996750520322166
 20
134.5765209594447072
 30
0.0
 11
327.9996750520322166
 21
126.1634790405553019
 31
0.0
  0
ARC
  5
18F85
  8
0
 10
342.8089155194052182
 20
126.8720216937690992
 30
0.0
 40
1.303076879179599
 50
265.1910954510134957
 51
278.4178730114554128
  0
POLYLINE
  5
18F86
  8
0
 66
     1
 10
0.0
 20
0.0
 30
0.0
 70
   128
  0
VERTEX
  5
1A61A
  8
0
 10
342.6996750520320916
 20
125.5735318503970035
 30
0.0
  0
VERTEX
  5
1A61B
  8
0
 10
342.3356747888133782
 20
125.5829894957254993
 30
0.0
  0
VERTEX
  5
1A61C
  8
0
 10
342.049675052032228
 20
125.590438570888594
 30
0.0
  0
SEQEND
  5
1A61D
  8
0
  0
ARC
  5
18F87
  8
0
 10
341.9944350024711071
 20
126.6022194828560998
 30
0.0
 40
1.0132877562159519
 50
256.021942247603306
 51
273.1250663979312776
  0
POLYLINE
  5
18F88
  8
0
 66
     1
 10
0.0
 20
0.0
 30
0.0
 70
   128
  0
VERTEX
  5
1A61E
  8
0
 10
347.549675052032228
 20
125.4407151729104015
 30
0.0
  0
VERTEX
  5
1A61F
  8
0
 10
347.4623027659774266
 20
125.4425658111538979
 30
0.0
  0
VERTEX
  5
1A620
  8
0
 10
347.3803019276966211
 20
125.4441950470672964
 30
0.0
  0
VERTEX
  5
1A621
  8
0
 10
347.3072581287754019
 20
125.4456028806505969
 30
0.0
  0
VERTEX
  5
1A622
  8
0
 10
347.2460846407474833
 20
125.4467893119037996
 30
0.0
  0
VERTEX
  5
1A623
  8
0
 10
347.2042631208990997
 20
125.4479211413434996
 30
0.0
  0
SEQEND
  5
1A624
  8
0
  0
ARC
  5
18F89
  8
0
 10
343.103163452456613
 20
-74.3176832200117872
 30
0.0
 40
199.8078807102226904
 50
88.6272703051265438
 51
88.7248381780173077
  0
ARC
  5
18F8A
  8
0
 10
341.9944941080095191
 20
134.1371583170399049
 30
0.0
 40
1.013905813138013
 50
86.8801854849628938
 51
103.9728058694997941
  0
POLYLINE
  5
18F8B
  8
0
 66
     1
 10
0.0
 20
0.0
 30
0.0
 70
   128
  0
VERTEX
  5
1A625
  8
0
 10
342.049675052032228
 20
135.1495614291112872
 30
0.0
  0
VERTEX
  5
1A626
  8
0
 10
342.4136747892854942
 20
135.159039295527009
 30
0.0
  0
VERTEX
  5
1A627
  8
0
 10
342.6996750520320916
 20
135.1664681496029061
 30
0.0
  0
SEQEND
  5
1A628
  8
0
  0
ARC
  5
18F8C
  8
0
 10
342.8089155194052182
 20
133.8679783063205946
 30
0.0
 40
1.303076879090187
 50
81.5821269879618853
 51
94.8089045493165941
  0
ARC
  5
18F8D
  8
0
 10
343.1039334861476959
 20
335.0248402397447194
 30
0.0
 40
199.7750287272264984
 50
271.2751506489269104
 51
271.3727372707616041
  0
POLYLINE
  5
18F8E
  8
0
 66
     1
 10
0.0
 20
0.0
 30
0.0
 70
   128
  0
VERTEX
  5
1A629
  8
0
 10
347.5496750520292721
 20
135.2992848270895081
 30
0.0
  0
VERTEX
  5
1A62A
  8
0
 10
347.4623027659771992
 20
135.2974341888460117
 30
0.0
  0
VERTEX
  5
1A62B
  8
0
 10
347.3803019276965074
 20
135.295804952932599
 30
0.0
  0
VERTEX
  5
1A62C
  8
0
 10
347.3072581287751746
 20
135.2943971193494122
 30
0.0
  0
VERTEX
  5
1A62D
  8
0
 10
347.246084640747199
 20
135.2932106880961101
 30
0.0
  0
VERTEX
  5
1A62E
  8
0
 10
347.2042570646867716
 20
135.2923544163012082
 30
0.0
  0
SEQEND
  5
1A62F
  8
0
  0
LINE
  5
18F8F
  8
0
 10
341.7496750520322166
 20
129.7199999999999989
 30
0.0
 11
342.9996750520321029
 21
129.7199999999999989
 31
0.0
  0
LINE
  5
18F90
  8
0
 10
341.7496750520322166
 20
131.0200000000000102
 30
0.0
 11
342.9996750520321029
 21
131.0200000000000102
 31
0.0
  0
LINE
  5
18F91
  8
0
 10
336.7496750520321029
 20
131.0200000000000102
 30
0.0
 11
337.9996750520322166
 21
131.0200000000000102
 31
0.0
  0
LINE
  5
18F92
  8
0
 10
336.7496750520321029
 20
129.7199999999999989
 30
0.0
 11
337.9996750520322166
 21
129.7199999999999989
 31
0.0
  0
LINE
  5
18F93
  8
0
 10
331.7496750520321029
 20
129.7199999999999989
 30
0.0
 11
332.9996750520322166
 21
129.7199999999999989
 31
0.0
  0
LINE
  5
18F94
  8
0
 10
331.7496750520321029
 20
131.0200000000000102
 30
0.0
 11
332.9996750520322166
 21
131.0200000000000102
 31
0.0
  0
ARC
  5
18F95
  8
0
 10
337.8077158779622096
 20
126.2357860629213064
 30
0.0
 40
0.5407830362275658
 50
258.4755606335029938
 51
290.7913133365779004
  0
POLYLINE
  5
18F96
  8
0
 66
     1
 10
0.0
 20
0.0
 30
0.0
 70
   128
  0
VERTEX
  5
1A630
  8
0
 10
337.6996750520320916
 20
125.7059054422115025
 30
0.0
  0
VERTEX
  5
1A631
  8
0
 10
337.3356746810255231
 20
125.7157714161456994
 30
0.0
  0
VERTEX
  5
1A632
  8
0
 10
337.049675052032228
 20
125.7235476569123023
 30
0.0
  0
SEQEND
  5
1A633
  8
0
  0
ARC
  5
18F97
  8
0
 10
336.9834604720247171
 20
126.3038307337898942
 30
0.0
 40
0.584048645162426
 50
246.4040562510029986
 51
276.5097153318868095
  0
ARC
  5
18F98
  8
0
 10
336.9835140906246238
 20
134.4358123332928869
 30
0.0
 40
0.5843972054937242
 50
83.4994750755883217
 51
113.5867533418012982
  0
POLYLINE
  5
18F99
  8
0
 66
     1
 10
0.0
 20
0.0
 30
0.0
 70
   128
  0
VERTEX
  5
1A634
  8
0
 10
337.049675052032228
 20
135.0164523430877068
 30
0.0
  0
VERTEX
  5
1A635
  8
0
 10
337.4136746817677022
 20
135.0263456274257976
 30
0.0
  0
VERTEX
  5
1A636
  8
0
 10
337.6996750520320916
 20
135.0340945577885066
 30
0.0
  0
SEQEND
  5
1A637
  8
0
  0
ARC
  5
18F9A
  8
0
 10
337.7974139073954234
 20
134.3771004880312887
 30
0.0
 40
0.6642244285961575
 50
72.2714795095791231
 51
98.4616465203858553
  0
ARC
  5
18F9B
  8
0
 10
331.9802411790324754
 20
134.4818732944816873
 30
0.0
 40
0.4007621133059246
 50
80.0228983717619258
 51
125.1219870354915997
  0
POLYLINE
  5
18F9C
  8
0
 66
     1
 10
0.0
 20
0.0
 30
0.0
 70
   128
  0
VERTEX
  5
1A638
  8
0
 10
332.049675052032228
 20
134.8765747116842988
 30
0.0
  0
VERTEX
  5
1A639
  8
0
 10
332.4136745093904892
 20
134.887037045552205
 30
0.0
  0
VERTEX
  5
1A63A
  8
0
 10
332.6996750520322053
 20
134.8952236692971951
 30
0.0
  0
SEQEND
  5
1A63B
  8
0
  0
ARC
  5
18F9D
  8
0
 10
332.795982270877289
 20
134.5052215694763049
 30
0.0
 40
0.4017172118125087
 50
59.5321269122959791
 51
103.8711270764640062
  0
ARC
  5
18F9E
  8
0
 10
332.7959822708775164
 20
126.2347784305222973
 30
0.0
 40
0.4017172118112197
 50
256.1288729234788093
 51
300.4678730877980115
  0
POLYLINE
  5
18F9F
  8
0
 66
     1
 10
0.0
 20
0.0
 30
0.0
 70
   128
  0
VERTEX
  5
1A63C
  8
0
 10
332.6996750520322053
 20
125.8447763307027003
 30
0.0
  0
VERTEX
  5
1A63D
  8
0
 10
332.335674508155023
 20
125.8552007956678978
 30
0.0
  0
VERTEX
  5
1A63E
  8
0
 10
332.049675052032228
 20
125.8634252883156961
 30
0.0
  0
SEQEND
  5
1A63F
  8
0
  0
ARC
  5
18FA0
  8
0
 10
331.9801904297308965
 20
126.2578991521561989
 30
0.0
 40
0.4005468037440889
 50
234.865223911373306
 51
279.9898906814374868
  0
LINE
  5
18FA1
  8
0
 10
341.7496750520322166
 20
132.8779872407968128
 30
0.0
 11
342.9996750520321029
 21
132.8779872407968128
 31
0.0
  0
LINE
  5
18FA2
  8
0
 10
336.7496750520321029
 20
132.8779872407968128
 30
0.0
 11
337.9996750520322166
 21
132.8779872407968128
 31
0.0
  0
LINE
  5
18FA3
  8
0
 10
331.7496750520321029
 20
132.8779872407968128
 30
0.0
 11
332.9996750520322166
 21
132.8779872407968128
 31
0.0
  0
LINE
  5
18FA4
  8
0
 10
342.9996750520321029
 20
127.8620127592030968
 30
0.0
 11
341.7496750520322166
 21
127.8620127592030968
 31
0.0
  0
LINE
  5
18FA5
  8
0
 10
337.9996750520322166
 20
127.8620127592030968
 30
0.0
 11
336.7496750520321029
 21
127.8620127592030968
 31
0.0
  0
LINE
  5
18FA6
  8
0
 10
332.9996750520322166
 20
127.8620127592030968
 30
0.0
 11
331.7496750520321029
 21
127.8620127592030968
 31
0.0
  0
LINE
  5
18FA7
  8
0
 10
329.2496750520322166
 20
127.749408463724194
 30
0.0
 11
330.4996750520321029
 21
127.749408463724194
 31
0.0
  0
LINE
  5
18FA8
  8
0
 10
339.2496750520322166
 20
127.749408463724194
 30
0.0
 11
340.4996750520322166
 21
127.749408463724194
 31
0.0
  0
LINE
  5
18FA9
  8
0
 10
330.4996750520321029
 20
132.9905915362757014
 30
0.0
 11
329.2496750520322166
 21
132.9905915362757014
 31
0.0
  0
LINE
  5
18FAA
  8
0
 10
335.4996750520322166
 20
132.9905915362757014
 30
0.0
 11
334.2496750520322166
 21
132.9905915362757014
 31
0.0
  0
LINE
  5
18FAB
  8
0
 10
334.2496750520322166
 20
127.749408463724194
 30
0.0
 11
335.4996750520322166
 21
127.749408463724194
 31
0.0
  0
LINE
  5
18FAC
  8
0
 10
340.4996750520322166
 20
132.9905915362757014
 30
0.0
 11
339.2496750520322166
 21
132.9905915362757014
 31
0.0
  0
LINE
  5
18FAD
  8
0
 10
330.4996750520321029
 20
134.1735714285715915
 30
0.0
 11
329.2496750520322166
 21
134.1289285714287018
 31
0.0
  0
LINE
  5
18FAE
  8
0
 10
335.4996750520322166
 20
134.3521428571428942
 30
0.0
 11
334.2496750520322166
 21
134.3075000000000898
 31
0.0
  0
LINE
  5
18FAF
  8
0
 10
334.2496750520322166
 20
126.4324999999998056
 30
0.0
 11
335.4996750520322166
 21
126.3878571428570012
 31
0.0
  0
LINE
  5
18FB0
  8
0
 10
339.249675052054215
 20
126.2103946696335015
 30
0.0
 11
340.4996750520322166
 21
126.2092857142855991
 31
0.0
  0
LINE
  5
18FB1
  8
0
 10
329.2496750520322166
 20
126.6110714285711936
 30
0.0
 11
330.4996750520321029
 21
126.5664285714284034
 31
0.0
  0
LINE
  5
18FB2
  8
0
 10
339.249675052054215
 20
134.5296053303665076
 30
0.0
 11
340.4996750520322166
 21
134.5307142857143106
 31
0.0
  0
CIRCLE
  5
18FB3
  8
0
 10
350.3346660392850254
 20
128.520628799267314
 30
0.0
 40
0.3000000000000398
  0
CIRCLE
  5
18FB4
  8
0
 10
351.8849903902744245
 20
128.92070082151821
 30
0.0
 40
0.3000000000000398
  0
CIRCLE
  5
18FB5
  8
0
 10
352.5351768460315043
 20
130.3710583552878859
 30
0.0
 40
0.3000000000000398
  0
CIRCLE
  5
18FB6
  8
0
 10
349.0343058533424028
 20
129.4710282093822116
 30
0.0
 40
0.3000000000000398
  0
CIRCLE
  5
18FB7
  8
0
 10
349.0343048105235084
 20
131.271059054615705
 30
0.0
 40
0.3000000000000398
  0
CIRCLE
  5
18FB8
  8
0
 10
350.3346759316763723
 20
132.221489516735204
 30
0.0
 40
0.3000000000000398
  0
CIRCLE
  5
18FB9
  8
0
 10
351.8850483433769796
 20
131.8213674604753862
 30
0.0
 40
0.3000000000000398
  0
CIRCLE
  5
18FBA
  8
0
 10
350.7499999999998863
 20
130.3699999999998909
 30
0.0
 40
0.3000000000000398
  0
ARC
  5
18FBB
  8
0
 10
348.1996750520320916
 20
130.3699999999998909
 30
0.0
 40
0.3500000000000227
 50
270.0
 51
90.0
  0
CIRCLE
  5
18FBC
  8
0
 10
350.7493501040643764
 20
130.3700000000000045
 30
0.0
 40
2.8996750520322219
  0
CIRCLE
  5
18FBD
  8
0
 10
350.7496750520322166
 20
130.3700000000000045
 30
0.0
 40
4.0
  0
CIRCLE
  5
18FBE
  8
3
 10
350.7496750520322166
 20
130.3700000000000045
 30
0.0
 40
3.6593506373324369
  0
CIRCLE
  5
18FBF
  8
0
 10
350.7496750520322166
 20
130.3700000000000045
 30
0.0
 40
3.5500000000000109
  0
CIRCLE
  5
18FC0
  8
0
 10
350.7493501040643764
 20
130.3700000000000045
 30
0.0
 40
5.2503249479677967
  0
LINE
  5
18FC1
  8
1
 10
95.9996750520321456
 20
130.3700000000000045
 30
0.0
 11
359.9996750520322166
 21
130.3700000000000045
 31
0.0
  0
VIEWPORT
  5
18FD7
 67
     1
  8
0
 10
800.0
 20
640.0
 30
0.0
 40
3455.6468965517237848
 41
1354.2400000000000091
 68
     1
 69
     1
1001
ACAD
1000
MVIEW
1002
{
1070
    16
1010
0.0
1020
0.0
1030
0.0
1010
0.0
1020
0.0
1030
1.0
1040
0.0
1040
1354.2400000000000091
1040
800.0
1040
640.0
1040
50.0
1040
0.0
1040
0.0
1070
     0
1070
  1000
1070
     1
1070
     1
1070
     0
1070
     0
1070
     0
1070
     0
1040
0.0
1040
0.0
1040
0.0
1040
10.0
1040
10.0
1040
10.0
1040
10.0
1070
     0
1002
{
1002
}
1002
}
  0
VIEWPORT
  5
18FDB
 67
     1
  8
1
 10
800.0
 20
640.0
 30
0.0
 40
1280.0
 41
1024.0
 68
     2
 69
     2
1001
ACAD
1000
MVIEW
1002
{
1070
    16
1010
0.0
1020
0.0
1030
0.0
1010
0.0
1020
0.0
1030
1.0
1040
0.0
1040
297.6813801299579154
1040
184.1927404438895053
1040
77.1381592214060277
1040
50.0
1040
0.0
1040
0.0
1070
     0
1070
  1000
1070
     1
1070
     1
1070
     0
1070
     0
1070
     0
1070
     0
1040
0.0
1040
0.0
1040
0.0
1040
10.0
1040
10.0
1040
10.0
1040
10.0
1070
     0
1002
{
1002
}
1002
}
  0
ENDSEC
  0
EOF
