  0
SECTION
  2
HEADER
  9
$ACADVER
  1
AC1009
  9
$INSBASE
 10
0.0
 20
0.0
 30
0.0
  9
$EXTMIN
 10
0.0
 20
-2.960436562073669
 30
0.0
  9
$EXTMAX
 10
303.5
 20
193.5
 30
0.0
  9
$LIMMIN
 10
0.0
 20
0.0
  9
$LIMMAX
 10
187.5
 20
135.0
  9
$ORTHOMODE
 70
     1
  9
$REGENMODE
 70
     1
  9
$FILLMODE
 70
     1
  9
$QTEXTMODE
 70
     0
  9
$MIRRTEXT
 70
     0
  9
$DRAGMODE
 70
     2
  9
$LTSCALE
 40
10.0
  9
$OSMODE
 70
    37
  9
$ATTMODE
 70
     1
  9
$TEXTSIZE
 40
0.2
  9
$TRACEWID
 40
0.05
  9
$TEXTSTYLE
  7
STANDARD
  9
$CLAYER
  8
0
  9
$CELTYPE
  6
BYLAYER
  9
$CECOLOR
 62
   256
  9
$DIMSCALE
 40
1.0
  9
$DIMASZ
 40
3.0
  9
$DIMEXO
 40
2.0
  9
$DIMDLI
 40
0.38
  9
$DIMRND
 40
0.0
  9
$DIMDLE
 40
0.0
  9
$DIMEXE
 40
2.0
  9
$DIMTP
 40
0.0
  9
$DIMTM
 40
0.0
  9
$DIMTXT
 40
3.2000000000000002
  9
$DIMCEN
 40
0.0
  9
$DIMTSZ
 40
0.0
  9
$DIMTOL
 70
     0
  9
$DIMLIM
 70
     0
  9
$DIMTIH
 70
     0
  9
$DIMTOH
 70
     0
  9
$DIMSE1
 70
     0
  9
$DIMSE2
 70
     0
  9
$DIMTAD
 70
     1
  9
$DIMZIN
 70
     0
  9
$DIMBLK
  1

  9
$DIMASO
 70
     0
  9
$DIMSHO
 70
     0
  9
$DIMPOST
  1

  9
$DIMAPOST
  1

  9
$DIMALT
 70
     0
  9
$DIMALTD
 70
     2
  9
$DIMALTF
 40
25.3999999999999986
  9
$DIMLFAC
 40
1.0
  9
$DIMTOFL
 70
     1
  9
$DIMTVP
 40
1.6000000000000001
  9
$DIMTIX
 70
     1
  9
$DIMSOXD
 70
     0
  9
$DIMSAH
 70
     0
  9
$DIMBLK1
  1

  9
$DIMBLK2
  1

  9
$DIMSTYLE
  2
STANDARD
  9
$DIMCLRD
 70
     0
  9
$DIMCLRE
 70
     0
  9
$DIMCLRT
 70
     0
  9
$DIMTFAC
 40
1.0
  9
$DIMGAP
 40
0.09
  9
$LUNITS
 70
     2
  9
$LUPREC
 70
     1
  9
$SKETCHINC
 40
0.1
  9
$FILLETRAD
 40
0.0
  9
$AUNITS
 70
     0
  9
$AUPREC
 70
     1
  9
$MENU
  1
E:\r13\win\SUPPORT\ACAD
  9
$ELEVATION
 40
0.0
  9
$PELEVATION
 40
0.0
  9
$THICKNESS
 40
0.0
  9
$LIMCHECK
 70
     0
  9
$BLIPMODE
 70
     0
  9
$CHAMFERA
 40
0.0
  9
$CHAMFERB
 40
0.0
  9
$SKPOLY
 70
     0
  9
$TDCREATE
 40
2449839.773298610933125
  9
$TDUPDATE
 40
2460692.4008796289563179
  9
$TDINDWG
 40
0.1747701505
  9
$TDUSRTIMER
 40
0.1747701505
  9
$USRTIMER
 70
     1
  9
$ANGBASE
 50
0.0
  9
$ANGDIR
 70
     0
  9
$PDMODE
 70
     0
  9
$PDSIZE
 40
0.0
  9
$PLINEWID
 40
0.0
  9
$COORDS
 70
     1
  9
$SPLFRAME
 70
     0
  9
$SPLINETYPE
 70
     6
  9
$SPLINESEGS
 70
     8
  9
$ATTDIA
 70
     1
  9
$ATTREQ
 70
     1
  9
$HANDLING
 70
     1
  9
$HANDSEED
  5
ED2
  9
$SURFTAB1
 70
     6
  9
$SURFTAB2
 70
     6
  9
$SURFTYPE
 70
     6
  9
$SURFU
 70
     6
  9
$SURFV
 70
     6
  9
$UCSNAME
  2

  9
$UCSORG
 10
0.0
 20
0.0
 30
0.0
  9
$UCSXDIR
 10
1.0
 20
0.0
 30
0.0
  9
$UCSYDIR
 10
0.0
 20
1.0
 30
0.0
  9
$PUCSNAME
  2

  9
$PUCSORG
 10
0.0
 20
0.0
 30
0.0
  9
$PUCSXDIR
 10
1.0
 20
0.0
 30
0.0
  9
$PUCSYDIR
 10
0.0
 20
1.0
 30
0.0
  9
$USERI1
 70
     0
  9
$USERI2
 70
     1
  9
$USERI3
 70
     0
  9
$USERI4
 70
     0
  9
$USERI5
 70
     0
  9
$USERR1
 40
0.0
  9
$USERR2
 40
0.0
  9
$USERR3
 40
0.0
  9
$USERR4
 40
0.0
  9
$USERR5
 40
0.0
  9
$WORLDVIEW
 70
     1
  9
$SHADEDGE
 70
     3
  9
$SHADEDIF
 70
    70
  9
$TILEMODE
 70
     1
  9
$MAXACTVP
 70
    16
  9
$PLIMCHECK
 70
     0
  9
$PEXTMIN
 10
1.0000000000000000E+20
 20
1.0000000000000000E+20
 30
1.0000000000000000E+20
  9
$PEXTMAX
 10
-1.0000000000000000E+20
 20
-1.0000000000000000E+20
 30
-1.0000000000000000E+20
  9
$PLIMMIN
 10
0.0
 20
0.0
  9
$PLIMMAX
 10
12.0
 20
9.0
  9
$UNITMODE
 70
     0
  9
$VISRETAIN
 70
     0
  9
$PLINEGEN
 70
     0
  9
$PSLTSCALE
 70
     0
  0
ENDSEC
  0
SECTION
  2
TABLES
  0
TABLE
  2
VPORT
 70
     1
  0
VPORT
  2
*ACTIVE
 70
     0
 10
0.0
 20
0.0
 11
1.0
 21
1.0
 12
306.9815195071868743
 22
130.7126344204696977
 13
0.0
 23
0.0
 14
5.0
 24
5.0
 15
5.0
 25
5.0
 16
0.0
 26
0.0
 36
1.0
 17
0.0
 27
0.0
 37
0.0
 40
261.4252688409393954
 41
2.3485221674876842
 42
50.0
 43
0.0
 44
0.0
 50
0.0
 51
0.0
 71
     0
 72
   500
 73
     1
 74
     0
 75
     0
 76
     0
 77
     0
 78
     2
  0
ENDTAB
  0
TABLE
  2
LTYPE
 70
     2
  0
LTYPE
  2
CONTINUOUS
 70
     0
  3
Solid Line
 72
    65
 73
     0
 40
0.0
  0
LTYPE
  2
CENTER
 70
     0
  3
____ _ ____ _ ____ _ ____ _ ____ _ ____ _ ____
 72
    65
 73
     4
 40
2.0
 49
1.25
 49
-0.25
 49
0.25
 49
-0.25
  0
ENDTAB
  0
TABLE
  2
LAYER
 70
     2
  0
LAYER
  2
0
 70
     0
 62
     7
  6
CONTINUOUS
  0
LAYER
  2
1
 70
     0
 62
     1
  6
CENTER
  0
ENDTAB
  0
TABLE
  2
STYLE
 70
     2
  0
STYLE
  2
STANDARD
 70
     0
 40
0.0
 41
1.0
 50
0.0
 71
     0
 42
0.2
  3
TXT
  4
BIGFONT
  0
STYLE
  2
STANDARD1
 70
     0
 40
0.0
 41
1.0
 50
0.0
 71
     0
 42
3.0
  3
txt
  4

  0
ENDTAB
  0
TABLE
  2
VIEW
 70
     1
  0
VIEW
  2
ALL
 70
     0
 40
270.0
 10
220.9915966386554942
 20
135.0
 41
0.0
 11
0.0
 21
0.0
 31
1.0
 12
0.0
 22
0.0
 32
0.0
 42
0.0
 43
0.0
 44
0.0
 50
0.0
 71
     0
  0
ENDTAB
  0
TABLE
  2
UCS
 70
     0
  0
ENDTAB
  0
TABLE
  2
APPID
 70
     6
  0
APPID
  2
ACAD
 70
     0
  0
APPID
  2
ACAD_DSTYLE_DIMJAG
 70
     0
  0
APPID
  2
ACAD_DSTYLE_DIMTALN
 70
     0
  0
APPID
  2
ACAD_EXEMPT_FROM_CAD_STANDARDS
 70
     0
  0
APPID
  2
ACAD_MLEADERVER
 70
     0
  0
APPID
  2
ACAD_NAV_VCDISPLAY
 70
     0
  0
ENDTAB
  0
TABLE
  2
DIMSTYLE
 70
     1
  0
DIMSTYLE
  2
STANDARD
 70
     0
  3

  4

  5

  6

  7

 40
1.0
 41
0.18
 42
0.0625
 43
0.38
 44
0.18
 45
0.0
 46
0.0
 47
0.0
 48
0.0
140
0.18
141
0.09
142
0.0
143
25.3999999999999986
144
1.0
145
0.0
146
1.0
147
0.09
 71
     0
 72
     0
 73
     1
 74
     1
 75
     0
 76
     0
 77
     0
 78
     0
170
     0
171
     2
172
     0
173
     0
174
     0
175
     0
176
     0
177
     0
178
     0
  0
ENDTAB
  0
ENDSEC
  0
SECTION
  2
BLOCKS
  0
BLOCK
  8
0
  2
$MODEL_SPACE
 70
     0
 10
0.0
 20
0.0
 30
0.0
  3
$MODEL_SPACE
  1

  0
ENDBLK
  5
1D4
  8
0
  0
BLOCK
 67
     1
  8
0
  2
$PAPER_SPACE
 70
     0
 10
0.0
 20
0.0
 30
0.0
  3
$PAPER_SPACE
  1

  0
ENDBLK
  5
1D2
 67
     1
  8
0
  0
ENDSEC
  0
SECTION
  2
ENTITIES
  0
TEXT
  5
678
  8
0
 62
     3
 10
0.0
 20
0.0
 30
0.0
 40
10.0
  1
IMG88P15
  7
STANDARD1
  0
LINE
  5
E0E
  8
0
 10
184.9000000000008015
 20
193.4999999999994884
 30
0.0
 11
184.899999999999892
 21
106.4999999999995026
 31
0.0
  0
LINE
  5
E0F
  8
0
 10
188.9000000000008015
 20
193.4999999999994884
 30
0.0
 11
188.899999999999892
 21
106.4999999999995026
 31
0.0
  0
LINE
  5
E10
  8
0
 10
184.899999999999892
 20
106.4999999999995026
 30
0.0
 11
188.899999999999892
 21
106.4999999999995026
 31
0.0
  0
LINE
  5
E11
  8
0
 10
184.9000000000008015
 20
193.4999999999994884
 30
0.0
 11
188.9000000000008015
 21
193.4999999999994884
 31
0.0
  0
LINE
  5
E12
  8
0
 10
188.9000000000000057
 20
106.9999999999995026
 30
0.0
 11
194.9000000000000057
 21
106.9999999999995026
 31
0.0
  0
LINE
  5
E13
  8
0
 10
194.9000000000008868
 20
192.9999999999994884
 30
0.0
 11
194.9000000000000057
 21
106.9999999999995026
 31
0.0
  0
LINE
  5
E14
  8
0
 10
188.9000000000008015
 20
192.9999999999994884
 30
0.0
 11
194.9000000000008868
 21
192.9999999999994884
 31
0.0
  0
LINE
  5
E15
  8
0
 10
125.0999999999998948
 20
106.5
 30
0.0
 11
125.1000000000007049
 21
193.4999999999998863
 31
0.0
  0
LINE
  5
E16
  8
0
 10
121.0999999999997954
 20
106.5
 30
0.0
 11
121.1000000000008043
 21
193.4999999999998863
 31
0.0
  0
LINE
  5
E17
  8
0
 10
125.1000000000007049
 20
193.5
 30
0.0
 11
121.1000000000008043
 21
193.4999999999998863
 31
0.0
  0
LINE
  5
E18
  8
0
 10
125.0999999999998948
 20
106.5
 30
0.0
 11
121.0999999999997954
 21
106.5
 31
0.0
  0
LINE
  5
E19
  8
0
 10
121.1000000000008043
 20
192.9999999999998863
 30
0.0
 11
115.1000000000008043
 21
192.9999999999998863
 31
0.0
  0
LINE
  5
E1A
  8
0
 10
121.0999999999998948
 20
107.0
 30
0.0
 11
115.0999999999998948
 21
107.0
 31
0.0
  0
LINE
  5
E1B
  8
0
 10
115.0999999999998948
 20
107.0
 30
0.0
 11
115.1000000000008043
 21
192.9999999999998863
 31
0.0
  0
LINE
  5
E1C
  8
0
 10
184.899999999999892
 20
65.0000000000000568
 30
0.0
 11
188.899999999999892
 21
65.0000000000001137
 31
0.0
  0
LINE
  5
E1D
  8
0
 10
188.899999999999892
 20
65.0000000000001137
 30
0.0
 11
188.9000000000000057
 21
50.0000000000000711
 31
0.0
  0
LINE
  5
E1E
  8
0
 10
184.9000000000000057
 20
50.0000000000000711
 30
0.0
 11
184.899999999999892
 21
65.0000000000000568
 31
0.0
  0
LINE
  5
E1F
  8
0
 10
188.9000000000000057
 20
56.0000000000001208
 30
0.0
 11
194.9000000000000057
 21
56.0000000000001776
 31
0.0
  0
LINE
  5
E20
  8
0
 10
194.9000000000000057
 20
56.0000000000001776
 30
0.0
 11
194.9000000000000057
 21
50.0000000000000711
 31
0.0
  0
LINE
  5
E21
  8
0
 10
194.9000000000000057
 20
50.0000000000000711
 30
0.0
 11
184.9000000000000057
 21
50.0000000000000711
 31
0.0
  0
LINE
  5
E22
  8
0
 10
121.0999999999997954
 20
65.0000000000000568
 30
0.0
 11
121.0999999999998948
 21
50.0
 31
0.0
  0
LINE
  5
E23
  8
0
 10
125.0999999999998948
 20
65.0000000000000568
 30
0.0
 11
121.0999999999997954
 21
65.0000000000000568
 31
0.0
  0
LINE
  5
E24
  8
0
 10
125.0999999999999943
 20
50.0000000000000711
 30
0.0
 11
125.0999999999998948
 21
65.0000000000000568
 31
0.0
  0
LINE
  5
E25
  8
0
 10
121.0999999999998948
 20
56.0000000000000071
 30
0.0
 11
115.0999999999998948
 21
56.0000000000000071
 31
0.0
  0
LINE
  5
E26
  8
0
 10
115.0999999999998948
 20
56.0000000000000071
 30
0.0
 11
115.0999999999998948
 21
49.9999999999999503
 31
0.0
  0
LINE
  5
E27
  8
0
 10
115.0999999999998948
 20
49.9999999999999503
 30
0.0
 11
125.0999999999999943
 21
50.0000000000000711
 31
0.0
  0
LINE
  5
E28
  8
0
 10
303.0
 20
56.0000000000001776
 30
0.0
 11
217.0
 21
56.0000000000001776
 31
0.0
  0
LINE
  5
E2A
  8
0
 10
217.0
 20
56.0000000000001776
 30
0.0
 11
217.0
 21
50.0000000000000711
 31
0.0
  0
LINE
  5
E2B
  8
0
 10
303.0
 20
56.0000000000001776
 30
0.0
 11
303.0
 21
50.0000000000001208
 31
0.0
  0
LINE
  5
E2C
  8
0
 10
216.5
 20
65.0000000000001137
 30
0.0
 11
216.5
 21
50.0000000000000711
 31
0.0
  0
LINE
  5
E2D
  8
0
 10
303.5
 20
65.0000000000001137
 30
0.0
 11
216.5
 21
65.0000000000001137
 31
0.0
  0
LINE
  5
E2E
  8
0
 10
303.5
 20
65.0000000000001137
 30
0.0
 11
303.5
 21
50.0000000000000711
 31
0.0
  0
LINE
  5
E2F
  8
0
 10
303.5
 20
50.0000000000000711
 30
0.0
 11
216.5
 21
50.0000000000000711
 31
0.0
  0
LINE
  5
E31
  8
0
 10
93.0
 20
56.0000000000000782
 30
0.0
 11
93.0
 21
50.0000000000000284
 31
0.0
  0
LINE
  5
E33
  8
0
 10
7.0
 20
56.0000000000000782
 30
0.0
 11
7.0
 21
49.9999999999999716
 31
0.0
  0
LINE
  5
E34
  8
0
 10
93.0
 20
56.0000000000000782
 30
0.0
 11
7.0
 21
56.0000000000000782
 31
0.0
  0
LINE
  5
E35
  8
0
 10
6.4999999999999432
 20
65.0000000000001421
 30
0.0
 11
6.4999999999999432
 21
50.0000000000000782
 31
0.0
  0
LINE
  5
E36
  8
0
 10
93.4999999999999858
 20
65.0000000000001421
 30
0.0
 11
6.4999999999999432
 21
65.0000000000001421
 31
0.0
  0
LINE
  5
E37
  8
0
 10
93.4999999999999858
 20
65.0000000000001421
 30
0.0
 11
93.4999999999999858
 21
50.0000000000000782
 31
0.0
  0
LINE
  5
E38
  8
0
 10
93.4999999999999858
 20
50.0000000000000284
 30
0.0
 11
6.4999999999999432
 21
50.0000000000000782
 31
0.0
  0
LINE
  5
E3A
  8
1
 10
199.9000000000004036
 20
149.9999999999994031
 30
0.0
 11
180.0000000000003979
 21
149.9999999999994884
 31
0.0
  0
LINE
  5
E3B
  8
1
 10
130.0000000000003979
 20
149.9999999999998863
 30
0.0
 11
110.1000000000004064
 21
150.0
 31
0.0
  0
LINE
  5
E3C
  8
1
 10
50.0
 20
70.0000000000001421
 30
0.0
 11
50.0
 21
44.9999999999999716
 31
0.0
  0
LINE
  5
E3D
  8
1
 10
260.0
 20
69.9999999999998863
 30
0.0
 11
260.0
 21
45.0000000000000568
 31
0.0
  0
ENDSEC
  0
EOF
