  0
SECTION
  2
HEADER
  9
$ACADVER
  1
AC1009
  9
$INSBASE
 10
0.0
 20
0.0
 30
0.0
  9
$EXTMIN
 10
0.0
 20
-2.960436562073669
 30
0.0
  9
$EXTMAX
 10
186.7499999999998863
 20
170.2000000000001023
 30
0.0
  9
$LIMMIN
 10
0.0
 20
0.0
  9
$LIMMAX
 10
187.5
 20
135.0
  9
$ORTHOMODE
 70
     1
  9
$REGENMODE
 70
     1
  9
$FILLMODE
 70
     1
  9
$QTEXTMODE
 70
     0
  9
$MIRRTEXT
 70
     0
  9
$DRAGMODE
 70
     2
  9
$LTSCALE
 40
10.0
  9
$OSMODE
 70
    37
  9
$ATTMODE
 70
     1
  9
$TEXTSIZE
 40
0.2
  9
$TRACEWID
 40
0.05
  9
$TEXTSTYLE
  7
STANDARD
  9
$CLAYER
  8
0
  9
$CELTYPE
  6
BYLAYER
  9
$CECOLOR
 62
   256
  9
$DIMSCALE
 40
1.0
  9
$DIMASZ
 40
3.0
  9
$DIMEXO
 40
2.0
  9
$DIMDLI
 40
0.38
  9
$DIMRND
 40
0.0
  9
$DIMDLE
 40
0.0
  9
$DIMEXE
 40
2.0
  9
$DIMTP
 40
0.0
  9
$DIMTM
 40
0.0
  9
$DIMTXT
 40
3.2000000000000002
  9
$DIMCEN
 40
0.0
  9
$DIMTSZ
 40
0.0
  9
$DIMTOL
 70
     0
  9
$DIMLIM
 70
     0
  9
$DIMTIH
 70
     0
  9
$DIMTOH
 70
     0
  9
$DIMSE1
 70
     0
  9
$DIMSE2
 70
     0
  9
$DIMTAD
 70
     1
  9
$DIMZIN
 70
     0
  9
$DIMBLK
  1

  9
$DIMASO
 70
     0
  9
$DIMSHO
 70
     0
  9
$DIMPOST
  1

  9
$DIMAPOST
  1

  9
$DIMALT
 70
     0
  9
$DIMALTD
 70
     2
  9
$DIMALTF
 40
25.3999999999999986
  9
$DIMLFAC
 40
1.0
  9
$DIMTOFL
 70
     1
  9
$DIMTVP
 40
1.6000000000000001
  9
$DIMTIX
 70
     1
  9
$DIMSOXD
 70
     0
  9
$DIMSAH
 70
     0
  9
$DIMBLK1
  1

  9
$DIMBLK2
  1

  9
$DIMSTYLE
  2
STANDARD
  9
$DIMCLRD
 70
     0
  9
$DIMCLRE
 70
     0
  9
$DIMCLRT
 70
     0
  9
$DIMTFAC
 40
1.0
  9
$DIMGAP
 40
0.09
  9
$LUNITS
 70
     2
  9
$LUPREC
 70
     1
  9
$SKETCHINC
 40
0.1
  9
$FILLETRAD
 40
0.0
  9
$AUNITS
 70
     0
  9
$AUPREC
 70
     1
  9
$MENU
  1
E:\r13\win\SUPPORT\ACAD
  9
$ELEVATION
 40
0.0
  9
$PELEVATION
 40
0.0
  9
$THICKNESS
 40
0.0
  9
$LIMCHECK
 70
     0
  9
$BLIPMODE
 70
     0
  9
$CHAMFERA
 40
0.0
  9
$CHAMFERB
 40
0.0
  9
$SKPOLY
 70
     0
  9
$TDCREATE
 40
2449839.773298610933125
  9
$TDUPDATE
 40
2460692.4008333329111338
  9
$TDINDWG
 40
0.1946081134
  9
$TDUSRTIMER
 40
0.1946081134
  9
$USRTIMER
 70
     1
  9
$ANGBASE
 50
0.0
  9
$ANGDIR
 70
     0
  9
$PDMODE
 70
     0
  9
$PDSIZE
 40
0.0
  9
$PLINEWID
 40
0.0
  9
$COORDS
 70
     1
  9
$SPLFRAME
 70
     0
  9
$SPLINETYPE
 70
     6
  9
$SPLINESEGS
 70
     8
  9
$ATTDIA
 70
     1
  9
$ATTREQ
 70
     1
  9
$HANDLING
 70
     1
  9
$HANDSEED
  5
C5D
  9
$SURFTAB1
 70
     6
  9
$SURFTAB2
 70
     6
  9
$SURFTYPE
 70
     6
  9
$SURFU
 70
     6
  9
$SURFV
 70
     6
  9
$UCSNAME
  2

  9
$UCSORG
 10
0.0
 20
0.0
 30
0.0
  9
$UCSXDIR
 10
1.0
 20
0.0
 30
0.0
  9
$UCSYDIR
 10
0.0
 20
1.0
 30
0.0
  9
$PUCSNAME
  2

  9
$PUCSORG
 10
0.0
 20
0.0
 30
0.0
  9
$PUCSXDIR
 10
1.0
 20
0.0
 30
0.0
  9
$PUCSYDIR
 10
0.0
 20
1.0
 30
0.0
  9
$USERI1
 70
     0
  9
$USERI2
 70
     1
  9
$USERI3
 70
     0
  9
$USERI4
 70
     0
  9
$USERI5
 70
     0
  9
$USERR1
 40
0.0
  9
$USERR2
 40
0.0
  9
$USERR3
 40
0.0
  9
$USERR4
 40
0.0
  9
$USERR5
 40
0.0
  9
$WORLDVIEW
 70
     1
  9
$SHADEDGE
 70
     3
  9
$SHADEDIF
 70
    70
  9
$TILEMODE
 70
     1
  9
$MAXACTVP
 70
    16
  9
$PLIMCHECK
 70
     0
  9
$PEXTMIN
 10
1.0000000000000000E+20
 20
1.0000000000000000E+20
 30
1.0000000000000000E+20
  9
$PEXTMAX
 10
-1.0000000000000000E+20
 20
-1.0000000000000000E+20
 30
-1.0000000000000000E+20
  9
$PLIMMIN
 10
0.0
 20
0.0
  9
$PLIMMAX
 10
12.0
 20
9.0
  9
$UNITMODE
 70
     0
  9
$VISRETAIN
 70
     0
  9
$PLINEGEN
 70
     0
  9
$PSLTSCALE
 70
     0
  0
ENDSEC
  0
SECTION
  2
TABLES
  0
TABLE
  2
VPORT
 70
     1
  0
VPORT
  2
*ACTIVE
 70
     0
 10
0.0
 20
0.0
 11
1.0
 21
1.0
 12
307.6131687242798876
 22
130.9815904583718975
 13
0.0
 23
0.0
 14
5.0
 24
5.0
 15
5.0
 25
5.0
 16
0.0
 26
0.0
 36
1.0
 17
0.0
 27
0.0
 37
0.0
 40
261.963180916743795
 41
2.3485221674876842
 42
50.0
 43
0.0
 44
0.0
 50
0.0
 51
0.0
 71
     0
 72
   500
 73
     1
 74
     0
 75
     0
 76
     0
 77
     0
 78
     2
  0
ENDTAB
  0
TABLE
  2
LTYPE
 70
     2
  0
LTYPE
  2
CONTINUOUS
 70
     0
  3
Solid Line
 72
    65
 73
     0
 40
0.0
  0
LTYPE
  2
CENTER
 70
     0
  3
____ _ ____ _ ____ _ ____ _ ____ _ ____ _ ____
 72
    65
 73
     4
 40
2.0
 49
1.25
 49
-0.25
 49
0.25
 49
-0.25
  0
ENDTAB
  0
TABLE
  2
LAYER
 70
     3
  0
LAYER
  2
0
 70
     0
 62
     7
  6
CONTINUOUS
  0
LAYER
  2
1
 70
     0
 62
     1
  6
CENTER
  0
LAYER
  2
3
 70
     0
 62
     3
  6
CONTINUOUS
  0
ENDTAB
  0
TABLE
  2
STYLE
 70
     2
  0
STYLE
  2
STANDARD
 70
     0
 40
0.0
 41
1.0
 50
0.0
 71
     0
 42
0.2
  3
TXT
  4
BIGFONT
  0
STYLE
  2
STANDARD1
 70
     0
 40
0.0
 41
1.0
 50
0.0
 71
     0
 42
3.0
  3
txt
  4

  0
ENDTAB
  0
TABLE
  2
VIEW
 70
     1
  0
VIEW
  2
ALL
 70
     0
 40
270.0
 10
220.9915966386554942
 20
135.0
 41
0.0
 11
0.0
 21
0.0
 31
1.0
 12
0.0
 22
0.0
 32
0.0
 42
0.0
 43
0.0
 44
0.0
 50
0.0
 71
     0
  0
ENDTAB
  0
TABLE
  2
UCS
 70
     0
  0
ENDTAB
  0
TABLE
  2
APPID
 70
     6
  0
APPID
  2
ACAD
 70
     0
  0
APPID
  2
ACAD_DSTYLE_DIMJAG
 70
     0
  0
APPID
  2
ACAD_DSTYLE_DIMTALN
 70
     0
  0
APPID
  2
ACAD_EXEMPT_FROM_CAD_STANDARDS
 70
     0
  0
APPID
  2
ACAD_MLEADERVER
 70
     0
  0
APPID
  2
ACAD_NAV_VCDISPLAY
 70
     0
  0
ENDTAB
  0
TABLE
  2
DIMSTYLE
 70
     1
  0
DIMSTYLE
  2
STANDARD
 70
     0
  3

  4

  5

  6

  7

 40
1.0
 41
0.18
 42
0.0625
 43
0.38
 44
0.18
 45
0.0
 46
0.0
 47
0.0
 48
0.0
140
0.18
141
0.09
142
0.0
143
25.3999999999999986
144
1.0
145
0.0
146
1.0
147
0.09
 71
     0
 72
     0
 73
     1
 74
     1
 75
     0
 76
     0
 77
     0
 78
     0
170
     0
171
     2
172
     0
173
     0
174
     0
175
     0
176
     0
177
     0
178
     0
  0
ENDTAB
  0
ENDSEC
  0
SECTION
  2
BLOCKS
  0
BLOCK
  8
0
  2
$MODEL_SPACE
 70
     0
 10
0.0
 20
0.0
 30
0.0
  3
$MODEL_SPACE
  1

  0
ENDBLK
  5
1D4
  8
0
  0
BLOCK
 67
     1
  8
0
  2
$PAPER_SPACE
 70
     0
 10
0.0
 20
0.0
 30
0.0
  3
$PAPER_SPACE
  1

  0
ENDBLK
  5
1D2
 67
     1
  8
0
  0
ENDSEC
  0
SECTION
  2
ENTITIES
  0
TEXT
  5
678
  8
0
 62
     3
 10
0.0
 20
0.0
 30
0.0
 40
10.0
  1
IMG88-F-DS
  7
STANDARD1
  0
LINE
  5
9BB
  8
0
 10
118.75
 20
165.2000000000001876
 30
0.0
 11
118.75
 21
137.2000000000001876
 31
0.0
  0
LINE
  5
9BC
  8
0
 10
31.25
 20
137.1999999999999886
 30
0.0
 11
118.75
 21
137.2000000000001876
 31
0.0
  0
LINE
  5
9BD
  8
0
 10
31.25
 20
165.1999999999999034
 30
0.0
 11
31.25
 21
137.1999999999999886
 31
0.0
  0
LINE
  5
9BE
  8
0
 10
118.75
 20
165.2000000000001876
 30
0.0
 11
31.25
 21
165.1999999999999034
 31
0.0
  0
CIRCLE
  5
9BF
  8
0
 10
101.0
 20
151.2000000000001876
 30
0.0
 40
5.5
  0
CIRCLE
  5
9C0
  8
0
 10
49.0
 20
151.1999999999999886
 30
0.0
 40
5.5
  0
LINE
  5
9C1
  8
0
 10
47.5566243270259221
 20
153.7000000000003013
 30
0.0
 11
46.1132486540519722
 21
151.2000000000001023
 31
0.0
  0
LINE
  5
9C2
  8
0
 10
46.1132486540519722
 20
151.2000000000001023
 30
0.0
 11
47.5566243270261566
 21
148.7000000000001023
 31
0.0
  0
LINE
  5
9C3
  8
0
 10
47.5566243270261566
 20
148.7000000000001023
 30
0.0
 11
50.4433756729745326
 21
148.7000000000001876
 31
0.0
  0
LINE
  5
9C4
  8
0
 10
50.4433756729745326
 20
148.7000000000001876
 30
0.0
 11
51.8867513459485892
 21
151.2000000000003865
 31
0.0
  0
LINE
  5
9C5
  8
0
 10
51.8867513459485892
 20
151.2000000000003865
 30
0.0
 11
50.4433756729745326
 21
153.7000000000006992
 31
0.0
  0
LINE
  5
9C6
  8
0
 10
50.4433756729745326
 20
153.7000000000006992
 30
0.0
 11
47.5566243270259221
 21
153.7000000000003013
 31
0.0
  0
CIRCLE
  5
9C7
  8
0
 10
49.0
 20
151.1999999999999886
 30
0.0
 40
5.00000000000027
  0
LINE
  5
9C8
  8
0
 10
99.5566243270260429
 20
153.7000000000005002
 30
0.0
 11
98.1132486540520858
 21
151.2000000000003013
 31
0.0
  0
LINE
  5
9C9
  8
0
 10
98.1132486540520858
 20
151.2000000000003013
 30
0.0
 11
99.5566243270261708
 21
148.7000000000003013
 31
0.0
  0
LINE
  5
9CA
  8
0
 10
102.4433756729744971
 20
148.7000000000003013
 30
0.0
 11
103.8867513459486958
 21
151.2000000000006139
 31
0.0
  0
LINE
  5
9CB
  8
0
 10
103.8867513459486958
 20
151.2000000000006139
 30
0.0
 11
102.4433756729745966
 21
153.7000000000008129
 31
0.0
  0
LINE
  5
9CC
  8
0
 10
102.4433756729745966
 20
153.7000000000008129
 30
0.0
 11
99.5566243270260429
 21
153.7000000000005002
 31
0.0
  0
LINE
  5
9CD
  8
0
 10
99.5566243270261708
 20
148.7000000000003013
 30
0.0
 11
102.4433756729744971
 21
148.7000000000003013
 31
0.0
  0
CIRCLE
  5
9CE
  8
0
 10
101.0
 20
151.2000000000001876
 30
0.0
 40
5.0000000000001723
  0
LINE
  5
9D3
  8
0
 10
118.75
 20
97.1999999999999744
 30
0.0
 11
118.75
 21
68.6999999999999886
 31
0.0
  0
LINE
  5
9D4
  8
0
 10
31.25
 20
97.1999999999999744
 30
0.0
 11
31.25
 21
68.6999999999999886
 31
0.0
  0
LINE
  5
9D5
  8
0
 10
31.25
 20
97.1999999999999744
 30
0.0
 11
118.75
 21
97.1999999999999744
 31
0.0
  0
LINE
  5
9D6
  8
0
 10
31.25
 20
75.0
 30
0.0
 11
118.75
 21
75.0
 31
0.0
  0
LINE
  5
9D7
  8
0
 10
94.9000000000000909
 20
49.1999999999999886
 30
0.0
 11
94.9000000000000909
 21
68.6999999999999886
 31
0.0
  0
LINE
  5
9D8
  8
0
 10
55.1000000000000227
 20
68.6999999999999886
 30
0.0
 11
94.9000000000000909
 21
68.6999999999999886
 31
0.0
  0
LINE
  5
9D9
  8
0
 10
55.1000000000000227
 20
68.6999999999999886
 30
0.0
 11
55.1000000000000227
 21
49.1999999999999886
 31
0.0
  0
LINE
  5
9DA
  8
0
 10
40.1499999999999702
 20
49.1999999999999886
 30
0.0
 11
60.0
 21
49.1999999999999886
 31
0.0
  0
LINE
  5
9DB
  8
0
 10
45.0499999999999474
 20
49.1999999999999886
 30
0.0
 11
45.0499999999999474
 21
68.6999999999999886
 31
0.0
  0
LINE
  5
9DC
  8
0
 10
45.0499999999999474
 20
68.6999999999999886
 30
0.0
 11
31.25
 21
68.6999999999999886
 31
0.0
  0
LINE
  5
9DD
  8
0
 10
118.75
 20
68.6999999999999886
 30
0.0
 11
104.9500000000000028
 21
68.6999999999999886
 31
0.0
  0
LINE
  5
9DE
  8
0
 10
104.9500000000000028
 20
68.6999999999999886
 30
0.0
 11
104.9500000000000028
 21
49.1999999999999886
 31
0.0
  0
LINE
  5
9DF
  8
0
 10
109.8499999999999943
 20
49.1999999999999886
 30
0.0
 11
90.0
 21
49.1999999999999886
 31
0.0
  0
LINE
  5
9E0
  8
0
 10
90.0
 20
68.6999999999999886
 30
0.0
 11
90.0
 21
49.1999999999999886
 31
0.0
  0
LINE
  5
9E1
  8
0
 10
109.8499999999999943
 20
49.1999999999999886
 30
0.0
 11
109.8499999999999943
 21
68.6999999999999886
 31
0.0
  0
LINE
  5
9E2
  8
0
 10
40.1499999999999702
 20
68.6999999999999886
 30
0.0
 11
40.1499999999999702
 21
49.1999999999999886
 31
0.0
  0
LINE
  5
9E3
  8
0
 10
60.0
 20
49.1999999999999886
 30
0.0
 11
60.0
 21
68.6999999999999886
 31
0.0
  0
LINE
  5
9E8
  8
0
 10
158.75
 20
75.0
 30
0.0
 11
165.2499999999998863
 21
75.0
 31
0.0
  0
LINE
  5
9E9
  8
0
 10
158.75
 20
97.1999999999999744
 30
0.0
 11
158.75
 21
75.0
 31
0.0
  0
LINE
  5
9EA
  8
0
 10
186.7499999999998863
 20
97.1999999999999744
 30
0.0
 11
186.7499999999998863
 21
75.0
 31
0.0
  0
LINE
  5
9EB
  8
0
 10
165.2499999999998863
 20
68.6999999999999886
 30
0.0
 11
180.25
 21
68.6999999999999886
 31
0.0
  0
CIRCLE
  5
9EC
  8
3
 10
172.7499999999998863
 20
82.9499999999999886
 30
0.0
 40
3.0
  0
LINE
  5
9ED
  8
0
 10
186.7499999999998863
 20
97.1999999999999744
 30
0.0
 11
158.75
 21
97.1999999999999744
 31
0.0
  0
LINE
  5
9EE
  8
0
 10
180.25
 20
49.1999999999999886
 30
0.0
 11
180.2500000000001137
 21
75.0
 31
0.0
  0
LINE
  5
9EF
  8
0
 10
180.25
 20
49.1999999999999886
 30
0.0
 11
165.2499999999998863
 21
49.1999999999999886
 31
0.0
  0
LINE
  5
9F0
  8
0
 10
165.2499999999998863
 20
75.0
 30
0.0
 11
165.2499999999998863
 21
49.1999999999999886
 31
0.0
  0
LINE
  5
9F2
  8
1
 10
49.0
 20
159.6999999999999886
 30
0.0
 11
49.0
 21
142.6999999999999886
 31
0.0
  0
LINE
  5
9F3
  8
1
 10
101.0
 20
159.7000000000001876
 30
0.0
 11
101.0
 21
142.7000000000001876
 31
0.0
  0
LINE
  5
9F4
  8
1
 10
75.0
 20
63.6999999999999886
 30
0.0
 11
75.0
 21
102.2000000000000028
 31
0.0
  0
LINE
  5
9F5
  8
1
 10
123.75
 20
151.2000000000001876
 30
0.0
 11
26.25
 21
151.2000000000001876
 31
0.0
  0
LINE
  5
9F6
  8
1
 10
75.0
 20
132.2000000000001023
 30
0.0
 11
75.0
 21
170.2000000000001023
 31
0.0
  0
LINE
  5
9F7
  8
1
 10
178.7499999999998863
 20
82.9499999999999886
 30
0.0
 11
166.7499999999998863
 21
82.9499999999999886
 31
0.0
  0
LINE
  5
9F8
  8
1
 10
172.7499999999998863
 20
102.2000000000000028
 30
0.0
 11
172.7499999999998863
 21
30.1999999999999886
 31
0.0
  0
LINE
  5
9F9
  8
1
 10
101.0
 20
32.1999999999999886
 30
0.0
 11
101.0
 21
100.2000000000000028
 31
0.0
  0
LINE
  5
9FC
  8
1
 10
49.0
 20
32.1999999999999886
 30
0.0
 11
49.0
 21
100.2000000000000028
 31
0.0
  0
CIRCLE
  5
A01
  8
0
 10
172.7499999999998863
 20
82.9499999999999886
 30
0.0
 40
2.458499999999999
  0
LINE
  5
ABD
  8
0
 10
180.2500000000001137
 20
75.0
 30
0.0
 11
186.7499999999998863
 21
75.0
 31
0.0
  0
LINE
  5
BE1
  8
0
 10
46.0
 20
36.1999999999999886
 30
0.0
 11
51.9999999999999716
 21
36.1999999999999886
 31
0.0
  0
LINE
  5
BE2
  8
0
 10
47.0
 20
35.1999999999999886
 30
0.0
 11
46.0
 21
36.1999999999999886
 31
0.0
  0
LINE
  5
BE3
  8
0
 10
51.9999999999999716
 20
36.1999999999999886
 30
0.0
 11
50.9999999999999716
 21
35.1999999999999886
 31
0.0
  0
LINE
  5
BE4
  8
0
 10
52.0000000000000071
 20
49.1999999999999886
 30
0.0
 11
51.9999999999999716
 21
36.1999999999999886
 31
0.0
  0
LINE
  5
BE5
  8
3
 10
51.458500000000079
 20
49.1999999999999886
 30
0.0
 11
51.4585000000000719
 21
35.6585000000000605
 31
0.0
  0
LINE
  5
BE6
  8
3
 10
46.5414999999998997
 20
49.1999999999999886
 30
0.0
 11
46.5414999999998926
 21
35.6585000000000605
 31
0.0
  0
LINE
  5
BE7
  8
0
 10
45.9999999999999929
 20
49.1999999999999886
 30
0.0
 11
46.0
 21
36.1999999999999886
 31
0.0
  0
LINE
  5
BE8
  8
0
 10
50.9999999999999716
 20
35.1999999999999886
 30
0.0
 11
47.0
 21
35.1999999999999886
 31
0.0
  0
LINE
  5
BE9
  8
0
 10
98.0
 20
36.1999999999999886
 30
0.0
 11
104.0
 21
36.1999999999999886
 31
0.0
  0
LINE
  5
BEA
  8
0
 10
99.0
 20
35.1999999999999886
 30
0.0
 11
98.0
 21
36.1999999999999886
 31
0.0
  0
LINE
  5
BEB
  8
0
 10
104.0
 20
36.1999999999999886
 30
0.0
 11
103.0
 21
35.1999999999999886
 31
0.0
  0
LINE
  5
BEC
  8
0
 10
104.0
 20
49.1999999999999886
 30
0.0
 11
104.0
 21
36.1999999999999886
 31
0.0
  0
LINE
  5
BED
  8
3
 10
103.4585000000000008
 20
49.1999999999999886
 30
0.0
 11
103.4585000000000008
 21
35.6585000000000605
 31
0.0
  0
LINE
  5
BEE
  8
3
 10
98.5414999999998855
 20
49.1999999999999886
 30
0.0
 11
98.5414999999998855
 21
35.6585000000000605
 31
0.0
  0
LINE
  5
BEF
  8
0
 10
98.0
 20
49.1999999999999886
 30
0.0
 11
98.0
 21
36.1999999999999886
 31
0.0
  0
LINE
  5
BF0
  8
0
 10
103.0
 20
35.1999999999999886
 30
0.0
 11
99.0
 21
35.1999999999999886
 31
0.0
  0
LINE
  5
BF1
  8
0
 10
169.7499999999998863
 20
36.1999999999999886
 30
0.0
 11
175.7499999999998863
 21
36.1999999999999886
 31
0.0
  0
LINE
  5
BF2
  8
0
 10
170.7499999999998863
 20
35.1999999999999886
 30
0.0
 11
169.7499999999998863
 21
36.1999999999999886
 31
0.0
  0
LINE
  5
BF3
  8
0
 10
175.7499999999998863
 20
36.1999999999999886
 30
0.0
 11
174.7499999999998863
 21
35.1999999999999886
 31
0.0
  0
LINE
  5
BF4
  8
0
 10
175.7499999999998863
 20
49.1999999999999886
 30
0.0
 11
175.7499999999998863
 21
36.1999999999999886
 31
0.0
  0
LINE
  5
BF5
  8
3
 10
175.2084999999999013
 20
49.1999999999999886
 30
0.0
 11
175.2084999999999013
 21
35.6585000000000605
 31
0.0
  0
LINE
  5
BF6
  8
3
 10
170.291499999999786
 20
49.1999999999999886
 30
0.0
 11
170.291499999999786
 21
35.6585000000000605
 31
0.0
  0
LINE
  5
BF7
  8
0
 10
169.7499999999998863
 20
49.1999999999999886
 30
0.0
 11
169.7499999999998863
 21
36.1999999999999886
 31
0.0
  0
LINE
  5
BF8
  8
0
 10
174.7499999999998863
 20
35.1999999999999886
 30
0.0
 11
170.7499999999998863
 21
35.1999999999999886
 31
0.0
  0
ENDSEC
  0
EOF
