  0
SECTION
  2
HEADER
  9
$ACADVER
  1
AC1009
  9
$INSBASE
 10
0.0
 20
0.0
 30
0.0
  9
$EXTMIN
 10
0.0
 20
-2.960436562073669
 30
0.0
  9
$EXTMAX
 10
548.25
 20
210.2000000000003013
 30
0.0
  9
$LIMMIN
 10
0.0
 20
0.0
  9
$LIMMAX
 10
187.5
 20
135.0
  9
$ORTHOMODE
 70
     1
  9
$REGENMODE
 70
     1
  9
$FILLMODE
 70
     1
  9
$QTEXTMODE
 70
     0
  9
$MIRRTEXT
 70
     0
  9
$DRAGMODE
 70
     2
  9
$LTSCALE
 40
10.0
  9
$OSMODE
 70
    37
  9
$ATTMODE
 70
     1
  9
$TEXTSIZE
 40
0.2
  9
$TRACEWID
 40
0.05
  9
$TEXTSTYLE
  7
STANDARD
  9
$CLAYER
  8
0
  9
$CELTYPE
  6
BYLAYER
  9
$CECOLOR
 62
   256
  9
$DIMSCALE
 40
1.0
  9
$DIMASZ
 40
3.0
  9
$DIMEXO
 40
2.0
  9
$DIMDLI
 40
0.38
  9
$DIMRND
 40
0.0
  9
$DIMDLE
 40
0.0
  9
$DIMEXE
 40
2.0
  9
$DIMTP
 40
0.0
  9
$DIMTM
 40
0.0
  9
$DIMTXT
 40
3.2000000000000002
  9
$DIMCEN
 40
0.0
  9
$DIMTSZ
 40
0.0
  9
$DIMTOL
 70
     0
  9
$DIMLIM
 70
     0
  9
$DIMTIH
 70
     0
  9
$DIMTOH
 70
     0
  9
$DIMSE1
 70
     0
  9
$DIMSE2
 70
     0
  9
$DIMTAD
 70
     1
  9
$DIMZIN
 70
     0
  9
$DIMBLK
  1

  9
$DIMASO
 70
     0
  9
$DIMSHO
 70
     0
  9
$DIMPOST
  1

  9
$DIMAPOST
  1

  9
$DIMALT
 70
     0
  9
$DIMALTD
 70
     2
  9
$DIMALTF
 40
25.3999999999999986
  9
$DIMLFAC
 40
1.0
  9
$DIMTOFL
 70
     1
  9
$DIMTVP
 40
1.6000000000000001
  9
$DIMTIX
 70
     1
  9
$DIMSOXD
 70
     0
  9
$DIMSAH
 70
     0
  9
$DIMBLK1
  1

  9
$DIMBLK2
  1

  9
$DIMSTYLE
  2
STANDARD
  9
$DIMCLRD
 70
     0
  9
$DIMCLRE
 70
     0
  9
$DIMCLRT
 70
     0
  9
$DIMTFAC
 40
1.0
  9
$DIMGAP
 40
0.09
  9
$LUNITS
 70
     2
  9
$LUPREC
 70
     1
  9
$SKETCHINC
 40
0.1
  9
$FILLETRAD
 40
0.0
  9
$AUNITS
 70
     0
  9
$AUPREC
 70
     1
  9
$MENU
  1
E:\r13\win\SUPPORT\ACAD
  9
$ELEVATION
 40
0.0
  9
$PELEVATION
 40
0.0
  9
$THICKNESS
 40
0.0
  9
$LIMCHECK
 70
     0
  9
$BLIPMODE
 70
     0
  9
$CHAMFERA
 40
0.0
  9
$CHAMFERB
 40
0.0
  9
$SKPOLY
 70
     0
  9
$TDCREATE
 40
2449839.773298610933125
  9
$TDUPDATE
 40
2460696.46011574100703
  9
$TDINDWG
 40
0.1782076505
  9
$TDUSRTIMER
 40
0.1782076505
  9
$USRTIMER
 70
     1
  9
$ANGBASE
 50
0.0
  9
$ANGDIR
 70
     0
  9
$PDMODE
 70
     0
  9
$PDSIZE
 40
0.0
  9
$PLINEWID
 40
0.0
  9
$COORDS
 70
     1
  9
$SPLFRAME
 70
     0
  9
$SPLINETYPE
 70
     6
  9
$SPLINESEGS
 70
     8
  9
$ATTDIA
 70
     1
  9
$ATTREQ
 70
     1
  9
$HANDLING
 70
     1
  9
$HANDSEED
  5
1B2F
  9
$SURFTAB1
 70
     6
  9
$SURFTAB2
 70
     6
  9
$SURFTYPE
 70
     6
  9
$SURFU
 70
     6
  9
$SURFV
 70
     6
  9
$UCSNAME
  2

  9
$UCSORG
 10
0.0
 20
0.0
 30
0.0
  9
$UCSXDIR
 10
1.0
 20
0.0
 30
0.0
  9
$UCSYDIR
 10
0.0
 20
1.0
 30
0.0
  9
$PUCSNAME
  2

  9
$PUCSORG
 10
0.0
 20
0.0
 30
0.0
  9
$PUCSXDIR
 10
1.0
 20
0.0
 30
0.0
  9
$PUCSYDIR
 10
0.0
 20
1.0
 30
0.0
  9
$USERI1
 70
     0
  9
$USERI2
 70
     1
  9
$USERI3
 70
     0
  9
$USERI4
 70
     0
  9
$USERI5
 70
     0
  9
$USERR1
 40
0.0
  9
$USERR2
 40
0.0
  9
$USERR3
 40
0.0
  9
$USERR4
 40
0.0
  9
$USERR5
 40
0.0
  9
$WORLDVIEW
 70
     1
  9
$SHADEDGE
 70
     3
  9
$SHADEDIF
 70
    70
  9
$TILEMODE
 70
     1
  9
$MAXACTVP
 70
    16
  9
$PLIMCHECK
 70
     0
  9
$PEXTMIN
 10
1.0000000000000000E+20
 20
1.0000000000000000E+20
 30
1.0000000000000000E+20
  9
$PEXTMAX
 10
-1.0000000000000000E+20
 20
-1.0000000000000000E+20
 30
-1.0000000000000000E+20
  9
$PLIMMIN
 10
0.0
 20
0.0
  9
$PLIMMAX
 10
12.0
 20
9.0
  9
$UNITMODE
 70
     0
  9
$VISRETAIN
 70
     0
  9
$PLINEGEN
 70
     0
  9
$PSLTSCALE
 70
     0
  0
ENDSEC
  0
SECTION
  2
TABLES
  0
TABLE
  2
VPORT
 70
     1
  0
VPORT
  2
*ACTIVE
 70
     0
 10
0.0
 20
0.0
 11
1.0
 21
1.0
 12
556.6528066528064755
 22
237.0225899329203116
 13
0.0
 23
0.0
 14
5.0
 24
5.0
 15
5.0
 25
5.0
 16
0.0
 26
0.0
 36
1.0
 17
0.0
 27
0.0
 37
0.0
 40
474.0451798658405096
 41
2.3485221674876842
 42
50.0
 43
0.0
 44
0.0
 50
0.0
 51
0.0
 71
     0
 72
   500
 73
     1
 74
     0
 75
     0
 76
     0
 77
     0
 78
     2
  0
ENDTAB
  0
TABLE
  2
LTYPE
 70
     2
  0
LTYPE
  2
CONTINUOUS
 70
     0
  3
Solid Line
 72
    65
 73
     0
 40
0.0
  0
LTYPE
  2
CENTER
 70
     0
  3
____ _ ____ _ ____ _ ____ _ ____ _ ____ _ ____
 72
    65
 73
     4
 40
2.0
 49
1.25
 49
-0.25
 49
0.25
 49
-0.25
  0
ENDTAB
  0
TABLE
  2
LAYER
 70
     3
  0
LAYER
  2
0
 70
     0
 62
     7
  6
CONTINUOUS
  0
LAYER
  2
1
 70
     0
 62
     1
  6
CENTER
  0
LAYER
  2
3
 70
     0
 62
     3
  6
CONTINUOUS
  0
ENDTAB
  0
TABLE
  2
STYLE
 70
     2
  0
STYLE
  2
STANDARD
 70
     0
 40
0.0
 41
1.0
 50
0.0
 71
     0
 42
0.2
  3
TXT
  4
BIGFONT
  0
STYLE
  2
STANDARD1
 70
     0
 40
0.0
 41
1.0
 50
0.0
 71
     0
 42
3.0
  3
txt
  4

  0
ENDTAB
  0
TABLE
  2
VIEW
 70
     1
  0
VIEW
  2
ALL
 70
     0
 40
270.0
 10
220.9915966386554942
 20
135.0
 41
0.0
 11
0.0
 21
0.0
 31
1.0
 12
0.0
 22
0.0
 32
0.0
 42
0.0
 43
0.0
 44
0.0
 50
0.0
 71
     0
  0
ENDTAB
  0
TABLE
  2
UCS
 70
     0
  0
ENDTAB
  0
TABLE
  2
APPID
 70
     6
  0
APPID
  2
ACAD
 70
     0
  0
APPID
  2
ACAD_DSTYLE_DIMJAG
 70
     0
  0
APPID
  2
ACAD_DSTYLE_DIMTALN
 70
     0
  0
APPID
  2
ACAD_EXEMPT_FROM_CAD_STANDARDS
 70
     0
  0
APPID
  2
ACAD_MLEADERVER
 70
     0
  0
APPID
  2
ACAD_NAV_VCDISPLAY
 70
     0
  0
ENDTAB
  0
TABLE
  2
DIMSTYLE
 70
     1
  0
DIMSTYLE
  2
STANDARD
 70
     0
  3

  4

  5

  6

  7

 40
1.0
 41
0.18
 42
0.0625
 43
0.38
 44
0.18
 45
0.0
 46
0.0
 47
0.0
 48
0.0
140
0.18
141
0.09
142
0.0
143
25.3999999999999986
144
1.0
145
0.0
146
1.0
147
0.09
 71
     0
 72
     0
 73
     1
 74
     1
 75
     0
 76
     0
 77
     0
 78
     0
170
     0
171
     2
172
     0
173
     0
174
     0
175
     0
176
     0
177
     0
178
     0
  0
ENDTAB
  0
ENDSEC
  0
SECTION
  2
BLOCKS
  0
BLOCK
  8
0
  2
$MODEL_SPACE
 70
     0
 10
0.0
 20
0.0
 30
0.0
  3
$MODEL_SPACE
  1

  0
ENDBLK
  5
1D4
  8
0
  0
BLOCK
 67
     1
  8
0
  2
$PAPER_SPACE
 70
     0
 10
0.0
 20
0.0
 30
0.0
  3
$PAPER_SPACE
  1

  0
ENDBLK
  5
1D2
 67
     1
  8
0
  0
ENDSEC
  0
SECTION
  2
ENTITIES
  0
TEXT
  5
678
  8
0
 62
     3
 10
0.0
 20
0.0
 30
0.0
 40
10.0
  1
IMG160-TRIG-DS
  7
STANDARD1
  0
ARC
  5
E4D
  8
0
 10
172.0
 20
184.0000000000003979
 30
0.0
 40
2.0000000000003348
 50
316.3542432789295162
 51
223.6457567210794934
  0
ARC
  5
E4E
  8
0
 10
132.0
 20
184.0000000000003979
 30
0.0
 40
2.0000000000003348
 50
316.3542432789295162
 51
223.6457567210842967
  0
ARC
  5
E4F
  8
0
 10
100.0
 20
184.000000000000199
 30
0.0
 40
2.0000000000003348
 50
316.3542432789295162
 51
223.6457567210794934
  0
ARC
  5
E50
  8
0
 10
28.0
 20
193.4000000000000909
 30
0.0
 40
2.0000000000003348
 50
136.3542432789203929
 51
43.6457567210705335
  0
ARC
  5
E51
  8
0
 10
44.0
 20
193.4000000000000909
 30
0.0
 40
2.0000000000003348
 50
136.3542432789203929
 51
43.6457567210705335
  0
ARC
  5
E52
  8
0
 10
84.0
 20
193.4000000000002899
 30
0.0
 40
2.0000000000003348
 50
136.3542432789203929
 51
43.6457567210705335
  0
ARC
  5
E53
  8
0
 10
132.0
 20
193.4000000000004889
 30
0.0
 40
2.0000000000003348
 50
136.3542432789203929
 51
43.6457567210705335
  0
CIRCLE
  5
E54
  8
0
 10
144.0
 20
188.7000000000001876
 30
0.0
 40
8.5
  0
ARC
  5
E55
  8
0
 10
116.0
 20
184.0000000000003979
 30
0.0
 40
2.0000000000004921
 50
316.3542432789295162
 51
223.6457567210842967
  0
ARC
  5
E56
  8
0
 10
68.0
 20
193.4000000000002899
 30
0.0
 40
2.0000000000003348
 50
136.3542432789203929
 51
43.6457567210705335
  0
CIRCLE
  5
E57
  8
0
 10
56.0000000000009095
 20
188.6999999999999886
 30
0.0
 40
8.5000000000009095
  0
ARC
  5
E58
  8
0
 10
116.0
 20
193.4000000000002899
 30
0.0
 40
2.0000000000004921
 50
136.3542432789157033
 51
43.6457567210750526
  0
ARC
  5
E59
  8
0
 10
28.0
 20
184.0
 30
0.0
 40
2.0000000000003348
 50
316.3542432789295162
 51
223.6457567210794934
  0
ARC
  5
E5A
  8
0
 10
84.0
 20
184.000000000000199
 30
0.0
 40
2.0000000000003348
 50
316.3542432789295162
 51
223.6457567210794934
  0
ARC
  5
E5B
  8
0
 10
44.0
 20
184.0
 30
0.0
 40
2.0000000000003348
 50
316.3542432789295162
 51
223.6457567210794934
  0
ARC
  5
E5C
  8
0
 10
68.0
 20
184.000000000000199
 30
0.0
 40
2.0000000000003348
 50
316.3542432789295162
 51
223.6457567210842967
  0
ARC
  5
E5D
  8
0
 10
172.0
 20
193.4000000000004889
 30
0.0
 40
2.0000000000003348
 50
136.3542432789203929
 51
43.6457567210705335
  0
ARC
  5
E5E
  8
0
 10
100.0
 20
193.4000000000002899
 30
0.0
 40
2.0000000000003348
 50
136.3542432789203929
 51
43.6457567210705335
  0
ARC
  5
E5F
  8
0
 10
156.0
 20
184.0000000000003979
 30
0.0
 40
2.0000000000003348
 50
316.3542432789295162
 51
223.6457567210794934
  0
ARC
  5
E60
  8
0
 10
156.0
 20
193.4000000000004889
 30
0.0
 40
2.0000000000003348
 50
136.3542432789203929
 51
43.6457567210705335
  0
LINE
  5
E61
  8
0
 10
38.8463977066221631
 20
176.2000000000001876
 30
0.0
 11
42.5527582066988472
 21
182.6196046972982003
 31
0.0
  0
LINE
  5
E62
  8
0
 10
33.1536022933778369
 20
201.1999999999999886
 30
0.0
 11
29.4472417933020587
 21
194.7803953027018906
 31
0.0
  0
LINE
  5
E63
  8
0
 10
26.5527582066988508
 20
194.7803953027018906
 30
0.0
 11
22.8463977066221595
 21
201.1999999999999886
 31
0.0
  0
LINE
  5
E64
  8
0
 10
49.1536022933778369
 20
201.1999999999999886
 30
0.0
 11
45.4472417933020481
 21
194.7803953027018906
 31
0.0
  0
LINE
  5
E65
  8
0
 10
126.8463977066220991
 20
176.2000000000005002
 30
0.0
 11
130.5527582066987975
 21
182.6196046972983993
 31
0.0
  0
LINE
  5
E66
  8
0
 10
110.8463977066220991
 20
176.2000000000005002
 30
0.0
 11
114.5527582066987975
 21
182.6196046972983993
 31
0.0
  0
LINE
  5
E67
  8
0
 10
73.153602293377844
 20
201.1999999999999886
 30
0.0
 11
69.4472417933020552
 21
194.7803953027020896
 31
0.0
  0
LINE
  5
E68
  8
0
 10
82.5527582066988543
 20
194.7803953027020896
 30
0.0
 11
78.846397706622156
 21
201.2000000000003013
 31
0.0
  0
LINE
  5
E69
  8
0
 10
179.25
 20
201.1999999999999886
 30
0.0
 11
20.75
 21
201.1999999999999886
 31
0.0
  0
LINE
  5
E6A
  8
0
 10
94.846397706622156
 20
176.2000000000001876
 30
0.0
 11
98.5527582066988543
 21
182.6196046972983993
 31
0.0
  0
LINE
  5
E6B
  8
0
 10
42.5527582066988472
 20
194.7803953027018906
 30
0.0
 11
38.8463977066221631
 21
201.1999999999999886
 31
0.0
  0
LINE
  5
E6C
  8
0
 10
22.8463977066221595
 20
176.1999999999999886
 30
0.0
 11
26.5527582066988508
 21
182.6196046972982003
 31
0.0
  0
LINE
  5
E6D
  8
0
 10
78.846397706622156
 20
176.2000000000001876
 30
0.0
 11
82.5527582066988543
 21
182.6196046972983993
 31
0.0
  0
LINE
  5
E6E
  8
0
 10
66.5527582066988543
 20
194.7803953027020896
 30
0.0
 11
62.8463977066221631
 21
201.1999999999999886
 31
0.0
  0
LINE
  5
E6F
  8
0
 10
62.8463977066221631
 20
176.2000000000001876
 30
0.0
 11
66.5527582066988543
 21
182.6196046972982003
 31
0.0
  0
LINE
  5
E70
  8
0
 10
173.4472417933019983
 20
182.6196046972985982
 30
0.0
 11
177.1536022933777872
 21
176.2000000000006992
 31
0.0
  0
LINE
  5
E71
  8
0
 10
20.75
 20
176.1999999999999886
 30
0.0
 11
179.25
 21
176.1999999999999886
 31
0.0
  0
LINE
  5
E72
  8
0
 10
166.8463977066220991
 20
176.2000000000005002
 30
0.0
 11
170.5527582066987975
 21
182.6196046972985982
 31
0.0
  0
LINE
  5
E73
  8
0
 10
157.4472417933019983
 20
182.6196046972985982
 30
0.0
 11
161.1536022933777872
 21
176.2000000000005002
 31
0.0
  0
LINE
  5
E74
  8
0
 10
29.4472417933020587
 20
182.6196046972982003
 30
0.0
 11
33.1536022933778369
 21
176.1999999999999886
 31
0.0
  0
LINE
  5
E75
  8
0
 10
150.8463977066220991
 20
176.2000000000005002
 30
0.0
 11
154.5527582066987975
 21
182.6196046972985982
 31
0.0
  0
LINE
  5
E76
  8
0
 10
133.4472417933019983
 20
182.6196046972985982
 30
0.0
 11
137.1536022933777872
 21
176.2000000000005002
 31
0.0
  0
LINE
  5
E77
  8
0
 10
89.153602293377844
 20
201.2000000000003013
 30
0.0
 11
85.4472417933020552
 21
194.7803953027020896
 31
0.0
  0
LINE
  5
E78
  8
0
 10
98.5527582066988543
 20
194.7803953027020896
 30
0.0
 11
94.846397706622156
 21
201.2000000000003013
 31
0.0
  0
LINE
  5
E79
  8
0
 10
117.4472417933019983
 20
182.6196046972983993
 30
0.0
 11
121.1536022933778014
 21
176.2000000000005002
 31
0.0
  0
LINE
  5
E7A
  8
0
 10
105.1536022933778014
 20
201.2000000000003013
 30
0.0
 11
101.4472417933019983
 21
194.7803953027020896
 31
0.0
  0
LINE
  5
E7B
  8
0
 10
114.5527582066987975
 20
194.7803953027022885
 30
0.0
 11
110.8463977066220991
 21
201.2000000000005002
 31
0.0
  0
LINE
  5
E7C
  8
0
 10
101.4472417933019983
 20
182.6196046972983993
 30
0.0
 11
105.1536022933778014
 21
176.2000000000005002
 31
0.0
  0
LINE
  5
E7D
  8
0
 10
121.1536022933778014
 20
201.2000000000005002
 30
0.0
 11
117.4472417933019983
 21
194.7803953027022885
 31
0.0
  0
LINE
  5
E7E
  8
0
 10
130.5527582066987975
 20
194.7803953027022885
 30
0.0
 11
126.8463977066220991
 21
201.2000000000005002
 31
0.0
  0
LINE
  5
E7F
  8
0
 10
85.4472417933020552
 20
182.6196046972983993
 30
0.0
 11
89.153602293377844
 21
176.2000000000001876
 31
0.0
  0
LINE
  5
E80
  8
0
 10
137.1536022933777872
 20
201.2000000000005002
 30
0.0
 11
133.4472417933019983
 21
194.7803953027022885
 31
0.0
  0
LINE
  5
E81
  8
0
 10
154.5527582066987975
 20
194.7803953027022885
 30
0.0
 11
150.8463977066220991
 21
201.2000000000005002
 31
0.0
  0
LINE
  5
E82
  8
0
 10
69.4472417933020552
 20
182.6196046972983993
 30
0.0
 11
73.153602293377844
 21
176.2000000000001876
 31
0.0
  0
LINE
  5
E83
  8
0
 10
161.1536022933769061
 20
201.2000000000005002
 30
0.0
 11
157.4472417933019983
 21
194.7803953027022885
 31
0.0
  0
LINE
  5
E84
  8
0
 10
170.5527582066987975
 20
194.7803953027022885
 30
0.0
 11
166.8463977066220991
 21
201.2000000000005002
 31
0.0
  0
LINE
  5
E85
  8
0
 10
45.4472417933020481
 20
182.6196046972982003
 30
0.0
 11
49.1536022933778369
 21
176.2000000000001876
 31
0.0
  0
LINE
  5
E86
  8
0
 10
177.1536022933769061
 20
201.2000000000005002
 30
0.0
 11
173.4472417933019983
 21
194.7803953027022885
 31
0.0
  0
CIRCLE
  5
E87
  8
3
 10
172.0
 20
179.4499999998782016
 30
0.0
 40
1.5
  0
CIRCLE
  5
E88
  8
3
 10
156.0
 20
197.9500000000375906
 30
0.0
 40
1.5
  0
CIRCLE
  5
E89
  8
3
 10
156.0
 20
179.4499999998782016
 30
0.0
 40
1.5
  0
CIRCLE
  5
E8A
  8
3
 10
172.0
 20
197.9500000000375906
 30
0.0
 40
1.5
  0
CIRCLE
  5
E8B
  8
3
 10
28.0
 20
197.9500000000371074
 30
0.0
 40
1.5
  0
CIRCLE
  5
E8C
  8
3
 10
132.0
 20
197.9500000000373063
 30
0.0
 40
1.5
  0
CIRCLE
  5
E8D
  8
3
 10
132.0
 20
179.449999999877889
 30
0.0
 40
1.5
  0
CIRCLE
  5
E8E
  8
3
 10
44.0
 20
197.9500000000371074
 30
0.0
 40
1.5
  0
CIRCLE
  5
E8F
  8
3
 10
68.0
 20
197.9500000000371074
 30
0.0
 40
1.5
  0
CIRCLE
  5
E90
  8
3
 10
44.0
 20
179.44999999987769
 30
0.0
 40
1.5
  0
CIRCLE
  5
E91
  8
3
 10
116.0
 20
197.9500000000373063
 30
0.0
 40
1.5
  0
CIRCLE
  5
E92
  8
3
 10
84.0
 20
197.9500000000371074
 30
0.0
 40
1.5
  0
CIRCLE
  5
E93
  8
3
 10
100.0
 20
179.4500000000005002
 30
0.0
 40
1.5
  0
CIRCLE
  5
E94
  8
3
 10
116.0
 20
179.449999999877889
 30
0.0
 40
1.5
  0
CIRCLE
  5
E95
  8
3
 10
28.0
 20
179.44999999987769
 30
0.0
 40
1.5
  0
CIRCLE
  5
E96
  8
3
 10
84.0
 20
179.44999999987769
 30
0.0
 40
1.5
  0
CIRCLE
  5
E97
  8
3
 10
68.0
 20
179.44999999987769
 30
0.0
 40
1.5
  0
CIRCLE
  5
E98
  8
3
 10
100.0
 20
197.9500000000003013
 30
0.0
 40
1.5
  0
LINE
  5
E99
  8
0
 10
20.75
 20
172.1999999999999886
 30
0.0
 11
179.25
 21
172.2000000000005002
 31
0.0
  0
LINE
  5
E9A
  8
0
 10
20.75
 20
205.1999999999999886
 30
0.0
 11
20.75
 21
172.1999999999999886
 31
0.0
  0
LINE
  5
E9B
  8
0
 10
179.25
 20
205.2000000000005002
 30
0.0
 11
179.25
 21
172.2000000000005002
 31
0.0
  0
LINE
  5
E9C
  8
0
 10
20.75
 20
205.1999999999999886
 30
0.0
 11
179.25
 21
205.2000000000005002
 31
0.0
  0
LINE
  5
E9D
  8
0
 10
179.25
 20
132.1999999999999886
 30
0.0
 11
179.25
 21
88.7000000000000455
 31
0.0
  0
LINE
  5
E9E
  8
0
 10
20.75
 20
95.0
 30
0.0
 11
179.25
 21
95.0
 31
0.0
  0
LINE
  5
E9F
  8
0
 10
20.75
 20
132.1999999999999886
 30
0.0
 11
20.75
 21
88.7000000000000455
 31
0.0
  0
LINE
  5
EA0
  8
0
 10
20.75
 20
128.6999999999999886
 30
0.0
 11
179.25
 21
128.6999999999999886
 31
0.0
  0
LINE
  5
EA1
  8
0
 10
20.75
 20
132.1999999999999886
 30
0.0
 11
179.25
 21
132.1999999999999886
 31
0.0
  0
LINE
  5
EA2
  8
0
 10
22.8463977066221595
 20
132.1999999999999886
 30
0.0
 11
22.5180722842778813
 21
128.9499999999999886
 31
0.0
  0
LINE
  5
EA3
  8
0
 10
22.5180722842778813
 20
128.9499999999999886
 30
0.0
 11
33.4819277157230317
 21
128.9499999999999886
 31
0.0
  0
LINE
  5
EA4
  8
0
 10
33.4819277157230317
 20
128.9499999999999886
 30
0.0
 11
33.1536022933778369
 21
132.1999999999999886
 31
0.0
  0
LINE
  5
EA5
  8
0
 10
38.8463977066221631
 20
132.1999999999999886
 30
0.0
 11
38.5180722842778778
 21
128.9499999999999886
 31
0.0
  0
LINE
  5
EA6
  8
0
 10
38.5180722842778778
 20
128.9499999999999886
 30
0.0
 11
49.4819277157230317
 21
128.9499999999999886
 31
0.0
  0
LINE
  5
EA7
  8
0
 10
49.4819277157230317
 20
128.9499999999999886
 30
0.0
 11
49.1536022933778369
 21
132.1999999999999886
 31
0.0
  0
LINE
  5
EA8
  8
0
 10
62.8463977066221631
 20
132.1999999999999886
 30
0.0
 11
62.5180722842778778
 21
128.9499999999999886
 31
0.0
  0
LINE
  5
EA9
  8
0
 10
62.5180722842778778
 20
128.9499999999999886
 30
0.0
 11
73.4819277157230317
 21
128.9499999999999886
 31
0.0
  0
LINE
  5
EAA
  8
0
 10
73.4819277157230317
 20
128.9499999999999886
 30
0.0
 11
73.153602293377844
 21
132.1999999999999886
 31
0.0
  0
LINE
  5
EAB
  8
0
 10
78.846397706622156
 20
132.1999999999999886
 30
0.0
 11
78.5180722842778636
 21
128.9499999999999886
 31
0.0
  0
LINE
  5
EAC
  8
0
 10
78.5180722842778636
 20
128.9499999999999886
 30
0.0
 11
89.4819277157230317
 21
128.9499999999999886
 31
0.0
  0
LINE
  5
EAD
  8
0
 10
89.4819277157230317
 20
128.9499999999999886
 30
0.0
 11
89.153602293377844
 21
132.1999999999999886
 31
0.0
  0
LINE
  5
EAE
  8
0
 10
94.846397706622156
 20
132.1999999999999886
 30
0.0
 11
94.5180722842778636
 21
128.9499999999999886
 31
0.0
  0
LINE
  5
EAF
  8
0
 10
94.5180722842778636
 20
128.9499999999999886
 30
0.0
 11
105.4819277157230033
 21
128.9499999999999886
 31
0.0
  0
LINE
  5
EB0
  8
0
 10
105.4819277157230033
 20
128.9499999999999886
 30
0.0
 11
105.1536022933778014
 21
132.1999999999999886
 31
0.0
  0
LINE
  5
EB1
  8
0
 10
110.8463977066220991
 20
132.1999999999999886
 30
0.0
 11
110.5180722842779062
 21
128.9499999999999886
 31
0.0
  0
LINE
  5
EB2
  8
0
 10
110.5180722842779062
 20
128.9499999999999886
 30
0.0
 11
121.4819277157230033
 21
128.9499999999999886
 31
0.0
  0
LINE
  5
EB3
  8
0
 10
121.4819277157230033
 20
128.9499999999999886
 30
0.0
 11
121.1536022933778014
 21
132.1999999999999886
 31
0.0
  0
LINE
  5
EB4
  8
0
 10
126.8463977066220991
 20
132.1999999999999886
 30
0.0
 11
126.5180722842778067
 21
128.9499999999999886
 31
0.0
  0
LINE
  5
EB5
  8
0
 10
126.5180722842778067
 20
128.9499999999999886
 30
0.0
 11
137.4819277157230033
 21
128.9499999999999886
 31
0.0
  0
LINE
  5
EB6
  8
0
 10
137.4819277157230033
 20
128.9499999999999886
 30
0.0
 11
137.1536022933777872
 21
132.1999999999999886
 31
0.0
  0
LINE
  5
EB7
  8
0
 10
150.8463977066220991
 20
132.1999999999999886
 30
0.0
 11
150.5180722842777925
 21
128.9499999999999886
 31
0.0
  0
LINE
  5
EB8
  8
0
 10
150.5180722842777925
 20
128.9499999999999886
 30
0.0
 11
161.4819277157230033
 21
128.9499999999999886
 31
0.0
  0
LINE
  5
EB9
  8
0
 10
161.4819277157230033
 20
128.9499999999999886
 30
0.0
 11
161.1536022933777872
 21
132.1999999999999886
 31
0.0
  0
LINE
  5
EBA
  8
0
 10
166.8463977066220991
 20
132.1999999999999886
 30
0.0
 11
166.5180722842779062
 21
128.9499999999999886
 31
0.0
  0
LINE
  5
EBB
  8
0
 10
166.5180722842779062
 20
128.9499999999999886
 30
0.0
 11
177.4819277157230033
 21
128.9499999999999886
 31
0.0
  0
LINE
  5
EBC
  8
0
 10
177.4819277157230033
 20
128.9499999999999886
 30
0.0
 11
177.1536022933777872
 21
132.1999999999999886
 31
0.0
  0
POLYLINE
  5
EBD
  8
0
 10
157.6397285518246747
 20
128.9500000000087709
 30
0.0
 66
     1
 70
     8
  0
VERTEX
  8
0
  5
120B
 10
157.640
 20
128.950
 30
0.00000
  70
    32
  0
VERTEX
  8
0
  5
120C
 10
157.638
 20
128.975
 30
0.00000
  70
    32
  0
VERTEX
  8
0
  5
120D
 10
157.637
 20
128.999
 30
0.00000
  70
    32
  0
VERTEX
  8
0
  5
120E
 10
157.636
 20
129.024
 30
0.00000
  70
    32
  0
VERTEX
  8
0
  5
120F
 10
157.634
 20
129.049
 30
0.00000
  70
    32
  0
VERTEX
  8
0
  5
1210
 10
157.633
 20
129.073
 30
0.00000
  70
    32
  0
VERTEX
  8
0
  5
1211
 10
157.632
 20
129.098
 30
0.00000
  70
    32
  0
VERTEX
  8
0
  5
1212
 10
157.630
 20
129.123
 30
0.00000
  70
    32
  0
VERTEX
  8
0
  5
1213
 10
157.629
 20
129.147
 30
0.00000
  70
    32
  0
VERTEX
  8
0
  5
1214
 10
157.627
 20
129.172
 30
0.00000
  70
    32
  0
VERTEX
  8
0
  5
1215
 10
157.626
 20
129.197
 30
0.00000
  70
    32
  0
VERTEX
  8
0
  5
1216
 10
157.625
 20
129.222
 30
0.00000
  70
    32
  0
VERTEX
  8
0
  5
1217
 10
157.623
 20
129.246
 30
0.00000
  70
    32
  0
VERTEX
  8
0
  5
1218
 10
157.622
 20
129.271
 30
0.00000
  70
    32
  0
VERTEX
  8
0
  5
1219
 10
157.620
 20
129.296
 30
0.00000
  70
    32
  0
VERTEX
  8
0
  5
121A
 10
157.619
 20
129.321
 30
0.00000
  70
    32
  0
VERTEX
  8
0
  5
121B
 10
157.618
 20
129.346
 30
0.00000
  70
    32
  0
VERTEX
  8
0
  5
121C
 10
157.616
 20
129.370
 30
0.00000
  70
    32
  0
VERTEX
  8
0
  5
121D
 10
157.615
 20
129.395
 30
0.00000
  70
    32
  0
VERTEX
  8
0
  5
121E
 10
157.613
 20
129.420
 30
0.00000
  70
    32
  0
VERTEX
  8
0
  5
121F
 10
157.612
 20
129.445
 30
0.00000
  70
    32
  0
VERTEX
  8
0
  5
1220
 10
157.611
 20
129.470
 30
0.00000
  70
    32
  0
VERTEX
  8
0
  5
1221
 10
157.609
 20
129.495
 30
0.00000
  70
    32
  0
VERTEX
  8
0
  5
1222
 10
157.608
 20
129.520
 30
0.00000
  70
    32
  0
VERTEX
  8
0
  5
1223
 10
157.606
 20
129.545
 30
0.00000
  70
    32
  0
VERTEX
  8
0
  5
1224
 10
157.605
 20
129.569
 30
0.00000
  70
    32
  0
VERTEX
  8
0
  5
1225
 10
157.604
 20
129.594
 30
0.00000
  70
    32
  0
VERTEX
  8
0
  5
1226
 10
157.602
 20
129.619
 30
0.00000
  70
    32
  0
VERTEX
  8
0
  5
1227
 10
157.601
 20
129.644
 30
0.00000
  70
    32
  0
VERTEX
  8
0
  5
1228
 10
157.599
 20
129.669
 30
0.00000
  70
    32
  0
VERTEX
  8
0
  5
1229
 10
157.598
 20
129.694
 30
0.00000
  70
    32
  0
VERTEX
  8
0
  5
122A
 10
157.596
 20
129.719
 30
0.00000
  70
    32
  0
VERTEX
  8
0
  5
122B
 10
157.595
 20
129.744
 30
0.00000
  70
    32
  0
VERTEX
  8
0
  5
122C
 10
157.594
 20
129.769
 30
0.00000
  70
    32
  0
VERTEX
  8
0
  5
122D
 10
157.592
 20
129.794
 30
0.00000
  70
    32
  0
VERTEX
  8
0
  5
122E
 10
157.591
 20
129.820
 30
0.00000
  70
    32
  0
VERTEX
  8
0
  5
122F
 10
157.589
 20
129.845
 30
0.00000
  70
    32
  0
VERTEX
  8
0
  5
1230
 10
157.588
 20
129.870
 30
0.00000
  70
    32
  0
VERTEX
  8
0
  5
1231
 10
157.586
 20
129.895
 30
0.00000
  70
    32
  0
VERTEX
  8
0
  5
1232
 10
157.585
 20
129.920
 30
0.00000
  70
    32
  0
VERTEX
  8
0
  5
1233
 10
157.583
 20
129.945
 30
0.00000
  70
    32
  0
VERTEX
  8
0
  5
1234
 10
157.582
 20
129.970
 30
0.00000
  70
    32
  0
VERTEX
  8
0
  5
1235
 10
157.581
 20
129.995
 30
0.00000
  70
    32
  0
VERTEX
  8
0
  5
1236
 10
157.579
 20
130.020
 30
0.00000
  70
    32
  0
VERTEX
  8
0
  5
1237
 10
157.578
 20
130.046
 30
0.00000
  70
    32
  0
VERTEX
  8
0
  5
1238
 10
157.576
 20
130.071
 30
0.00000
  70
    32
  0
VERTEX
  8
0
  5
1239
 10
157.575
 20
130.096
 30
0.00000
  70
    32
  0
VERTEX
  8
0
  5
123A
 10
157.573
 20
130.121
 30
0.00000
  70
    32
  0
VERTEX
  8
0
  5
123B
 10
157.572
 20
130.146
 30
0.00000
  70
    32
  0
VERTEX
  8
0
  5
123C
 10
157.570
 20
130.172
 30
0.00000
  70
    32
  0
VERTEX
  8
0
  5
123D
 10
157.569
 20
130.197
 30
0.00000
  70
    32
  0
VERTEX
  8
0
  5
123E
 10
157.567
 20
130.222
 30
0.00000
  70
    32
  0
VERTEX
  8
0
  5
123F
 10
157.566
 20
130.247
 30
0.00000
  70
    32
  0
VERTEX
  8
0
  5
1240
 10
157.564
 20
130.273
 30
0.00000
  70
    32
  0
VERTEX
  8
0
  5
1241
 10
157.563
 20
130.298
 30
0.00000
  70
    32
  0
VERTEX
  8
0
  5
1242
 10
157.561
 20
130.323
 30
0.00000
  70
    32
  0
VERTEX
  8
0
  5
1243
 10
157.560
 20
130.349
 30
0.00000
  70
    32
  0
VERTEX
  8
0
  5
1244
 10
157.558
 20
130.374
 30
0.00000
  70
    32
  0
VERTEX
  8
0
  5
1245
 10
157.557
 20
130.399
 30
0.00000
  70
    32
  0
VERTEX
  8
0
  5
1246
 10
157.555
 20
130.425
 30
0.00000
  70
    32
  0
VERTEX
  8
0
  5
1247
 10
157.554
 20
130.450
 30
0.00000
  70
    32
  0
VERTEX
  8
0
  5
1248
 10
157.552
 20
130.475
 30
0.00000
  70
    32
  0
VERTEX
  8
0
  5
1249
 10
157.551
 20
130.501
 30
0.00000
  70
    32
  0
VERTEX
  8
0
  5
124A
 10
157.549
 20
130.526
 30
0.00000
  70
    32
  0
VERTEX
  8
0
  5
124B
 10
157.548
 20
130.552
 30
0.00000
  70
    32
  0
VERTEX
  8
0
  5
124C
 10
157.546
 20
130.577
 30
0.00000
  70
    32
  0
VERTEX
  8
0
  5
124D
 10
157.545
 20
130.602
 30
0.00000
  70
    32
  0
VERTEX
  8
0
  5
124E
 10
157.543
 20
130.628
 30
0.00000
  70
    32
  0
VERTEX
  8
0
  5
124F
 10
157.542
 20
130.653
 30
0.00000
  70
    32
  0
VERTEX
  8
0
  5
1250
 10
157.540
 20
130.679
 30
0.00000
  70
    32
  0
VERTEX
  8
0
  5
1251
 10
157.539
 20
130.704
 30
0.00000
  70
    32
  0
VERTEX
  8
0
  5
1252
 10
157.537
 20
130.730
 30
0.00000
  70
    32
  0
VERTEX
  8
0
  5
1253
 10
157.536
 20
130.755
 30
0.00000
  70
    32
  0
VERTEX
  8
0
  5
1254
 10
157.534
 20
130.781
 30
0.00000
  70
    32
  0
VERTEX
  8
0
  5
1255
 10
157.533
 20
130.806
 30
0.00000
  70
    32
  0
VERTEX
  8
0
  5
1256
 10
157.531
 20
130.832
 30
0.00000
  70
    32
  0
VERTEX
  8
0
  5
1257
 10
157.530
 20
130.857
 30
0.00000
  70
    32
  0
VERTEX
  8
0
  5
1258
 10
157.528
 20
130.883
 30
0.00000
  70
    32
  0
VERTEX
  8
0
  5
1259
 10
157.527
 20
130.909
 30
0.00000
  70
    32
  0
VERTEX
  8
0
  5
125A
 10
157.525
 20
130.934
 30
0.00000
  70
    32
  0
VERTEX
  8
0
  5
125B
 10
157.524
 20
130.960
 30
0.00000
  70
    32
  0
VERTEX
  8
0
  5
125C
 10
157.522
 20
130.985
 30
0.00000
  70
    32
  0
VERTEX
  8
0
  5
125D
 10
157.521
 20
131.011
 30
0.00000
  70
    32
  0
VERTEX
  8
0
  5
125E
 10
157.519
 20
131.037
 30
0.00000
  70
    32
  0
VERTEX
  8
0
  5
125F
 10
157.517
 20
131.062
 30
0.00000
  70
    32
  0
VERTEX
  8
0
  5
1260
 10
157.516
 20
131.088
 30
0.00000
  70
    32
  0
VERTEX
  8
0
  5
1261
 10
157.514
 20
131.113
 30
0.00000
  70
    32
  0
VERTEX
  8
0
  5
1262
 10
157.513
 20
131.139
 30
0.00000
  70
    32
  0
VERTEX
  8
0
  5
1263
 10
157.511
 20
131.165
 30
0.00000
  70
    32
  0
VERTEX
  8
0
  5
1264
 10
157.510
 20
131.190
 30
0.00000
  70
    32
  0
VERTEX
  8
0
  5
1265
 10
157.508
 20
131.216
 30
0.00000
  70
    32
  0
VERTEX
  8
0
  5
1266
 10
157.507
 20
131.242
 30
0.00000
  70
    32
  0
VERTEX
  8
0
  5
1267
 10
157.505
 20
131.268
 30
0.00000
  70
    32
  0
VERTEX
  8
0
  5
1268
 10
157.503
 20
131.293
 30
0.00000
  70
    32
  0
VERTEX
  8
0
  5
1269
 10
157.502
 20
131.319
 30
0.00000
  70
    32
  0
VERTEX
  8
0
  5
126A
 10
157.500
 20
131.345
 30
0.00000
  70
    32
  0
VERTEX
  8
0
  5
126B
 10
157.499
 20
131.371
 30
0.00000
  70
    32
  0
VERTEX
  8
0
  5
126C
 10
157.497
 20
131.396
 30
0.00000
  70
    32
  0
VERTEX
  8
0
  5
126D
 10
157.496
 20
131.422
 30
0.00000
  70
    32
  0
VERTEX
  8
0
  5
126E
 10
157.494
 20
131.448
 30
0.00000
  70
    32
  0
VERTEX
  8
0
  5
126F
 10
157.492
 20
131.474
 30
0.00000
  70
    32
  0
VERTEX
  8
0
  5
1270
 10
157.491
 20
131.499
 30
0.00000
  70
    32
  0
VERTEX
  8
0
  5
1271
 10
157.489
 20
131.525
 30
0.00000
  70
    32
  0
VERTEX
  8
0
  5
1272
 10
157.488
 20
131.551
 30
0.00000
  70
    32
  0
VERTEX
  8
0
  5
1273
 10
157.486
 20
131.577
 30
0.00000
  70
    32
  0
VERTEX
  8
0
  5
1274
 10
157.484
 20
131.603
 30
0.00000
  70
    32
  0
VERTEX
  8
0
  5
1275
 10
157.483
 20
131.629
 30
0.00000
  70
    32
  0
VERTEX
  8
0
  5
1276
 10
157.481
 20
131.655
 30
0.00000
  70
    32
  0
VERTEX
  8
0
  5
1277
 10
157.480
 20
131.680
 30
0.00000
  70
    32
  0
VERTEX
  8
0
  5
1278
 10
157.478
 20
131.706
 30
0.00000
  70
    32
  0
VERTEX
  8
0
  5
1279
 10
157.476
 20
131.732
 30
0.00000
  70
    32
  0
VERTEX
  8
0
  5
127A
 10
157.475
 20
131.758
 30
0.00000
  70
    32
  0
VERTEX
  8
0
  5
127B
 10
157.473
 20
131.784
 30
0.00000
  70
    32
  0
VERTEX
  8
0
  5
127C
 10
157.472
 20
131.810
 30
0.00000
  70
    32
  0
VERTEX
  8
0
  5
127D
 10
157.470
 20
131.836
 30
0.00000
  70
    32
  0
VERTEX
  8
0
  5
127E
 10
157.468
 20
131.862
 30
0.00000
  70
    32
  0
VERTEX
  8
0
  5
127F
 10
157.467
 20
131.888
 30
0.00000
  70
    32
  0
VERTEX
  8
0
  5
1280
 10
157.465
 20
131.914
 30
0.00000
  70
    32
  0
VERTEX
  8
0
  5
1281
 10
157.464
 20
131.940
 30
0.00000
  70
    32
  0
VERTEX
  8
0
  5
1282
 10
157.462
 20
131.966
 30
0.00000
  70
    32
  0
VERTEX
  8
0
  5
1283
 10
157.460
 20
131.992
 30
0.00000
  70
    32
  0
VERTEX
  8
0
  5
1284
 10
157.459
 20
132.018
 30
0.00000
  70
    32
  0
VERTEX
  8
0
  5
1285
 10
157.457
 20
132.044
 30
0.00000
  70
    32
  0
VERTEX
  8
0
  5
1286
 10
157.455
 20
132.070
 30
0.00000
  70
    32
  0
VERTEX
  8
0
  5
1287
 10
157.454
 20
132.096
 30
0.00000
  70
    32
  0
VERTEX
  8
0
  5
1288
 10
157.452
 20
132.122
 30
0.00000
  70
    32
  0
VERTEX
  8
0
  5
1289
 10
157.451
 20
132.148
 30
0.00000
  70
    32
  0
VERTEX
  8
0
  5
128A
 10
157.449
 20
132.174
 30
0.00000
  70
    32
  0
VERTEX
  8
0
  5
128B
 10
157.447
 20
132.200
 30
0.00000
  70
    32
  0
SEQEND
  8
0
  5
128C
  0
POLYLINE
  5
EBE
  8
0
 10
170.552758206697689
 20
132.1999999999948727
 30
0.0
 66
     1
 70
     8
  0
VERTEX
  8
0
  5
128D
 10
170.553
 20
132.200
 30
0.00000
  70
    32
  0
VERTEX
  8
0
  5
128E
 10
170.551
 20
132.174
 30
0.00000
  70
    32
  0
VERTEX
  8
0
  5
128F
 10
170.549
 20
132.148
 30
0.00000
  70
    32
  0
VERTEX
  8
0
  5
1290
 10
170.548
 20
132.122
 30
0.00000
  70
    32
  0
VERTEX
  8
0
  5
1291
 10
170.546
 20
132.096
 30
0.00000
  70
    32
  0
VERTEX
  8
0
  5
1292
 10
170.545
 20
132.070
 30
0.00000
  70
    32
  0
VERTEX
  8
0
  5
1293
 10
170.543
 20
132.044
 30
0.00000
  70
    32
  0
VERTEX
  8
0
  5
1294
 10
170.541
 20
132.018
 30
0.00000
  70
    32
  0
VERTEX
  8
0
  5
1295
 10
170.540
 20
131.992
 30
0.00000
  70
    32
  0
VERTEX
  8
0
  5
1296
 10
170.538
 20
131.966
 30
0.00000
  70
    32
  0
VERTEX
  8
0
  5
1297
 10
170.536
 20
131.940
 30
0.00000
  70
    32
  0
VERTEX
  8
0
  5
1298
 10
170.535
 20
131.914
 30
0.00000
  70
    32
  0
VERTEX
  8
0
  5
1299
 10
170.533
 20
131.888
 30
0.00000
  70
    32
  0
VERTEX
  8
0
  5
129A
 10
170.532
 20
131.862
 30
0.00000
  70
    32
  0
VERTEX
  8
0
  5
129B
 10
170.530
 20
131.836
 30
0.00000
  70
    32
  0
VERTEX
  8
0
  5
129C
 10
170.528
 20
131.810
 30
0.00000
  70
    32
  0
VERTEX
  8
0
  5
129D
 10
170.527
 20
131.784
 30
0.00000
  70
    32
  0
VERTEX
  8
0
  5
129E
 10
170.525
 20
131.758
 30
0.00000
  70
    32
  0
VERTEX
  8
0
  5
129F
 10
170.524
 20
131.732
 30
0.00000
  70
    32
  0
VERTEX
  8
0
  5
12A0
 10
170.522
 20
131.706
 30
0.00000
  70
    32
  0
VERTEX
  8
0
  5
12A1
 10
170.520
 20
131.680
 30
0.00000
  70
    32
  0
VERTEX
  8
0
  5
12A2
 10
170.519
 20
131.655
 30
0.00000
  70
    32
  0
VERTEX
  8
0
  5
12A3
 10
170.517
 20
131.629
 30
0.00000
  70
    32
  0
VERTEX
  8
0
  5
12A4
 10
170.516
 20
131.603
 30
0.00000
  70
    32
  0
VERTEX
  8
0
  5
12A5
 10
170.514
 20
131.577
 30
0.00000
  70
    32
  0
VERTEX
  8
0
  5
12A6
 10
170.512
 20
131.551
 30
0.00000
  70
    32
  0
VERTEX
  8
0
  5
12A7
 10
170.511
 20
131.525
 30
0.00000
  70
    32
  0
VERTEX
  8
0
  5
12A8
 10
170.509
 20
131.499
 30
0.00000
  70
    32
  0
VERTEX
  8
0
  5
12A9
 10
170.508
 20
131.474
 30
0.00000
  70
    32
  0
VERTEX
  8
0
  5
12AA
 10
170.506
 20
131.448
 30
0.00000
  70
    32
  0
VERTEX
  8
0
  5
12AB
 10
170.504
 20
131.422
 30
0.00000
  70
    32
  0
VERTEX
  8
0
  5
12AC
 10
170.503
 20
131.396
 30
0.00000
  70
    32
  0
VERTEX
  8
0
  5
12AD
 10
170.501
 20
131.371
 30
0.00000
  70
    32
  0
VERTEX
  8
0
  5
12AE
 10
170.500
 20
131.345
 30
0.00000
  70
    32
  0
VERTEX
  8
0
  5
12AF
 10
170.498
 20
131.319
 30
0.00000
  70
    32
  0
VERTEX
  8
0
  5
12B0
 10
170.497
 20
131.293
 30
0.00000
  70
    32
  0
VERTEX
  8
0
  5
12B1
 10
170.495
 20
131.268
 30
0.00000
  70
    32
  0
VERTEX
  8
0
  5
12B2
 10
170.493
 20
131.242
 30
0.00000
  70
    32
  0
VERTEX
  8
0
  5
12B3
 10
170.492
 20
131.216
 30
0.00000
  70
    32
  0
VERTEX
  8
0
  5
12B4
 10
170.490
 20
131.190
 30
0.00000
  70
    32
  0
VERTEX
  8
0
  5
12B5
 10
170.489
 20
131.165
 30
0.00000
  70
    32
  0
VERTEX
  8
0
  5
12B6
 10
170.487
 20
131.139
 30
0.00000
  70
    32
  0
VERTEX
  8
0
  5
12B7
 10
170.486
 20
131.113
 30
0.00000
  70
    32
  0
VERTEX
  8
0
  5
12B8
 10
170.484
 20
131.088
 30
0.00000
  70
    32
  0
VERTEX
  8
0
  5
12B9
 10
170.483
 20
131.062
 30
0.00000
  70
    32
  0
VERTEX
  8
0
  5
12BA
 10
170.481
 20
131.037
 30
0.00000
  70
    32
  0
VERTEX
  8
0
  5
12BB
 10
170.479
 20
131.011
 30
0.00000
  70
    32
  0
VERTEX
  8
0
  5
12BC
 10
170.478
 20
130.985
 30
0.00000
  70
    32
  0
VERTEX
  8
0
  5
12BD
 10
170.476
 20
130.960
 30
0.00000
  70
    32
  0
VERTEX
  8
0
  5
12BE
 10
170.475
 20
130.934
 30
0.00000
  70
    32
  0
VERTEX
  8
0
  5
12BF
 10
170.473
 20
130.909
 30
0.00000
  70
    32
  0
VERTEX
  8
0
  5
12C0
 10
170.472
 20
130.883
 30
0.00000
  70
    32
  0
VERTEX
  8
0
  5
12C1
 10
170.470
 20
130.857
 30
0.00000
  70
    32
  0
VERTEX
  8
0
  5
12C2
 10
170.469
 20
130.832
 30
0.00000
  70
    32
  0
VERTEX
  8
0
  5
12C3
 10
170.467
 20
130.806
 30
0.00000
  70
    32
  0
VERTEX
  8
0
  5
12C4
 10
170.466
 20
130.781
 30
0.00000
  70
    32
  0
VERTEX
  8
0
  5
12C5
 10
170.464
 20
130.755
 30
0.00000
  70
    32
  0
VERTEX
  8
0
  5
12C6
 10
170.463
 20
130.730
 30
0.00000
  70
    32
  0
VERTEX
  8
0
  5
12C7
 10
170.461
 20
130.704
 30
0.00000
  70
    32
  0
VERTEX
  8
0
  5
12C8
 10
170.460
 20
130.679
 30
0.00000
  70
    32
  0
VERTEX
  8
0
  5
12C9
 10
170.458
 20
130.653
 30
0.00000
  70
    32
  0
VERTEX
  8
0
  5
12CA
 10
170.457
 20
130.628
 30
0.00000
  70
    32
  0
VERTEX
  8
0
  5
12CB
 10
170.455
 20
130.602
 30
0.00000
  70
    32
  0
VERTEX
  8
0
  5
12CC
 10
170.454
 20
130.577
 30
0.00000
  70
    32
  0
VERTEX
  8
0
  5
12CD
 10
170.452
 20
130.552
 30
0.00000
  70
    32
  0
VERTEX
  8
0
  5
12CE
 10
170.451
 20
130.526
 30
0.00000
  70
    32
  0
VERTEX
  8
0
  5
12CF
 10
170.449
 20
130.501
 30
0.00000
  70
    32
  0
VERTEX
  8
0
  5
12D0
 10
170.448
 20
130.475
 30
0.00000
  70
    32
  0
VERTEX
  8
0
  5
12D1
 10
170.446
 20
130.450
 30
0.00000
  70
    32
  0
VERTEX
  8
0
  5
12D2
 10
170.445
 20
130.425
 30
0.00000
  70
    32
  0
VERTEX
  8
0
  5
12D3
 10
170.443
 20
130.399
 30
0.00000
  70
    32
  0
VERTEX
  8
0
  5
12D4
 10
170.442
 20
130.374
 30
0.00000
  70
    32
  0
VERTEX
  8
0
  5
12D5
 10
170.440
 20
130.349
 30
0.00000
  70
    32
  0
VERTEX
  8
0
  5
12D6
 10
170.439
 20
130.323
 30
0.00000
  70
    32
  0
VERTEX
  8
0
  5
12D7
 10
170.437
 20
130.298
 30
0.00000
  70
    32
  0
VERTEX
  8
0
  5
12D8
 10
170.436
 20
130.273
 30
0.00000
  70
    32
  0
VERTEX
  8
0
  5
12D9
 10
170.434
 20
130.247
 30
0.00000
  70
    32
  0
VERTEX
  8
0
  5
12DA
 10
170.433
 20
130.222
 30
0.00000
  70
    32
  0
VERTEX
  8
0
  5
12DB
 10
170.431
 20
130.197
 30
0.00000
  70
    32
  0
VERTEX
  8
0
  5
12DC
 10
170.430
 20
130.172
 30
0.00000
  70
    32
  0
VERTEX
  8
0
  5
12DD
 10
170.428
 20
130.146
 30
0.00000
  70
    32
  0
VERTEX
  8
0
  5
12DE
 10
170.427
 20
130.121
 30
0.00000
  70
    32
  0
VERTEX
  8
0
  5
12DF
 10
170.425
 20
130.096
 30
0.00000
  70
    32
  0
VERTEX
  8
0
  5
12E0
 10
170.424
 20
130.071
 30
0.00000
  70
    32
  0
VERTEX
  8
0
  5
12E1
 10
170.422
 20
130.046
 30
0.00000
  70
    32
  0
VERTEX
  8
0
  5
12E2
 10
170.421
 20
130.020
 30
0.00000
  70
    32
  0
VERTEX
  8
0
  5
12E3
 10
170.419
 20
129.995
 30
0.00000
  70
    32
  0
VERTEX
  8
0
  5
12E4
 10
170.418
 20
129.970
 30
0.00000
  70
    32
  0
VERTEX
  8
0
  5
12E5
 10
170.417
 20
129.945
 30
0.00000
  70
    32
  0
VERTEX
  8
0
  5
12E6
 10
170.415
 20
129.920
 30
0.00000
  70
    32
  0
VERTEX
  8
0
  5
12E7
 10
170.414
 20
129.895
 30
0.00000
  70
    32
  0
VERTEX
  8
0
  5
12E8
 10
170.412
 20
129.870
 30
0.00000
  70
    32
  0
VERTEX
  8
0
  5
12E9
 10
170.411
 20
129.845
 30
0.00000
  70
    32
  0
VERTEX
  8
0
  5
12EA
 10
170.409
 20
129.820
 30
0.00000
  70
    32
  0
VERTEX
  8
0
  5
12EB
 10
170.408
 20
129.794
 30
0.00000
  70
    32
  0
VERTEX
  8
0
  5
12EC
 10
170.406
 20
129.769
 30
0.00000
  70
    32
  0
VERTEX
  8
0
  5
12ED
 10
170.405
 20
129.744
 30
0.00000
  70
    32
  0
VERTEX
  8
0
  5
12EE
 10
170.404
 20
129.719
 30
0.00000
  70
    32
  0
VERTEX
  8
0
  5
12EF
 10
170.402
 20
129.694
 30
0.00000
  70
    32
  0
VERTEX
  8
0
  5
12F0
 10
170.401
 20
129.669
 30
0.00000
  70
    32
  0
VERTEX
  8
0
  5
12F1
 10
170.399
 20
129.644
 30
0.00000
  70
    32
  0
VERTEX
  8
0
  5
12F2
 10
170.398
 20
129.619
 30
0.00000
  70
    32
  0
VERTEX
  8
0
  5
12F3
 10
170.396
 20
129.594
 30
0.00000
  70
    32
  0
VERTEX
  8
0
  5
12F4
 10
170.395
 20
129.569
 30
0.00000
  70
    32
  0
VERTEX
  8
0
  5
12F5
 10
170.394
 20
129.545
 30
0.00000
  70
    32
  0
VERTEX
  8
0
  5
12F6
 10
170.392
 20
129.520
 30
0.00000
  70
    32
  0
VERTEX
  8
0
  5
12F7
 10
170.391
 20
129.495
 30
0.00000
  70
    32
  0
VERTEX
  8
0
  5
12F8
 10
170.389
 20
129.470
 30
0.00000
  70
    32
  0
VERTEX
  8
0
  5
12F9
 10
170.388
 20
129.445
 30
0.00000
  70
    32
  0
VERTEX
  8
0
  5
12FA
 10
170.387
 20
129.420
 30
0.00000
  70
    32
  0
VERTEX
  8
0
  5
12FB
 10
170.385
 20
129.395
 30
0.00000
  70
    32
  0
VERTEX
  8
0
  5
12FC
 10
170.384
 20
129.370
 30
0.00000
  70
    32
  0
VERTEX
  8
0
  5
12FD
 10
170.382
 20
129.346
 30
0.00000
  70
    32
  0
VERTEX
  8
0
  5
12FE
 10
170.381
 20
129.321
 30
0.00000
  70
    32
  0
VERTEX
  8
0
  5
12FF
 10
170.380
 20
129.296
 30
0.00000
  70
    32
  0
VERTEX
  8
0
  5
1300
 10
170.378
 20
129.271
 30
0.00000
  70
    32
  0
VERTEX
  8
0
  5
1301
 10
170.377
 20
129.246
 30
0.00000
  70
    32
  0
VERTEX
  8
0
  5
1302
 10
170.375
 20
129.222
 30
0.00000
  70
    32
  0
VERTEX
  8
0
  5
1303
 10
170.374
 20
129.197
 30
0.00000
  70
    32
  0
VERTEX
  8
0
  5
1304
 10
170.373
 20
129.172
 30
0.00000
  70
    32
  0
VERTEX
  8
0
  5
1305
 10
170.371
 20
129.147
 30
0.00000
  70
    32
  0
VERTEX
  8
0
  5
1306
 10
170.370
 20
129.123
 30
0.00000
  70
    32
  0
VERTEX
  8
0
  5
1307
 10
170.368
 20
129.098
 30
0.00000
  70
    32
  0
VERTEX
  8
0
  5
1308
 10
170.367
 20
129.073
 30
0.00000
  70
    32
  0
VERTEX
  8
0
  5
1309
 10
170.366
 20
129.049
 30
0.00000
  70
    32
  0
VERTEX
  8
0
  5
130A
 10
170.364
 20
129.024
 30
0.00000
  70
    32
  0
VERTEX
  8
0
  5
130B
 10
170.363
 20
128.999
 30
0.00000
  70
    32
  0
VERTEX
  8
0
  5
130C
 10
170.362
 20
128.975
 30
0.00000
  70
    32
  0
VERTEX
  8
0
  5
130D
 10
170.360
 20
128.950
 30
0.00000
  70
    32
  0
SEQEND
  8
0
  5
130E
  0
POLYLINE
  5
EBF
  8
0
 10
173.6397285518246463
 20
128.9500000000088846
 30
0.0
 66
     1
 70
     8
  0
VERTEX
  8
0
  5
130F
 10
173.640
 20
128.950
 30
0.00000
  70
    32
  0
VERTEX
  8
0
  5
1310
 10
173.638
 20
128.975
 30
0.00000
  70
    32
  0
VERTEX
  8
0
  5
1311
 10
173.637
 20
128.999
 30
0.00000
  70
    32
  0
VERTEX
  8
0
  5
1312
 10
173.636
 20
129.024
 30
0.00000
  70
    32
  0
VERTEX
  8
0
  5
1313
 10
173.634
 20
129.049
 30
0.00000
  70
    32
  0
VERTEX
  8
0
  5
1314
 10
173.633
 20
129.073
 30
0.00000
  70
    32
  0
VERTEX
  8
0
  5
1315
 10
173.632
 20
129.098
 30
0.00000
  70
    32
  0
VERTEX
  8
0
  5
1316
 10
173.630
 20
129.123
 30
0.00000
  70
    32
  0
VERTEX
  8
0
  5
1317
 10
173.629
 20
129.147
 30
0.00000
  70
    32
  0
VERTEX
  8
0
  5
1318
 10
173.627
 20
129.172
 30
0.00000
  70
    32
  0
VERTEX
  8
0
  5
1319
 10
173.626
 20
129.197
 30
0.00000
  70
    32
  0
VERTEX
  8
0
  5
131A
 10
173.625
 20
129.222
 30
0.00000
  70
    32
  0
VERTEX
  8
0
  5
131B
 10
173.623
 20
129.246
 30
0.00000
  70
    32
  0
VERTEX
  8
0
  5
131C
 10
173.622
 20
129.271
 30
0.00000
  70
    32
  0
VERTEX
  8
0
  5
131D
 10
173.620
 20
129.296
 30
0.00000
  70
    32
  0
VERTEX
  8
0
  5
131E
 10
173.619
 20
129.321
 30
0.00000
  70
    32
  0
VERTEX
  8
0
  5
131F
 10
173.618
 20
129.346
 30
0.00000
  70
    32
  0
VERTEX
  8
0
  5
1320
 10
173.616
 20
129.370
 30
0.00000
  70
    32
  0
VERTEX
  8
0
  5
1321
 10
173.615
 20
129.395
 30
0.00000
  70
    32
  0
VERTEX
  8
0
  5
1322
 10
173.613
 20
129.420
 30
0.00000
  70
    32
  0
VERTEX
  8
0
  5
1323
 10
173.612
 20
129.445
 30
0.00000
  70
    32
  0
VERTEX
  8
0
  5
1324
 10
173.611
 20
129.470
 30
0.00000
  70
    32
  0
VERTEX
  8
0
  5
1325
 10
173.609
 20
129.495
 30
0.00000
  70
    32
  0
VERTEX
  8
0
  5
1326
 10
173.608
 20
129.520
 30
0.00000
  70
    32
  0
VERTEX
  8
0
  5
1327
 10
173.606
 20
129.545
 30
0.00000
  70
    32
  0
VERTEX
  8
0
  5
1328
 10
173.605
 20
129.569
 30
0.00000
  70
    32
  0
VERTEX
  8
0
  5
1329
 10
173.604
 20
129.594
 30
0.00000
  70
    32
  0
VERTEX
  8
0
  5
132A
 10
173.602
 20
129.619
 30
0.00000
  70
    32
  0
VERTEX
  8
0
  5
132B
 10
173.601
 20
129.644
 30
0.00000
  70
    32
  0
VERTEX
  8
0
  5
132C
 10
173.599
 20
129.669
 30
0.00000
  70
    32
  0
VERTEX
  8
0
  5
132D
 10
173.598
 20
129.694
 30
0.00000
  70
    32
  0
VERTEX
  8
0
  5
132E
 10
173.596
 20
129.719
 30
0.00000
  70
    32
  0
VERTEX
  8
0
  5
132F
 10
173.595
 20
129.744
 30
0.00000
  70
    32
  0
VERTEX
  8
0
  5
1330
 10
173.594
 20
129.769
 30
0.00000
  70
    32
  0
VERTEX
  8
0
  5
1331
 10
173.592
 20
129.794
 30
0.00000
  70
    32
  0
VERTEX
  8
0
  5
1332
 10
173.591
 20
129.820
 30
0.00000
  70
    32
  0
VERTEX
  8
0
  5
1333
 10
173.589
 20
129.845
 30
0.00000
  70
    32
  0
VERTEX
  8
0
  5
1334
 10
173.588
 20
129.870
 30
0.00000
  70
    32
  0
VERTEX
  8
0
  5
1335
 10
173.586
 20
129.895
 30
0.00000
  70
    32
  0
VERTEX
  8
0
  5
1336
 10
173.585
 20
129.920
 30
0.00000
  70
    32
  0
VERTEX
  8
0
  5
1337
 10
173.583
 20
129.945
 30
0.00000
  70
    32
  0
VERTEX
  8
0
  5
1338
 10
173.582
 20
129.970
 30
0.00000
  70
    32
  0
VERTEX
  8
0
  5
1339
 10
173.581
 20
129.995
 30
0.00000
  70
    32
  0
VERTEX
  8
0
  5
133A
 10
173.579
 20
130.020
 30
0.00000
  70
    32
  0
VERTEX
  8
0
  5
133B
 10
173.578
 20
130.046
 30
0.00000
  70
    32
  0
VERTEX
  8
0
  5
133C
 10
173.576
 20
130.071
 30
0.00000
  70
    32
  0
VERTEX
  8
0
  5
133D
 10
173.575
 20
130.096
 30
0.00000
  70
    32
  0
VERTEX
  8
0
  5
133E
 10
173.573
 20
130.121
 30
0.00000
  70
    32
  0
VERTEX
  8
0
  5
133F
 10
173.572
 20
130.146
 30
0.00000
  70
    32
  0
VERTEX
  8
0
  5
1340
 10
173.570
 20
130.172
 30
0.00000
  70
    32
  0
VERTEX
  8
0
  5
1341
 10
173.569
 20
130.197
 30
0.00000
  70
    32
  0
VERTEX
  8
0
  5
1342
 10
173.567
 20
130.222
 30
0.00000
  70
    32
  0
VERTEX
  8
0
  5
1343
 10
173.566
 20
130.247
 30
0.00000
  70
    32
  0
VERTEX
  8
0
  5
1344
 10
173.564
 20
130.273
 30
0.00000
  70
    32
  0
VERTEX
  8
0
  5
1345
 10
173.563
 20
130.298
 30
0.00000
  70
    32
  0
VERTEX
  8
0
  5
1346
 10
173.561
 20
130.323
 30
0.00000
  70
    32
  0
VERTEX
  8
0
  5
1347
 10
173.560
 20
130.349
 30
0.00000
  70
    32
  0
VERTEX
  8
0
  5
1348
 10
173.558
 20
130.374
 30
0.00000
  70
    32
  0
VERTEX
  8
0
  5
1349
 10
173.557
 20
130.399
 30
0.00000
  70
    32
  0
VERTEX
  8
0
  5
134A
 10
173.555
 20
130.425
 30
0.00000
  70
    32
  0
VERTEX
  8
0
  5
134B
 10
173.554
 20
130.450
 30
0.00000
  70
    32
  0
VERTEX
  8
0
  5
134C
 10
173.552
 20
130.475
 30
0.00000
  70
    32
  0
VERTEX
  8
0
  5
134D
 10
173.551
 20
130.501
 30
0.00000
  70
    32
  0
VERTEX
  8
0
  5
134E
 10
173.549
 20
130.526
 30
0.00000
  70
    32
  0
VERTEX
  8
0
  5
134F
 10
173.548
 20
130.552
 30
0.00000
  70
    32
  0
VERTEX
  8
0
  5
1350
 10
173.546
 20
130.577
 30
0.00000
  70
    32
  0
VERTEX
  8
0
  5
1351
 10
173.545
 20
130.602
 30
0.00000
  70
    32
  0
VERTEX
  8
0
  5
1352
 10
173.543
 20
130.628
 30
0.00000
  70
    32
  0
VERTEX
  8
0
  5
1353
 10
173.542
 20
130.653
 30
0.00000
  70
    32
  0
VERTEX
  8
0
  5
1354
 10
173.540
 20
130.679
 30
0.00000
  70
    32
  0
VERTEX
  8
0
  5
1355
 10
173.539
 20
130.704
 30
0.00000
  70
    32
  0
VERTEX
  8
0
  5
1356
 10
173.537
 20
130.730
 30
0.00000
  70
    32
  0
VERTEX
  8
0
  5
1357
 10
173.536
 20
130.755
 30
0.00000
  70
    32
  0
VERTEX
  8
0
  5
1358
 10
173.534
 20
130.781
 30
0.00000
  70
    32
  0
VERTEX
  8
0
  5
1359
 10
173.533
 20
130.806
 30
0.00000
  70
    32
  0
VERTEX
  8
0
  5
135A
 10
173.531
 20
130.832
 30
0.00000
  70
    32
  0
VERTEX
  8
0
  5
135B
 10
173.530
 20
130.857
 30
0.00000
  70
    32
  0
VERTEX
  8
0
  5
135C
 10
173.528
 20
130.883
 30
0.00000
  70
    32
  0
VERTEX
  8
0
  5
135D
 10
173.527
 20
130.909
 30
0.00000
  70
    32
  0
VERTEX
  8
0
  5
135E
 10
173.525
 20
130.934
 30
0.00000
  70
    32
  0
VERTEX
  8
0
  5
135F
 10
173.524
 20
130.960
 30
0.00000
  70
    32
  0
VERTEX
  8
0
  5
1360
 10
173.522
 20
130.985
 30
0.00000
  70
    32
  0
VERTEX
  8
0
  5
1361
 10
173.521
 20
131.011
 30
0.00000
  70
    32
  0
VERTEX
  8
0
  5
1362
 10
173.519
 20
131.037
 30
0.00000
  70
    32
  0
VERTEX
  8
0
  5
1363
 10
173.517
 20
131.062
 30
0.00000
  70
    32
  0
VERTEX
  8
0
  5
1364
 10
173.516
 20
131.088
 30
0.00000
  70
    32
  0
VERTEX
  8
0
  5
1365
 10
173.514
 20
131.113
 30
0.00000
  70
    32
  0
VERTEX
  8
0
  5
1366
 10
173.513
 20
131.139
 30
0.00000
  70
    32
  0
VERTEX
  8
0
  5
1367
 10
173.511
 20
131.165
 30
0.00000
  70
    32
  0
VERTEX
  8
0
  5
1368
 10
173.510
 20
131.190
 30
0.00000
  70
    32
  0
VERTEX
  8
0
  5
1369
 10
173.508
 20
131.216
 30
0.00000
  70
    32
  0
VERTEX
  8
0
  5
136A
 10
173.507
 20
131.242
 30
0.00000
  70
    32
  0
VERTEX
  8
0
  5
136B
 10
173.505
 20
131.268
 30
0.00000
  70
    32
  0
VERTEX
  8
0
  5
136C
 10
173.503
 20
131.293
 30
0.00000
  70
    32
  0
VERTEX
  8
0
  5
136D
 10
173.502
 20
131.319
 30
0.00000
  70
    32
  0
VERTEX
  8
0
  5
136E
 10
173.500
 20
131.345
 30
0.00000
  70
    32
  0
VERTEX
  8
0
  5
136F
 10
173.499
 20
131.371
 30
0.00000
  70
    32
  0
VERTEX
  8
0
  5
1370
 10
173.497
 20
131.396
 30
0.00000
  70
    32
  0
VERTEX
  8
0
  5
1371
 10
173.496
 20
131.422
 30
0.00000
  70
    32
  0
VERTEX
  8
0
  5
1372
 10
173.494
 20
131.448
 30
0.00000
  70
    32
  0
VERTEX
  8
0
  5
1373
 10
173.492
 20
131.474
 30
0.00000
  70
    32
  0
VERTEX
  8
0
  5
1374
 10
173.491
 20
131.499
 30
0.00000
  70
    32
  0
VERTEX
  8
0
  5
1375
 10
173.489
 20
131.525
 30
0.00000
  70
    32
  0
VERTEX
  8
0
  5
1376
 10
173.488
 20
131.551
 30
0.00000
  70
    32
  0
VERTEX
  8
0
  5
1377
 10
173.486
 20
131.577
 30
0.00000
  70
    32
  0
VERTEX
  8
0
  5
1378
 10
173.484
 20
131.603
 30
0.00000
  70
    32
  0
VERTEX
  8
0
  5
1379
 10
173.483
 20
131.629
 30
0.00000
  70
    32
  0
VERTEX
  8
0
  5
137A
 10
173.481
 20
131.655
 30
0.00000
  70
    32
  0
VERTEX
  8
0
  5
137B
 10
173.480
 20
131.680
 30
0.00000
  70
    32
  0
VERTEX
  8
0
  5
137C
 10
173.478
 20
131.706
 30
0.00000
  70
    32
  0
VERTEX
  8
0
  5
137D
 10
173.476
 20
131.732
 30
0.00000
  70
    32
  0
VERTEX
  8
0
  5
137E
 10
173.475
 20
131.758
 30
0.00000
  70
    32
  0
VERTEX
  8
0
  5
137F
 10
173.473
 20
131.784
 30
0.00000
  70
    32
  0
VERTEX
  8
0
  5
1380
 10
173.472
 20
131.810
 30
0.00000
  70
    32
  0
VERTEX
  8
0
  5
1381
 10
173.470
 20
131.836
 30
0.00000
  70
    32
  0
VERTEX
  8
0
  5
1382
 10
173.468
 20
131.862
 30
0.00000
  70
    32
  0
VERTEX
  8
0
  5
1383
 10
173.467
 20
131.888
 30
0.00000
  70
    32
  0
VERTEX
  8
0
  5
1384
 10
173.465
 20
131.914
 30
0.00000
  70
    32
  0
VERTEX
  8
0
  5
1385
 10
173.464
 20
131.940
 30
0.00000
  70
    32
  0
VERTEX
  8
0
  5
1386
 10
173.462
 20
131.966
 30
0.00000
  70
    32
  0
VERTEX
  8
0
  5
1387
 10
173.460
 20
131.992
 30
0.00000
  70
    32
  0
VERTEX
  8
0
  5
1388
 10
173.459
 20
132.018
 30
0.00000
  70
    32
  0
VERTEX
  8
0
  5
1389
 10
173.457
 20
132.044
 30
0.00000
  70
    32
  0
VERTEX
  8
0
  5
138A
 10
173.455
 20
132.070
 30
0.00000
  70
    32
  0
VERTEX
  8
0
  5
138B
 10
173.454
 20
132.096
 30
0.00000
  70
    32
  0
VERTEX
  8
0
  5
138C
 10
173.452
 20
132.122
 30
0.00000
  70
    32
  0
VERTEX
  8
0
  5
138D
 10
173.451
 20
132.148
 30
0.00000
  70
    32
  0
VERTEX
  8
0
  5
138E
 10
173.449
 20
132.174
 30
0.00000
  70
    32
  0
VERTEX
  8
0
  5
138F
 10
173.447
 20
132.200
 30
0.00000
  70
    32
  0
SEQEND
  8
0
  5
1390
  0
POLYLINE
  5
EC0
  8
0
 10
154.5527582066976606
 20
132.1999999999947875
 30
0.0
 66
     1
 70
     8
  0
VERTEX
  8
0
  5
1391
 10
154.553
 20
132.200
 30
0.00000
  70
    32
  0
VERTEX
  8
0
  5
1392
 10
154.551
 20
132.174
 30
0.00000
  70
    32
  0
VERTEX
  8
0
  5
1393
 10
154.549
 20
132.148
 30
0.00000
  70
    32
  0
VERTEX
  8
0
  5
1394
 10
154.548
 20
132.122
 30
0.00000
  70
    32
  0
VERTEX
  8
0
  5
1395
 10
154.546
 20
132.096
 30
0.00000
  70
    32
  0
VERTEX
  8
0
  5
1396
 10
154.545
 20
132.070
 30
0.00000
  70
    32
  0
VERTEX
  8
0
  5
1397
 10
154.543
 20
132.044
 30
0.00000
  70
    32
  0
VERTEX
  8
0
  5
1398
 10
154.541
 20
132.018
 30
0.00000
  70
    32
  0
VERTEX
  8
0
  5
1399
 10
154.540
 20
131.992
 30
0.00000
  70
    32
  0
VERTEX
  8
0
  5
139A
 10
154.538
 20
131.966
 30
0.00000
  70
    32
  0
VERTEX
  8
0
  5
139B
 10
154.536
 20
131.940
 30
0.00000
  70
    32
  0
VERTEX
  8
0
  5
139C
 10
154.535
 20
131.914
 30
0.00000
  70
    32
  0
VERTEX
  8
0
  5
139D
 10
154.533
 20
131.888
 30
0.00000
  70
    32
  0
VERTEX
  8
0
  5
139E
 10
154.532
 20
131.862
 30
0.00000
  70
    32
  0
VERTEX
  8
0
  5
139F
 10
154.530
 20
131.836
 30
0.00000
  70
    32
  0
VERTEX
  8
0
  5
13A0
 10
154.528
 20
131.810
 30
0.00000
  70
    32
  0
VERTEX
  8
0
  5
13A1
 10
154.527
 20
131.784
 30
0.00000
  70
    32
  0
VERTEX
  8
0
  5
13A2
 10
154.525
 20
131.758
 30
0.00000
  70
    32
  0
VERTEX
  8
0
  5
13A3
 10
154.524
 20
131.732
 30
0.00000
  70
    32
  0
VERTEX
  8
0
  5
13A4
 10
154.522
 20
131.706
 30
0.00000
  70
    32
  0
VERTEX
  8
0
  5
13A5
 10
154.520
 20
131.680
 30
0.00000
  70
    32
  0
VERTEX
  8
0
  5
13A6
 10
154.519
 20
131.655
 30
0.00000
  70
    32
  0
VERTEX
  8
0
  5
13A7
 10
154.517
 20
131.629
 30
0.00000
  70
    32
  0
VERTEX
  8
0
  5
13A8
 10
154.516
 20
131.603
 30
0.00000
  70
    32
  0
VERTEX
  8
0
  5
13A9
 10
154.514
 20
131.577
 30
0.00000
  70
    32
  0
VERTEX
  8
0
  5
13AA
 10
154.512
 20
131.551
 30
0.00000
  70
    32
  0
VERTEX
  8
0
  5
13AB
 10
154.511
 20
131.525
 30
0.00000
  70
    32
  0
VERTEX
  8
0
  5
13AC
 10
154.509
 20
131.499
 30
0.00000
  70
    32
  0
VERTEX
  8
0
  5
13AD
 10
154.508
 20
131.474
 30
0.00000
  70
    32
  0
VERTEX
  8
0
  5
13AE
 10
154.506
 20
131.448
 30
0.00000
  70
    32
  0
VERTEX
  8
0
  5
13AF
 10
154.504
 20
131.422
 30
0.00000
  70
    32
  0
VERTEX
  8
0
  5
13B0
 10
154.503
 20
131.396
 30
0.00000
  70
    32
  0
VERTEX
  8
0
  5
13B1
 10
154.501
 20
131.371
 30
0.00000
  70
    32
  0
VERTEX
  8
0
  5
13B2
 10
154.500
 20
131.345
 30
0.00000
  70
    32
  0
VERTEX
  8
0
  5
13B3
 10
154.498
 20
131.319
 30
0.00000
  70
    32
  0
VERTEX
  8
0
  5
13B4
 10
154.497
 20
131.293
 30
0.00000
  70
    32
  0
VERTEX
  8
0
  5
13B5
 10
154.495
 20
131.268
 30
0.00000
  70
    32
  0
VERTEX
  8
0
  5
13B6
 10
154.493
 20
131.242
 30
0.00000
  70
    32
  0
VERTEX
  8
0
  5
13B7
 10
154.492
 20
131.216
 30
0.00000
  70
    32
  0
VERTEX
  8
0
  5
13B8
 10
154.490
 20
131.190
 30
0.00000
  70
    32
  0
VERTEX
  8
0
  5
13B9
 10
154.489
 20
131.165
 30
0.00000
  70
    32
  0
VERTEX
  8
0
  5
13BA
 10
154.487
 20
131.139
 30
0.00000
  70
    32
  0
VERTEX
  8
0
  5
13BB
 10
154.486
 20
131.113
 30
0.00000
  70
    32
  0
VERTEX
  8
0
  5
13BC
 10
154.484
 20
131.088
 30
0.00000
  70
    32
  0
VERTEX
  8
0
  5
13BD
 10
154.483
 20
131.062
 30
0.00000
  70
    32
  0
VERTEX
  8
0
  5
13BE
 10
154.481
 20
131.037
 30
0.00000
  70
    32
  0
VERTEX
  8
0
  5
13BF
 10
154.479
 20
131.011
 30
0.00000
  70
    32
  0
VERTEX
  8
0
  5
13C0
 10
154.478
 20
130.985
 30
0.00000
  70
    32
  0
VERTEX
  8
0
  5
13C1
 10
154.476
 20
130.960
 30
0.00000
  70
    32
  0
VERTEX
  8
0
  5
13C2
 10
154.475
 20
130.934
 30
0.00000
  70
    32
  0
VERTEX
  8
0
  5
13C3
 10
154.473
 20
130.909
 30
0.00000
  70
    32
  0
VERTEX
  8
0
  5
13C4
 10
154.472
 20
130.883
 30
0.00000
  70
    32
  0
VERTEX
  8
0
  5
13C5
 10
154.470
 20
130.857
 30
0.00000
  70
    32
  0
VERTEX
  8
0
  5
13C6
 10
154.469
 20
130.832
 30
0.00000
  70
    32
  0
VERTEX
  8
0
  5
13C7
 10
154.467
 20
130.806
 30
0.00000
  70
    32
  0
VERTEX
  8
0
  5
13C8
 10
154.466
 20
130.781
 30
0.00000
  70
    32
  0
VERTEX
  8
0
  5
13C9
 10
154.464
 20
130.755
 30
0.00000
  70
    32
  0
VERTEX
  8
0
  5
13CA
 10
154.463
 20
130.730
 30
0.00000
  70
    32
  0
VERTEX
  8
0
  5
13CB
 10
154.461
 20
130.704
 30
0.00000
  70
    32
  0
VERTEX
  8
0
  5
13CC
 10
154.460
 20
130.679
 30
0.00000
  70
    32
  0
VERTEX
  8
0
  5
13CD
 10
154.458
 20
130.653
 30
0.00000
  70
    32
  0
VERTEX
  8
0
  5
13CE
 10
154.457
 20
130.628
 30
0.00000
  70
    32
  0
VERTEX
  8
0
  5
13CF
 10
154.455
 20
130.602
 30
0.00000
  70
    32
  0
VERTEX
  8
0
  5
13D0
 10
154.454
 20
130.577
 30
0.00000
  70
    32
  0
VERTEX
  8
0
  5
13D1
 10
154.452
 20
130.552
 30
0.00000
  70
    32
  0
VERTEX
  8
0
  5
13D2
 10
154.451
 20
130.526
 30
0.00000
  70
    32
  0
VERTEX
  8
0
  5
13D3
 10
154.449
 20
130.501
 30
0.00000
  70
    32
  0
VERTEX
  8
0
  5
13D4
 10
154.448
 20
130.475
 30
0.00000
  70
    32
  0
VERTEX
  8
0
  5
13D5
 10
154.446
 20
130.450
 30
0.00000
  70
    32
  0
VERTEX
  8
0
  5
13D6
 10
154.445
 20
130.425
 30
0.00000
  70
    32
  0
VERTEX
  8
0
  5
13D7
 10
154.443
 20
130.399
 30
0.00000
  70
    32
  0
VERTEX
  8
0
  5
13D8
 10
154.442
 20
130.374
 30
0.00000
  70
    32
  0
VERTEX
  8
0
  5
13D9
 10
154.440
 20
130.349
 30
0.00000
  70
    32
  0
VERTEX
  8
0
  5
13DA
 10
154.439
 20
130.323
 30
0.00000
  70
    32
  0
VERTEX
  8
0
  5
13DB
 10
154.437
 20
130.298
 30
0.00000
  70
    32
  0
VERTEX
  8
0
  5
13DC
 10
154.436
 20
130.273
 30
0.00000
  70
    32
  0
VERTEX
  8
0
  5
13DD
 10
154.434
 20
130.247
 30
0.00000
  70
    32
  0
VERTEX
  8
0
  5
13DE
 10
154.433
 20
130.222
 30
0.00000
  70
    32
  0
VERTEX
  8
0
  5
13DF
 10
154.431
 20
130.197
 30
0.00000
  70
    32
  0
VERTEX
  8
0
  5
13E0
 10
154.430
 20
130.172
 30
0.00000
  70
    32
  0
VERTEX
  8
0
  5
13E1
 10
154.428
 20
130.146
 30
0.00000
  70
    32
  0
VERTEX
  8
0
  5
13E2
 10
154.427
 20
130.121
 30
0.00000
  70
    32
  0
VERTEX
  8
0
  5
13E3
 10
154.425
 20
130.096
 30
0.00000
  70
    32
  0
VERTEX
  8
0
  5
13E4
 10
154.424
 20
130.071
 30
0.00000
  70
    32
  0
VERTEX
  8
0
  5
13E5
 10
154.422
 20
130.046
 30
0.00000
  70
    32
  0
VERTEX
  8
0
  5
13E6
 10
154.421
 20
130.020
 30
0.00000
  70
    32
  0
VERTEX
  8
0
  5
13E7
 10
154.419
 20
129.995
 30
0.00000
  70
    32
  0
VERTEX
  8
0
  5
13E8
 10
154.418
 20
129.970
 30
0.00000
  70
    32
  0
VERTEX
  8
0
  5
13E9
 10
154.417
 20
129.945
 30
0.00000
  70
    32
  0
VERTEX
  8
0
  5
13EA
 10
154.415
 20
129.920
 30
0.00000
  70
    32
  0
VERTEX
  8
0
  5
13EB
 10
154.414
 20
129.895
 30
0.00000
  70
    32
  0
VERTEX
  8
0
  5
13EC
 10
154.412
 20
129.870
 30
0.00000
  70
    32
  0
VERTEX
  8
0
  5
13ED
 10
154.411
 20
129.845
 30
0.00000
  70
    32
  0
VERTEX
  8
0
  5
13EE
 10
154.409
 20
129.820
 30
0.00000
  70
    32
  0
VERTEX
  8
0
  5
13EF
 10
154.408
 20
129.794
 30
0.00000
  70
    32
  0
VERTEX
  8
0
  5
13F0
 10
154.406
 20
129.769
 30
0.00000
  70
    32
  0
VERTEX
  8
0
  5
13F1
 10
154.405
 20
129.744
 30
0.00000
  70
    32
  0
VERTEX
  8
0
  5
13F2
 10
154.404
 20
129.719
 30
0.00000
  70
    32
  0
VERTEX
  8
0
  5
13F3
 10
154.402
 20
129.694
 30
0.00000
  70
    32
  0
VERTEX
  8
0
  5
13F4
 10
154.401
 20
129.669
 30
0.00000
  70
    32
  0
VERTEX
  8
0
  5
13F5
 10
154.399
 20
129.644
 30
0.00000
  70
    32
  0
VERTEX
  8
0
  5
13F6
 10
154.398
 20
129.619
 30
0.00000
  70
    32
  0
VERTEX
  8
0
  5
13F7
 10
154.396
 20
129.594
 30
0.00000
  70
    32
  0
VERTEX
  8
0
  5
13F8
 10
154.395
 20
129.569
 30
0.00000
  70
    32
  0
VERTEX
  8
0
  5
13F9
 10
154.394
 20
129.545
 30
0.00000
  70
    32
  0
VERTEX
  8
0
  5
13FA
 10
154.392
 20
129.520
 30
0.00000
  70
    32
  0
VERTEX
  8
0
  5
13FB
 10
154.391
 20
129.495
 30
0.00000
  70
    32
  0
VERTEX
  8
0
  5
13FC
 10
154.389
 20
129.470
 30
0.00000
  70
    32
  0
VERTEX
  8
0
  5
13FD
 10
154.388
 20
129.445
 30
0.00000
  70
    32
  0
VERTEX
  8
0
  5
13FE
 10
154.387
 20
129.420
 30
0.00000
  70
    32
  0
VERTEX
  8
0
  5
13FF
 10
154.385
 20
129.395
 30
0.00000
  70
    32
  0
VERTEX
  8
0
  5
1400
 10
154.384
 20
129.370
 30
0.00000
  70
    32
  0
VERTEX
  8
0
  5
1401
 10
154.382
 20
129.346
 30
0.00000
  70
    32
  0
VERTEX
  8
0
  5
1402
 10
154.381
 20
129.321
 30
0.00000
  70
    32
  0
VERTEX
  8
0
  5
1403
 10
154.380
 20
129.296
 30
0.00000
  70
    32
  0
VERTEX
  8
0
  5
1404
 10
154.378
 20
129.271
 30
0.00000
  70
    32
  0
VERTEX
  8
0
  5
1405
 10
154.377
 20
129.246
 30
0.00000
  70
    32
  0
VERTEX
  8
0
  5
1406
 10
154.375
 20
129.222
 30
0.00000
  70
    32
  0
VERTEX
  8
0
  5
1407
 10
154.374
 20
129.197
 30
0.00000
  70
    32
  0
VERTEX
  8
0
  5
1408
 10
154.373
 20
129.172
 30
0.00000
  70
    32
  0
VERTEX
  8
0
  5
1409
 10
154.371
 20
129.147
 30
0.00000
  70
    32
  0
VERTEX
  8
0
  5
140A
 10
154.370
 20
129.123
 30
0.00000
  70
    32
  0
VERTEX
  8
0
  5
140B
 10
154.368
 20
129.098
 30
0.00000
  70
    32
  0
VERTEX
  8
0
  5
140C
 10
154.367
 20
129.073
 30
0.00000
  70
    32
  0
VERTEX
  8
0
  5
140D
 10
154.366
 20
129.049
 30
0.00000
  70
    32
  0
VERTEX
  8
0
  5
140E
 10
154.364
 20
129.024
 30
0.00000
  70
    32
  0
VERTEX
  8
0
  5
140F
 10
154.363
 20
128.999
 30
0.00000
  70
    32
  0
VERTEX
  8
0
  5
1410
 10
154.362
 20
128.975
 30
0.00000
  70
    32
  0
VERTEX
  8
0
  5
1411
 10
154.360
 20
128.950
 30
0.00000
  70
    32
  0
SEQEND
  8
0
  5
1412
  0
POLYLINE
  5
EC1
  8
0
 10
45.63972855182584
 20
128.9500000000017792
 30
0.0
 66
     1
 70
     8
  0
VERTEX
  8
0
  5
1413
 10
45.6397
 20
128.950
 30
0.00000
  70
    32
  0
VERTEX
  8
0
  5
1414
 10
45.6384
 20
128.975
 30
0.00000
  70
    32
  0
VERTEX
  8
0
  5
1415
 10
45.6370
 20
128.999
 30
0.00000
  70
    32
  0
VERTEX
  8
0
  5
1416
 10
45.6356
 20
129.024
 30
0.00000
  70
    32
  0
VERTEX
  8
0
  5
1417
 10
45.6343
 20
129.049
 30
0.00000
  70
    32
  0
VERTEX
  8
0
  5
1418
 10
45.6329
 20
129.073
 30
0.00000
  70
    32
  0
VERTEX
  8
0
  5
1419
 10
45.6315
 20
129.098
 30
0.00000
  70
    32
  0
VERTEX
  8
0
  5
141A
 10
45.6301
 20
129.123
 30
0.00000
  70
    32
  0
VERTEX
  8
0
  5
141B
 10
45.6288
 20
129.147
 30
0.00000
  70
    32
  0
VERTEX
  8
0
  5
141C
 10
45.6274
 20
129.172
 30
0.00000
  70
    32
  0
VERTEX
  8
0
  5
141D
 10
45.6260
 20
129.197
 30
0.00000
  70
    32
  0
VERTEX
  8
0
  5
141E
 10
45.6246
 20
129.222
 30
0.00000
  70
    32
  0
VERTEX
  8
0
  5
141F
 10
45.6232
 20
129.246
 30
0.00000
  70
    32
  0
VERTEX
  8
0
  5
1420
 10
45.6218
 20
129.271
 30
0.00000
  70
    32
  0
VERTEX
  8
0
  5
1421
 10
45.6204
 20
129.296
 30
0.00000
  70
    32
  0
VERTEX
  8
0
  5
1422
 10
45.6191
 20
129.321
 30
0.00000
  70
    32
  0
VERTEX
  8
0
  5
1423
 10
45.6177
 20
129.346
 30
0.00000
  70
    32
  0
VERTEX
  8
0
  5
1424
 10
45.6163
 20
129.370
 30
0.00000
  70
    32
  0
VERTEX
  8
0
  5
1425
 10
45.6149
 20
129.395
 30
0.00000
  70
    32
  0
VERTEX
  8
0
  5
1426
 10
45.6135
 20
129.420
 30
0.00000
  70
    32
  0
VERTEX
  8
0
  5
1427
 10
45.6120
 20
129.445
 30
0.00000
  70
    32
  0
VERTEX
  8
0
  5
1428
 10
45.6106
 20
129.470
 30
0.00000
  70
    32
  0
VERTEX
  8
0
  5
1429
 10
45.6092
 20
129.495
 30
0.00000
  70
    32
  0
VERTEX
  8
0
  5
142A
 10
45.6078
 20
129.520
 30
0.00000
  70
    32
  0
VERTEX
  8
0
  5
142B
 10
45.6064
 20
129.545
 30
0.00000
  70
    32
  0
VERTEX
  8
0
  5
142C
 10
45.6050
 20
129.569
 30
0.00000
  70
    32
  0
VERTEX
  8
0
  5
142D
 10
45.6036
 20
129.594
 30
0.00000
  70
    32
  0
VERTEX
  8
0
  5
142E
 10
45.6021
 20
129.619
 30
0.00000
  70
    32
  0
VERTEX
  8
0
  5
142F
 10
45.6007
 20
129.644
 30
0.00000
  70
    32
  0
VERTEX
  8
0
  5
1430
 10
45.5993
 20
129.669
 30
0.00000
  70
    32
  0
VERTEX
  8
0
  5
1431
 10
45.5979
 20
129.694
 30
0.00000
  70
    32
  0
VERTEX
  8
0
  5
1432
 10
45.5964
 20
129.719
 30
0.00000
  70
    32
  0
VERTEX
  8
0
  5
1433
 10
45.5950
 20
129.744
 30
0.00000
  70
    32
  0
VERTEX
  8
0
  5
1434
 10
45.5936
 20
129.769
 30
0.00000
  70
    32
  0
VERTEX
  8
0
  5
1435
 10
45.5921
 20
129.794
 30
0.00000
  70
    32
  0
VERTEX
  8
0
  5
1436
 10
45.5907
 20
129.820
 30
0.00000
  70
    32
  0
VERTEX
  8
0
  5
1437
 10
45.5892
 20
129.845
 30
0.00000
  70
    32
  0
VERTEX
  8
0
  5
1438
 10
45.5878
 20
129.870
 30
0.00000
  70
    32
  0
VERTEX
  8
0
  5
1439
 10
45.5864
 20
129.895
 30
0.00000
  70
    32
  0
VERTEX
  8
0
  5
143A
 10
45.5849
 20
129.920
 30
0.00000
  70
    32
  0
VERTEX
  8
0
  5
143B
 10
45.5835
 20
129.945
 30
0.00000
  70
    32
  0
VERTEX
  8
0
  5
143C
 10
45.5820
 20
129.970
 30
0.00000
  70
    32
  0
VERTEX
  8
0
  5
143D
 10
45.5805
 20
129.995
 30
0.00000
  70
    32
  0
VERTEX
  8
0
  5
143E
 10
45.5791
 20
130.020
 30
0.00000
  70
    32
  0
VERTEX
  8
0
  5
143F
 10
45.5776
 20
130.046
 30
0.00000
  70
    32
  0
VERTEX
  8
0
  5
1440
 10
45.5762
 20
130.071
 30
0.00000
  70
    32
  0
VERTEX
  8
0
  5
1441
 10
45.5747
 20
130.096
 30
0.00000
  70
    32
  0
VERTEX
  8
0
  5
1442
 10
45.5732
 20
130.121
 30
0.00000
  70
    32
  0
VERTEX
  8
0
  5
1443
 10
45.5718
 20
130.146
 30
0.00000
  70
    32
  0
VERTEX
  8
0
  5
1444
 10
45.5703
 20
130.172
 30
0.00000
  70
    32
  0
VERTEX
  8
0
  5
1445
 10
45.5688
 20
130.197
 30
0.00000
  70
    32
  0
VERTEX
  8
0
  5
1446
 10
45.5673
 20
130.222
 30
0.00000
  70
    32
  0
VERTEX
  8
0
  5
1447
 10
45.5659
 20
130.247
 30
0.00000
  70
    32
  0
VERTEX
  8
0
  5
1448
 10
45.5644
 20
130.273
 30
0.00000
  70
    32
  0
VERTEX
  8
0
  5
1449
 10
45.5629
 20
130.298
 30
0.00000
  70
    32
  0
VERTEX
  8
0
  5
144A
 10
45.5614
 20
130.323
 30
0.00000
  70
    32
  0
VERTEX
  8
0
  5
144B
 10
45.5599
 20
130.349
 30
0.00000
  70
    32
  0
VERTEX
  8
0
  5
144C
 10
45.5584
 20
130.374
 30
0.00000
  70
    32
  0
VERTEX
  8
0
  5
144D
 10
45.5570
 20
130.399
 30
0.00000
  70
    32
  0
VERTEX
  8
0
  5
144E
 10
45.5555
 20
130.425
 30
0.00000
  70
    32
  0
VERTEX
  8
0
  5
144F
 10
45.5540
 20
130.450
 30
0.00000
  70
    32
  0
VERTEX
  8
0
  5
1450
 10
45.5525
 20
130.475
 30
0.00000
  70
    32
  0
VERTEX
  8
0
  5
1451
 10
45.5510
 20
130.501
 30
0.00000
  70
    32
  0
VERTEX
  8
0
  5
1452
 10
45.5495
 20
130.526
 30
0.00000
  70
    32
  0
VERTEX
  8
0
  5
1453
 10
45.5480
 20
130.552
 30
0.00000
  70
    32
  0
VERTEX
  8
0
  5
1454
 10
45.5465
 20
130.577
 30
0.00000
  70
    32
  0
VERTEX
  8
0
  5
1455
 10
45.5449
 20
130.602
 30
0.00000
  70
    32
  0
VERTEX
  8
0
  5
1456
 10
45.5434
 20
130.628
 30
0.00000
  70
    32
  0
VERTEX
  8
0
  5
1457
 10
45.5419
 20
130.653
 30
0.00000
  70
    32
  0
VERTEX
  8
0
  5
1458
 10
45.5404
 20
130.679
 30
0.00000
  70
    32
  0
VERTEX
  8
0
  5
1459
 10
45.5389
 20
130.704
 30
0.00000
  70
    32
  0
VERTEX
  8
0
  5
145A
 10
45.5374
 20
130.730
 30
0.00000
  70
    32
  0
VERTEX
  8
0
  5
145B
 10
45.5358
 20
130.755
 30
0.00000
  70
    32
  0
VERTEX
  8
0
  5
145C
 10
45.5343
 20
130.781
 30
0.00000
  70
    32
  0
VERTEX
  8
0
  5
145D
 10
45.5328
 20
130.806
 30
0.00000
  70
    32
  0
VERTEX
  8
0
  5
145E
 10
45.5313
 20
130.832
 30
0.00000
  70
    32
  0
VERTEX
  8
0
  5
145F
 10
45.5297
 20
130.857
 30
0.00000
  70
    32
  0
VERTEX
  8
0
  5
1460
 10
45.5282
 20
130.883
 30
0.00000
  70
    32
  0
VERTEX
  8
0
  5
1461
 10
45.5267
 20
130.909
 30
0.00000
  70
    32
  0
VERTEX
  8
0
  5
1462
 10
45.5251
 20
130.934
 30
0.00000
  70
    32
  0
VERTEX
  8
0
  5
1463
 10
45.5236
 20
130.960
 30
0.00000
  70
    32
  0
VERTEX
  8
0
  5
1464
 10
45.5221
 20
130.985
 30
0.00000
  70
    32
  0
VERTEX
  8
0
  5
1465
 10
45.5205
 20
131.011
 30
0.00000
  70
    32
  0
VERTEX
  8
0
  5
1466
 10
45.5190
 20
131.037
 30
0.00000
  70
    32
  0
VERTEX
  8
0
  5
1467
 10
45.5174
 20
131.062
 30
0.00000
  70
    32
  0
VERTEX
  8
0
  5
1468
 10
45.5159
 20
131.088
 30
0.00000
  70
    32
  0
VERTEX
  8
0
  5
1469
 10
45.5143
 20
131.113
 30
0.00000
  70
    32
  0
VERTEX
  8
0
  5
146A
 10
45.5128
 20
131.139
 30
0.00000
  70
    32
  0
VERTEX
  8
0
  5
146B
 10
45.5112
 20
131.165
 30
0.00000
  70
    32
  0
VERTEX
  8
0
  5
146C
 10
45.5097
 20
131.190
 30
0.00000
  70
    32
  0
VERTEX
  8
0
  5
146D
 10
45.5081
 20
131.216
 30
0.00000
  70
    32
  0
VERTEX
  8
0
  5
146E
 10
45.5065
 20
131.242
 30
0.00000
  70
    32
  0
VERTEX
  8
0
  5
146F
 10
45.5050
 20
131.268
 30
0.00000
  70
    32
  0
VERTEX
  8
0
  5
1470
 10
45.5034
 20
131.293
 30
0.00000
  70
    32
  0
VERTEX
  8
0
  5
1471
 10
45.5018
 20
131.319
 30
0.00000
  70
    32
  0
VERTEX
  8
0
  5
1472
 10
45.5003
 20
131.345
 30
0.00000
  70
    32
  0
VERTEX
  8
0
  5
1473
 10
45.4987
 20
131.371
 30
0.00000
  70
    32
  0
VERTEX
  8
0
  5
1474
 10
45.4971
 20
131.396
 30
0.00000
  70
    32
  0
VERTEX
  8
0
  5
1475
 10
45.4955
 20
131.422
 30
0.00000
  70
    32
  0
VERTEX
  8
0
  5
1476
 10
45.4940
 20
131.448
 30
0.00000
  70
    32
  0
VERTEX
  8
0
  5
1477
 10
45.4924
 20
131.474
 30
0.00000
  70
    32
  0
VERTEX
  8
0
  5
1478
 10
45.4908
 20
131.499
 30
0.00000
  70
    32
  0
VERTEX
  8
0
  5
1479
 10
45.4892
 20
131.525
 30
0.00000
  70
    32
  0
VERTEX
  8
0
  5
147A
 10
45.4876
 20
131.551
 30
0.00000
  70
    32
  0
VERTEX
  8
0
  5
147B
 10
45.4860
 20
131.577
 30
0.00000
  70
    32
  0
VERTEX
  8
0
  5
147C
 10
45.4844
 20
131.603
 30
0.00000
  70
    32
  0
VERTEX
  8
0
  5
147D
 10
45.4828
 20
131.629
 30
0.00000
  70
    32
  0
VERTEX
  8
0
  5
147E
 10
45.4812
 20
131.655
 30
0.00000
  70
    32
  0
VERTEX
  8
0
  5
147F
 10
45.4796
 20
131.680
 30
0.00000
  70
    32
  0
VERTEX
  8
0
  5
1480
 10
45.4780
 20
131.706
 30
0.00000
  70
    32
  0
VERTEX
  8
0
  5
1481
 10
45.4764
 20
131.732
 30
0.00000
  70
    32
  0
VERTEX
  8
0
  5
1482
 10
45.4748
 20
131.758
 30
0.00000
  70
    32
  0
VERTEX
  8
0
  5
1483
 10
45.4732
 20
131.784
 30
0.00000
  70
    32
  0
VERTEX
  8
0
  5
1484
 10
45.4716
 20
131.810
 30
0.00000
  70
    32
  0
VERTEX
  8
0
  5
1485
 10
45.4700
 20
131.836
 30
0.00000
  70
    32
  0
VERTEX
  8
0
  5
1486
 10
45.4684
 20
131.862
 30
0.00000
  70
    32
  0
VERTEX
  8
0
  5
1487
 10
45.4668
 20
131.888
 30
0.00000
  70
    32
  0
VERTEX
  8
0
  5
1488
 10
45.4652
 20
131.914
 30
0.00000
  70
    32
  0
VERTEX
  8
0
  5
1489
 10
45.4635
 20
131.940
 30
0.00000
  70
    32
  0
VERTEX
  8
0
  5
148A
 10
45.4619
 20
131.966
 30
0.00000
  70
    32
  0
VERTEX
  8
0
  5
148B
 10
45.4603
 20
131.992
 30
0.00000
  70
    32
  0
VERTEX
  8
0
  5
148C
 10
45.4587
 20
132.018
 30
0.00000
  70
    32
  0
VERTEX
  8
0
  5
148D
 10
45.4570
 20
132.044
 30
0.00000
  70
    32
  0
VERTEX
  8
0
  5
148E
 10
45.4554
 20
132.070
 30
0.00000
  70
    32
  0
VERTEX
  8
0
  5
148F
 10
45.4538
 20
132.096
 30
0.00000
  70
    32
  0
VERTEX
  8
0
  5
1490
 10
45.4522
 20
132.122
 30
0.00000
  70
    32
  0
VERTEX
  8
0
  5
1491
 10
45.4505
 20
132.148
 30
0.00000
  70
    32
  0
VERTEX
  8
0
  5
1492
 10
45.4489
 20
132.174
 30
0.00000
  70
    32
  0
VERTEX
  8
0
  5
1493
 10
45.4472
 20
132.200
 30
0.00000
  70
    32
  0
SEQEND
  8
0
  5
1494
  0
POLYLINE
  5
EC2
  8
0
 10
82.5527582066980301
 20
132.1999999999963791
 30
0.0
 66
     1
 70
     8
  0
VERTEX
  8
0
  5
1495
 10
82.5528
 20
132.200
 30
0.00000
  70
    32
  0
VERTEX
  8
0
  5
1496
 10
82.5511
 20
132.174
 30
0.00000
  70
    32
  0
VERTEX
  8
0
  5
1497
 10
82.5495
 20
132.148
 30
0.00000
  70
    32
  0
VERTEX
  8
0
  5
1498
 10
82.5478
 20
132.122
 30
0.00000
  70
    32
  0
VERTEX
  8
0
  5
1499
 10
82.5462
 20
132.096
 30
0.00000
  70
    32
  0
VERTEX
  8
0
  5
149A
 10
82.5446
 20
132.070
 30
0.00000
  70
    32
  0
VERTEX
  8
0
  5
149B
 10
82.5430
 20
132.044
 30
0.00000
  70
    32
  0
VERTEX
  8
0
  5
149C
 10
82.5413
 20
132.018
 30
0.00000
  70
    32
  0
VERTEX
  8
0
  5
149D
 10
82.5397
 20
131.992
 30
0.00000
  70
    32
  0
VERTEX
  8
0
  5
149E
 10
82.5381
 20
131.966
 30
0.00000
  70
    32
  0
VERTEX
  8
0
  5
149F
 10
82.5365
 20
131.940
 30
0.00000
  70
    32
  0
VERTEX
  8
0
  5
14A0
 10
82.5348
 20
131.914
 30
0.00000
  70
    32
  0
VERTEX
  8
0
  5
14A1
 10
82.5332
 20
131.888
 30
0.00000
  70
    32
  0
VERTEX
  8
0
  5
14A2
 10
82.5316
 20
131.862
 30
0.00000
  70
    32
  0
VERTEX
  8
0
  5
14A3
 10
82.5300
 20
131.836
 30
0.00000
  70
    32
  0
VERTEX
  8
0
  5
14A4
 10
82.5284
 20
131.810
 30
0.00000
  70
    32
  0
VERTEX
  8
0
  5
14A5
 10
82.5268
 20
131.784
 30
0.00000
  70
    32
  0
VERTEX
  8
0
  5
14A6
 10
82.5252
 20
131.758
 30
0.00000
  70
    32
  0
VERTEX
  8
0
  5
14A7
 10
82.5236
 20
131.732
 30
0.00000
  70
    32
  0
VERTEX
  8
0
  5
14A8
 10
82.5220
 20
131.706
 30
0.00000
  70
    32
  0
VERTEX
  8
0
  5
14A9
 10
82.5204
 20
131.680
 30
0.00000
  70
    32
  0
VERTEX
  8
0
  5
14AA
 10
82.5188
 20
131.655
 30
0.00000
  70
    32
  0
VERTEX
  8
0
  5
14AB
 10
82.5172
 20
131.629
 30
0.00000
  70
    32
  0
VERTEX
  8
0
  5
14AC
 10
82.5156
 20
131.603
 30
0.00000
  70
    32
  0
VERTEX
  8
0
  5
14AD
 10
82.5140
 20
131.577
 30
0.00000
  70
    32
  0
VERTEX
  8
0
  5
14AE
 10
82.5124
 20
131.551
 30
0.00000
  70
    32
  0
VERTEX
  8
0
  5
14AF
 10
82.5108
 20
131.525
 30
0.00000
  70
    32
  0
VERTEX
  8
0
  5
14B0
 10
82.5092
 20
131.499
 30
0.00000
  70
    32
  0
VERTEX
  8
0
  5
14B1
 10
82.5076
 20
131.474
 30
0.00000
  70
    32
  0
VERTEX
  8
0
  5
14B2
 10
82.5060
 20
131.448
 30
0.00000
  70
    32
  0
VERTEX
  8
0
  5
14B3
 10
82.5045
 20
131.422
 30
0.00000
  70
    32
  0
VERTEX
  8
0
  5
14B4
 10
82.5029
 20
131.396
 30
0.00000
  70
    32
  0
VERTEX
  8
0
  5
14B5
 10
82.5013
 20
131.371
 30
0.00000
  70
    32
  0
VERTEX
  8
0
  5
14B6
 10
82.4997
 20
131.345
 30
0.00000
  70
    32
  0
VERTEX
  8
0
  5
14B7
 10
82.4982
 20
131.319
 30
0.00000
  70
    32
  0
VERTEX
  8
0
  5
14B8
 10
82.4966
 20
131.293
 30
0.00000
  70
    32
  0
VERTEX
  8
0
  5
14B9
 10
82.4950
 20
131.268
 30
0.00000
  70
    32
  0
VERTEX
  8
0
  5
14BA
 10
82.4935
 20
131.242
 30
0.00000
  70
    32
  0
VERTEX
  8
0
  5
14BB
 10
82.4919
 20
131.216
 30
0.00000
  70
    32
  0
VERTEX
  8
0
  5
14BC
 10
82.4903
 20
131.190
 30
0.00000
  70
    32
  0
VERTEX
  8
0
  5
14BD
 10
82.4888
 20
131.165
 30
0.00000
  70
    32
  0
VERTEX
  8
0
  5
14BE
 10
82.4872
 20
131.139
 30
0.00000
  70
    32
  0
VERTEX
  8
0
  5
14BF
 10
82.4857
 20
131.113
 30
0.00000
  70
    32
  0
VERTEX
  8
0
  5
14C0
 10
82.4841
 20
131.088
 30
0.00000
  70
    32
  0
VERTEX
  8
0
  5
14C1
 10
82.4826
 20
131.062
 30
0.00000
  70
    32
  0
VERTEX
  8
0
  5
14C2
 10
82.4810
 20
131.037
 30
0.00000
  70
    32
  0
VERTEX
  8
0
  5
14C3
 10
82.4795
 20
131.011
 30
0.00000
  70
    32
  0
VERTEX
  8
0
  5
14C4
 10
82.4779
 20
130.985
 30
0.00000
  70
    32
  0
VERTEX
  8
0
  5
14C5
 10
82.4764
 20
130.960
 30
0.00000
  70
    32
  0
VERTEX
  8
0
  5
14C6
 10
82.4749
 20
130.934
 30
0.00000
  70
    32
  0
VERTEX
  8
0
  5
14C7
 10
82.4733
 20
130.909
 30
0.00000
  70
    32
  0
VERTEX
  8
0
  5
14C8
 10
82.4718
 20
130.883
 30
0.00000
  70
    32
  0
VERTEX
  8
0
  5
14C9
 10
82.4703
 20
130.857
 30
0.00000
  70
    32
  0
VERTEX
  8
0
  5
14CA
 10
82.4687
 20
130.832
 30
0.00000
  70
    32
  0
VERTEX
  8
0
  5
14CB
 10
82.4672
 20
130.806
 30
0.00000
  70
    32
  0
VERTEX
  8
0
  5
14CC
 10
82.4657
 20
130.781
 30
0.00000
  70
    32
  0
VERTEX
  8
0
  5
14CD
 10
82.4642
 20
130.755
 30
0.00000
  70
    32
  0
VERTEX
  8
0
  5
14CE
 10
82.4626
 20
130.730
 30
0.00000
  70
    32
  0
VERTEX
  8
0
  5
14CF
 10
82.4611
 20
130.704
 30
0.00000
  70
    32
  0
VERTEX
  8
0
  5
14D0
 10
82.4596
 20
130.679
 30
0.00000
  70
    32
  0
VERTEX
  8
0
  5
14D1
 10
82.4581
 20
130.653
 30
0.00000
  70
    32
  0
VERTEX
  8
0
  5
14D2
 10
82.4566
 20
130.628
 30
0.00000
  70
    32
  0
VERTEX
  8
0
  5
14D3
 10
82.4551
 20
130.602
 30
0.00000
  70
    32
  0
VERTEX
  8
0
  5
14D4
 10
82.4535
 20
130.577
 30
0.00000
  70
    32
  0
VERTEX
  8
0
  5
14D5
 10
82.4520
 20
130.552
 30
0.00000
  70
    32
  0
VERTEX
  8
0
  5
14D6
 10
82.4505
 20
130.526
 30
0.00000
  70
    32
  0
VERTEX
  8
0
  5
14D7
 10
82.4490
 20
130.501
 30
0.00000
  70
    32
  0
VERTEX
  8
0
  5
14D8
 10
82.4475
 20
130.475
 30
0.00000
  70
    32
  0
VERTEX
  8
0
  5
14D9
 10
82.4460
 20
130.450
 30
0.00000
  70
    32
  0
VERTEX
  8
0
  5
14DA
 10
82.4445
 20
130.425
 30
0.00000
  70
    32
  0
VERTEX
  8
0
  5
14DB
 10
82.4430
 20
130.399
 30
0.00000
  70
    32
  0
VERTEX
  8
0
  5
14DC
 10
82.4416
 20
130.374
 30
0.00000
  70
    32
  0
VERTEX
  8
0
  5
14DD
 10
82.4401
 20
130.349
 30
0.00000
  70
    32
  0
VERTEX
  8
0
  5
14DE
 10
82.4386
 20
130.323
 30
0.00000
  70
    32
  0
VERTEX
  8
0
  5
14DF
 10
82.4371
 20
130.298
 30
0.00000
  70
    32
  0
VERTEX
  8
0
  5
14E0
 10
82.4356
 20
130.273
 30
0.00000
  70
    32
  0
VERTEX
  8
0
  5
14E1
 10
82.4341
 20
130.247
 30
0.00000
  70
    32
  0
VERTEX
  8
0
  5
14E2
 10
82.4327
 20
130.222
 30
0.00000
  70
    32
  0
VERTEX
  8
0
  5
14E3
 10
82.4312
 20
130.197
 30
0.00000
  70
    32
  0
VERTEX
  8
0
  5
14E4
 10
82.4297
 20
130.172
 30
0.00000
  70
    32
  0
VERTEX
  8
0
  5
14E5
 10
82.4282
 20
130.146
 30
0.00000
  70
    32
  0
VERTEX
  8
0
  5
14E6
 10
82.4268
 20
130.121
 30
0.00000
  70
    32
  0
VERTEX
  8
0
  5
14E7
 10
82.4253
 20
130.096
 30
0.00000
  70
    32
  0
VERTEX
  8
0
  5
14E8
 10
82.4238
 20
130.071
 30
0.00000
  70
    32
  0
VERTEX
  8
0
  5
14E9
 10
82.4224
 20
130.046
 30
0.00000
  70
    32
  0
VERTEX
  8
0
  5
14EA
 10
82.4209
 20
130.020
 30
0.00000
  70
    32
  0
VERTEX
  8
0
  5
14EB
 10
82.4195
 20
129.995
 30
0.00000
  70
    32
  0
VERTEX
  8
0
  5
14EC
 10
82.4180
 20
129.970
 30
0.00000
  70
    32
  0
VERTEX
  8
0
  5
14ED
 10
82.4165
 20
129.945
 30
0.00000
  70
    32
  0
VERTEX
  8
0
  5
14EE
 10
82.4151
 20
129.920
 30
0.00000
  70
    32
  0
VERTEX
  8
0
  5
14EF
 10
82.4136
 20
129.895
 30
0.00000
  70
    32
  0
VERTEX
  8
0
  5
14F0
 10
82.4122
 20
129.870
 30
0.00000
  70
    32
  0
VERTEX
  8
0
  5
14F1
 10
82.4108
 20
129.845
 30
0.00000
  70
    32
  0
VERTEX
  8
0
  5
14F2
 10
82.4093
 20
129.820
 30
0.00000
  70
    32
  0
VERTEX
  8
0
  5
14F3
 10
82.4079
 20
129.794
 30
0.00000
  70
    32
  0
VERTEX
  8
0
  5
14F4
 10
82.4064
 20
129.769
 30
0.00000
  70
    32
  0
VERTEX
  8
0
  5
14F5
 10
82.4050
 20
129.744
 30
0.00000
  70
    32
  0
VERTEX
  8
0
  5
14F6
 10
82.4036
 20
129.719
 30
0.00000
  70
    32
  0
VERTEX
  8
0
  5
14F7
 10
82.4021
 20
129.694
 30
0.00000
  70
    32
  0
VERTEX
  8
0
  5
14F8
 10
82.4007
 20
129.669
 30
0.00000
  70
    32
  0
VERTEX
  8
0
  5
14F9
 10
82.3993
 20
129.644
 30
0.00000
  70
    32
  0
VERTEX
  8
0
  5
14FA
 10
82.3979
 20
129.619
 30
0.00000
  70
    32
  0
VERTEX
  8
0
  5
14FB
 10
82.3964
 20
129.594
 30
0.00000
  70
    32
  0
VERTEX
  8
0
  5
14FC
 10
82.3950
 20
129.569
 30
0.00000
  70
    32
  0
VERTEX
  8
0
  5
14FD
 10
82.3936
 20
129.545
 30
0.00000
  70
    32
  0
VERTEX
  8
0
  5
14FE
 10
82.3922
 20
129.520
 30
0.00000
  70
    32
  0
VERTEX
  8
0
  5
14FF
 10
82.3908
 20
129.495
 30
0.00000
  70
    32
  0
VERTEX
  8
0
  5
1500
 10
82.3894
 20
129.470
 30
0.00000
  70
    32
  0
VERTEX
  8
0
  5
1501
 10
82.3880
 20
129.445
 30
0.00000
  70
    32
  0
VERTEX
  8
0
  5
1502
 10
82.3865
 20
129.420
 30
0.00000
  70
    32
  0
VERTEX
  8
0
  5
1503
 10
82.3851
 20
129.395
 30
0.00000
  70
    32
  0
VERTEX
  8
0
  5
1504
 10
82.3837
 20
129.370
 30
0.00000
  70
    32
  0
VERTEX
  8
0
  5
1505
 10
82.3823
 20
129.346
 30
0.00000
  70
    32
  0
VERTEX
  8
0
  5
1506
 10
82.3809
 20
129.321
 30
0.00000
  70
    32
  0
VERTEX
  8
0
  5
1507
 10
82.3796
 20
129.296
 30
0.00000
  70
    32
  0
VERTEX
  8
0
  5
1508
 10
82.3782
 20
129.271
 30
0.00000
  70
    32
  0
VERTEX
  8
0
  5
1509
 10
82.3768
 20
129.246
 30
0.00000
  70
    32
  0
VERTEX
  8
0
  5
150A
 10
82.3754
 20
129.222
 30
0.00000
  70
    32
  0
VERTEX
  8
0
  5
150B
 10
82.3740
 20
129.197
 30
0.00000
  70
    32
  0
VERTEX
  8
0
  5
150C
 10
82.3726
 20
129.172
 30
0.00000
  70
    32
  0
VERTEX
  8
0
  5
150D
 10
82.3712
 20
129.147
 30
0.00000
  70
    32
  0
VERTEX
  8
0
  5
150E
 10
82.3699
 20
129.123
 30
0.00000
  70
    32
  0
VERTEX
  8
0
  5
150F
 10
82.3685
 20
129.098
 30
0.00000
  70
    32
  0
VERTEX
  8
0
  5
1510
 10
82.3671
 20
129.073
 30
0.00000
  70
    32
  0
VERTEX
  8
0
  5
1511
 10
82.3657
 20
129.049
 30
0.00000
  70
    32
  0
VERTEX
  8
0
  5
1512
 10
82.3644
 20
129.024
 30
0.00000
  70
    32
  0
VERTEX
  8
0
  5
1513
 10
82.3630
 20
128.999
 30
0.00000
  70
    32
  0
VERTEX
  8
0
  5
1514
 10
82.3616
 20
128.975
 30
0.00000
  70
    32
  0
VERTEX
  8
0
  5
1515
 10
82.3603
 20
128.950
 30
0.00000
  70
    32
  0
SEQEND
  8
0
  5
1516
  0
POLYLINE
  5
EC3
  8
0
 10
29.6397285518258613
 20
128.9500000000016939
 30
0.0
 66
     1
 70
     8
  0
VERTEX
  8
0
  5
1517
 10
29.6397
 20
128.950
 30
0.00000
  70
    32
  0
VERTEX
  8
0
  5
1518
 10
29.6384
 20
128.975
 30
0.00000
  70
    32
  0
VERTEX
  8
0
  5
1519
 10
29.6370
 20
128.999
 30
0.00000
  70
    32
  0
VERTEX
  8
0
  5
151A
 10
29.6356
 20
129.024
 30
0.00000
  70
    32
  0
VERTEX
  8
0
  5
151B
 10
29.6343
 20
129.049
 30
0.00000
  70
    32
  0
VERTEX
  8
0
  5
151C
 10
29.6329
 20
129.073
 30
0.00000
  70
    32
  0
VERTEX
  8
0
  5
151D
 10
29.6315
 20
129.098
 30
0.00000
  70
    32
  0
VERTEX
  8
0
  5
151E
 10
29.6301
 20
129.123
 30
0.00000
  70
    32
  0
VERTEX
  8
0
  5
151F
 10
29.6288
 20
129.147
 30
0.00000
  70
    32
  0
VERTEX
  8
0
  5
1520
 10
29.6274
 20
129.172
 30
0.00000
  70
    32
  0
VERTEX
  8
0
  5
1521
 10
29.6260
 20
129.197
 30
0.00000
  70
    32
  0
VERTEX
  8
0
  5
1522
 10
29.6246
 20
129.222
 30
0.00000
  70
    32
  0
VERTEX
  8
0
  5
1523
 10
29.6232
 20
129.246
 30
0.00000
  70
    32
  0
VERTEX
  8
0
  5
1524
 10
29.6218
 20
129.271
 30
0.00000
  70
    32
  0
VERTEX
  8
0
  5
1525
 10
29.6204
 20
129.296
 30
0.00000
  70
    32
  0
VERTEX
  8
0
  5
1526
 10
29.6191
 20
129.321
 30
0.00000
  70
    32
  0
VERTEX
  8
0
  5
1527
 10
29.6177
 20
129.346
 30
0.00000
  70
    32
  0
VERTEX
  8
0
  5
1528
 10
29.6163
 20
129.370
 30
0.00000
  70
    32
  0
VERTEX
  8
0
  5
1529
 10
29.6149
 20
129.395
 30
0.00000
  70
    32
  0
VERTEX
  8
0
  5
152A
 10
29.6135
 20
129.420
 30
0.00000
  70
    32
  0
VERTEX
  8
0
  5
152B
 10
29.6120
 20
129.445
 30
0.00000
  70
    32
  0
VERTEX
  8
0
  5
152C
 10
29.6106
 20
129.470
 30
0.00000
  70
    32
  0
VERTEX
  8
0
  5
152D
 10
29.6092
 20
129.495
 30
0.00000
  70
    32
  0
VERTEX
  8
0
  5
152E
 10
29.6078
 20
129.520
 30
0.00000
  70
    32
  0
VERTEX
  8
0
  5
152F
 10
29.6064
 20
129.545
 30
0.00000
  70
    32
  0
VERTEX
  8
0
  5
1530
 10
29.6050
 20
129.569
 30
0.00000
  70
    32
  0
VERTEX
  8
0
  5
1531
 10
29.6036
 20
129.594
 30
0.00000
  70
    32
  0
VERTEX
  8
0
  5
1532
 10
29.6021
 20
129.619
 30
0.00000
  70
    32
  0
VERTEX
  8
0
  5
1533
 10
29.6007
 20
129.644
 30
0.00000
  70
    32
  0
VERTEX
  8
0
  5
1534
 10
29.5993
 20
129.669
 30
0.00000
  70
    32
  0
VERTEX
  8
0
  5
1535
 10
29.5979
 20
129.694
 30
0.00000
  70
    32
  0
VERTEX
  8
0
  5
1536
 10
29.5964
 20
129.719
 30
0.00000
  70
    32
  0
VERTEX
  8
0
  5
1537
 10
29.5950
 20
129.744
 30
0.00000
  70
    32
  0
VERTEX
  8
0
  5
1538
 10
29.5936
 20
129.769
 30
0.00000
  70
    32
  0
VERTEX
  8
0
  5
1539
 10
29.5921
 20
129.794
 30
0.00000
  70
    32
  0
VERTEX
  8
0
  5
153A
 10
29.5907
 20
129.820
 30
0.00000
  70
    32
  0
VERTEX
  8
0
  5
153B
 10
29.5892
 20
129.845
 30
0.00000
  70
    32
  0
VERTEX
  8
0
  5
153C
 10
29.5878
 20
129.870
 30
0.00000
  70
    32
  0
VERTEX
  8
0
  5
153D
 10
29.5864
 20
129.895
 30
0.00000
  70
    32
  0
VERTEX
  8
0
  5
153E
 10
29.5849
 20
129.920
 30
0.00000
  70
    32
  0
VERTEX
  8
0
  5
153F
 10
29.5835
 20
129.945
 30
0.00000
  70
    32
  0
VERTEX
  8
0
  5
1540
 10
29.5820
 20
129.970
 30
0.00000
  70
    32
  0
VERTEX
  8
0
  5
1541
 10
29.5805
 20
129.995
 30
0.00000
  70
    32
  0
VERTEX
  8
0
  5
1542
 10
29.5791
 20
130.020
 30
0.00000
  70
    32
  0
VERTEX
  8
0
  5
1543
 10
29.5776
 20
130.046
 30
0.00000
  70
    32
  0
VERTEX
  8
0
  5
1544
 10
29.5762
 20
130.071
 30
0.00000
  70
    32
  0
VERTEX
  8
0
  5
1545
 10
29.5747
 20
130.096
 30
0.00000
  70
    32
  0
VERTEX
  8
0
  5
1546
 10
29.5732
 20
130.121
 30
0.00000
  70
    32
  0
VERTEX
  8
0
  5
1547
 10
29.5718
 20
130.146
 30
0.00000
  70
    32
  0
VERTEX
  8
0
  5
1548
 10
29.5703
 20
130.172
 30
0.00000
  70
    32
  0
VERTEX
  8
0
  5
1549
 10
29.5688
 20
130.197
 30
0.00000
  70
    32
  0
VERTEX
  8
0
  5
154A
 10
29.5673
 20
130.222
 30
0.00000
  70
    32
  0
VERTEX
  8
0
  5
154B
 10
29.5659
 20
130.247
 30
0.00000
  70
    32
  0
VERTEX
  8
0
  5
154C
 10
29.5644
 20
130.273
 30
0.00000
  70
    32
  0
VERTEX
  8
0
  5
154D
 10
29.5629
 20
130.298
 30
0.00000
  70
    32
  0
VERTEX
  8
0
  5
154E
 10
29.5614
 20
130.323
 30
0.00000
  70
    32
  0
VERTEX
  8
0
  5
154F
 10
29.5599
 20
130.349
 30
0.00000
  70
    32
  0
VERTEX
  8
0
  5
1550
 10
29.5584
 20
130.374
 30
0.00000
  70
    32
  0
VERTEX
  8
0
  5
1551
 10
29.5570
 20
130.399
 30
0.00000
  70
    32
  0
VERTEX
  8
0
  5
1552
 10
29.5555
 20
130.425
 30
0.00000
  70
    32
  0
VERTEX
  8
0
  5
1553
 10
29.5540
 20
130.450
 30
0.00000
  70
    32
  0
VERTEX
  8
0
  5
1554
 10
29.5525
 20
130.475
 30
0.00000
  70
    32
  0
VERTEX
  8
0
  5
1555
 10
29.5510
 20
130.501
 30
0.00000
  70
    32
  0
VERTEX
  8
0
  5
1556
 10
29.5495
 20
130.526
 30
0.00000
  70
    32
  0
VERTEX
  8
0
  5
1557
 10
29.5480
 20
130.552
 30
0.00000
  70
    32
  0
VERTEX
  8
0
  5
1558
 10
29.5465
 20
130.577
 30
0.00000
  70
    32
  0
VERTEX
  8
0
  5
1559
 10
29.5449
 20
130.602
 30
0.00000
  70
    32
  0
VERTEX
  8
0
  5
155A
 10
29.5434
 20
130.628
 30
0.00000
  70
    32
  0
VERTEX
  8
0
  5
155B
 10
29.5419
 20
130.653
 30
0.00000
  70
    32
  0
VERTEX
  8
0
  5
155C
 10
29.5404
 20
130.679
 30
0.00000
  70
    32
  0
VERTEX
  8
0
  5
155D
 10
29.5389
 20
130.704
 30
0.00000
  70
    32
  0
VERTEX
  8
0
  5
155E
 10
29.5374
 20
130.730
 30
0.00000
  70
    32
  0
VERTEX
  8
0
  5
155F
 10
29.5358
 20
130.755
 30
0.00000
  70
    32
  0
VERTEX
  8
0
  5
1560
 10
29.5343
 20
130.781
 30
0.00000
  70
    32
  0
VERTEX
  8
0
  5
1561
 10
29.5328
 20
130.806
 30
0.00000
  70
    32
  0
VERTEX
  8
0
  5
1562
 10
29.5313
 20
130.832
 30
0.00000
  70
    32
  0
VERTEX
  8
0
  5
1563
 10
29.5297
 20
130.857
 30
0.00000
  70
    32
  0
VERTEX
  8
0
  5
1564
 10
29.5282
 20
130.883
 30
0.00000
  70
    32
  0
VERTEX
  8
0
  5
1565
 10
29.5267
 20
130.909
 30
0.00000
  70
    32
  0
VERTEX
  8
0
  5
1566
 10
29.5251
 20
130.934
 30
0.00000
  70
    32
  0
VERTEX
  8
0
  5
1567
 10
29.5236
 20
130.960
 30
0.00000
  70
    32
  0
VERTEX
  8
0
  5
1568
 10
29.5221
 20
130.985
 30
0.00000
  70
    32
  0
VERTEX
  8
0
  5
1569
 10
29.5205
 20
131.011
 30
0.00000
  70
    32
  0
VERTEX
  8
0
  5
156A
 10
29.5190
 20
131.037
 30
0.00000
  70
    32
  0
VERTEX
  8
0
  5
156B
 10
29.5174
 20
131.062
 30
0.00000
  70
    32
  0
VERTEX
  8
0
  5
156C
 10
29.5159
 20
131.088
 30
0.00000
  70
    32
  0
VERTEX
  8
0
  5
156D
 10
29.5143
 20
131.113
 30
0.00000
  70
    32
  0
VERTEX
  8
0
  5
156E
 10
29.5128
 20
131.139
 30
0.00000
  70
    32
  0
VERTEX
  8
0
  5
156F
 10
29.5112
 20
131.165
 30
0.00000
  70
    32
  0
VERTEX
  8
0
  5
1570
 10
29.5097
 20
131.190
 30
0.00000
  70
    32
  0
VERTEX
  8
0
  5
1571
 10
29.5081
 20
131.216
 30
0.00000
  70
    32
  0
VERTEX
  8
0
  5
1572
 10
29.5065
 20
131.242
 30
0.00000
  70
    32
  0
VERTEX
  8
0
  5
1573
 10
29.5050
 20
131.268
 30
0.00000
  70
    32
  0
VERTEX
  8
0
  5
1574
 10
29.5034
 20
131.293
 30
0.00000
  70
    32
  0
VERTEX
  8
0
  5
1575
 10
29.5018
 20
131.319
 30
0.00000
  70
    32
  0
VERTEX
  8
0
  5
1576
 10
29.5003
 20
131.345
 30
0.00000
  70
    32
  0
VERTEX
  8
0
  5
1577
 10
29.4987
 20
131.371
 30
0.00000
  70
    32
  0
VERTEX
  8
0
  5
1578
 10
29.4971
 20
131.396
 30
0.00000
  70
    32
  0
VERTEX
  8
0
  5
1579
 10
29.4955
 20
131.422
 30
0.00000
  70
    32
  0
VERTEX
  8
0
  5
157A
 10
29.4940
 20
131.448
 30
0.00000
  70
    32
  0
VERTEX
  8
0
  5
157B
 10
29.4924
 20
131.474
 30
0.00000
  70
    32
  0
VERTEX
  8
0
  5
157C
 10
29.4908
 20
131.499
 30
0.00000
  70
    32
  0
VERTEX
  8
0
  5
157D
 10
29.4892
 20
131.525
 30
0.00000
  70
    32
  0
VERTEX
  8
0
  5
157E
 10
29.4876
 20
131.551
 30
0.00000
  70
    32
  0
VERTEX
  8
0
  5
157F
 10
29.4860
 20
131.577
 30
0.00000
  70
    32
  0
VERTEX
  8
0
  5
1580
 10
29.4844
 20
131.603
 30
0.00000
  70
    32
  0
VERTEX
  8
0
  5
1581
 10
29.4828
 20
131.629
 30
0.00000
  70
    32
  0
VERTEX
  8
0
  5
1582
 10
29.4812
 20
131.655
 30
0.00000
  70
    32
  0
VERTEX
  8
0
  5
1583
 10
29.4796
 20
131.680
 30
0.00000
  70
    32
  0
VERTEX
  8
0
  5
1584
 10
29.4780
 20
131.706
 30
0.00000
  70
    32
  0
VERTEX
  8
0
  5
1585
 10
29.4764
 20
131.732
 30
0.00000
  70
    32
  0
VERTEX
  8
0
  5
1586
 10
29.4748
 20
131.758
 30
0.00000
  70
    32
  0
VERTEX
  8
0
  5
1587
 10
29.4732
 20
131.784
 30
0.00000
  70
    32
  0
VERTEX
  8
0
  5
1588
 10
29.4716
 20
131.810
 30
0.00000
  70
    32
  0
VERTEX
  8
0
  5
1589
 10
29.4700
 20
131.836
 30
0.00000
  70
    32
  0
VERTEX
  8
0
  5
158A
 10
29.4684
 20
131.862
 30
0.00000
  70
    32
  0
VERTEX
  8
0
  5
158B
 10
29.4668
 20
131.888
 30
0.00000
  70
    32
  0
VERTEX
  8
0
  5
158C
 10
29.4652
 20
131.914
 30
0.00000
  70
    32
  0
VERTEX
  8
0
  5
158D
 10
29.4635
 20
131.940
 30
0.00000
  70
    32
  0
VERTEX
  8
0
  5
158E
 10
29.4619
 20
131.966
 30
0.00000
  70
    32
  0
VERTEX
  8
0
  5
158F
 10
29.4603
 20
131.992
 30
0.00000
  70
    32
  0
VERTEX
  8
0
  5
1590
 10
29.4587
 20
132.018
 30
0.00000
  70
    32
  0
VERTEX
  8
0
  5
1591
 10
29.4570
 20
132.044
 30
0.00000
  70
    32
  0
VERTEX
  8
0
  5
1592
 10
29.4554
 20
132.070
 30
0.00000
  70
    32
  0
VERTEX
  8
0
  5
1593
 10
29.4538
 20
132.096
 30
0.00000
  70
    32
  0
VERTEX
  8
0
  5
1594
 10
29.4522
 20
132.122
 30
0.00000
  70
    32
  0
VERTEX
  8
0
  5
1595
 10
29.4505
 20
132.148
 30
0.00000
  70
    32
  0
VERTEX
  8
0
  5
1596
 10
29.4489
 20
132.174
 30
0.00000
  70
    32
  0
VERTEX
  8
0
  5
1597
 10
29.4472
 20
132.200
 30
0.00000
  70
    32
  0
SEQEND
  8
0
  5
1598
  0
POLYLINE
  5
EC4
  8
0
 10
26.5527582066980479
 20
132.1999999999964075
 30
0.0
 66
     1
 70
     8
  0
VERTEX
  8
0
  5
1599
 10
26.5528
 20
132.200
 30
0.00000
  70
    32
  0
VERTEX
  8
0
  5
159A
 10
26.5511
 20
132.174
 30
0.00000
  70
    32
  0
VERTEX
  8
0
  5
159B
 10
26.5495
 20
132.148
 30
0.00000
  70
    32
  0
VERTEX
  8
0
  5
159C
 10
26.5478
 20
132.122
 30
0.00000
  70
    32
  0
VERTEX
  8
0
  5
159D
 10
26.5462
 20
132.096
 30
0.00000
  70
    32
  0
VERTEX
  8
0
  5
159E
 10
26.5446
 20
132.070
 30
0.00000
  70
    32
  0
VERTEX
  8
0
  5
159F
 10
26.5430
 20
132.044
 30
0.00000
  70
    32
  0
VERTEX
  8
0
  5
15A0
 10
26.5413
 20
132.018
 30
0.00000
  70
    32
  0
VERTEX
  8
0
  5
15A1
 10
26.5397
 20
131.992
 30
0.00000
  70
    32
  0
VERTEX
  8
0
  5
15A2
 10
26.5381
 20
131.966
 30
0.00000
  70
    32
  0
VERTEX
  8
0
  5
15A3
 10
26.5365
 20
131.940
 30
0.00000
  70
    32
  0
VERTEX
  8
0
  5
15A4
 10
26.5348
 20
131.914
 30
0.00000
  70
    32
  0
VERTEX
  8
0
  5
15A5
 10
26.5332
 20
131.888
 30
0.00000
  70
    32
  0
VERTEX
  8
0
  5
15A6
 10
26.5316
 20
131.862
 30
0.00000
  70
    32
  0
VERTEX
  8
0
  5
15A7
 10
26.5300
 20
131.836
 30
0.00000
  70
    32
  0
VERTEX
  8
0
  5
15A8
 10
26.5284
 20
131.810
 30
0.00000
  70
    32
  0
VERTEX
  8
0
  5
15A9
 10
26.5268
 20
131.784
 30
0.00000
  70
    32
  0
VERTEX
  8
0
  5
15AA
 10
26.5252
 20
131.758
 30
0.00000
  70
    32
  0
VERTEX
  8
0
  5
15AB
 10
26.5236
 20
131.732
 30
0.00000
  70
    32
  0
VERTEX
  8
0
  5
15AC
 10
26.5220
 20
131.706
 30
0.00000
  70
    32
  0
VERTEX
  8
0
  5
15AD
 10
26.5204
 20
131.680
 30
0.00000
  70
    32
  0
VERTEX
  8
0
  5
15AE
 10
26.5188
 20
131.655
 30
0.00000
  70
    32
  0
VERTEX
  8
0
  5
15AF
 10
26.5172
 20
131.629
 30
0.00000
  70
    32
  0
VERTEX
  8
0
  5
15B0
 10
26.5156
 20
131.603
 30
0.00000
  70
    32
  0
VERTEX
  8
0
  5
15B1
 10
26.5140
 20
131.577
 30
0.00000
  70
    32
  0
VERTEX
  8
0
  5
15B2
 10
26.5124
 20
131.551
 30
0.00000
  70
    32
  0
VERTEX
  8
0
  5
15B3
 10
26.5108
 20
131.525
 30
0.00000
  70
    32
  0
VERTEX
  8
0
  5
15B4
 10
26.5092
 20
131.499
 30
0.00000
  70
    32
  0
VERTEX
  8
0
  5
15B5
 10
26.5076
 20
131.474
 30
0.00000
  70
    32
  0
VERTEX
  8
0
  5
15B6
 10
26.5060
 20
131.448
 30
0.00000
  70
    32
  0
VERTEX
  8
0
  5
15B7
 10
26.5045
 20
131.422
 30
0.00000
  70
    32
  0
VERTEX
  8
0
  5
15B8
 10
26.5029
 20
131.396
 30
0.00000
  70
    32
  0
VERTEX
  8
0
  5
15B9
 10
26.5013
 20
131.371
 30
0.00000
  70
    32
  0
VERTEX
  8
0
  5
15BA
 10
26.4997
 20
131.345
 30
0.00000
  70
    32
  0
VERTEX
  8
0
  5
15BB
 10
26.4982
 20
131.319
 30
0.00000
  70
    32
  0
VERTEX
  8
0
  5
15BC
 10
26.4966
 20
131.293
 30
0.00000
  70
    32
  0
VERTEX
  8
0
  5
15BD
 10
26.4950
 20
131.268
 30
0.00000
  70
    32
  0
VERTEX
  8
0
  5
15BE
 10
26.4935
 20
131.242
 30
0.00000
  70
    32
  0
VERTEX
  8
0
  5
15BF
 10
26.4919
 20
131.216
 30
0.00000
  70
    32
  0
VERTEX
  8
0
  5
15C0
 10
26.4903
 20
131.190
 30
0.00000
  70
    32
  0
VERTEX
  8
0
  5
15C1
 10
26.4888
 20
131.165
 30
0.00000
  70
    32
  0
VERTEX
  8
0
  5
15C2
 10
26.4872
 20
131.139
 30
0.00000
  70
    32
  0
VERTEX
  8
0
  5
15C3
 10
26.4857
 20
131.113
 30
0.00000
  70
    32
  0
VERTEX
  8
0
  5
15C4
 10
26.4841
 20
131.088
 30
0.00000
  70
    32
  0
VERTEX
  8
0
  5
15C5
 10
26.4826
 20
131.062
 30
0.00000
  70
    32
  0
VERTEX
  8
0
  5
15C6
 10
26.4810
 20
131.037
 30
0.00000
  70
    32
  0
VERTEX
  8
0
  5
15C7
 10
26.4795
 20
131.011
 30
0.00000
  70
    32
  0
VERTEX
  8
0
  5
15C8
 10
26.4779
 20
130.985
 30
0.00000
  70
    32
  0
VERTEX
  8
0
  5
15C9
 10
26.4764
 20
130.960
 30
0.00000
  70
    32
  0
VERTEX
  8
0
  5
15CA
 10
26.4749
 20
130.934
 30
0.00000
  70
    32
  0
VERTEX
  8
0
  5
15CB
 10
26.4733
 20
130.909
 30
0.00000
  70
    32
  0
VERTEX
  8
0
  5
15CC
 10
26.4718
 20
130.883
 30
0.00000
  70
    32
  0
VERTEX
  8
0
  5
15CD
 10
26.4703
 20
130.857
 30
0.00000
  70
    32
  0
VERTEX
  8
0
  5
15CE
 10
26.4687
 20
130.832
 30
0.00000
  70
    32
  0
VERTEX
  8
0
  5
15CF
 10
26.4672
 20
130.806
 30
0.00000
  70
    32
  0
VERTEX
  8
0
  5
15D0
 10
26.4657
 20
130.781
 30
0.00000
  70
    32
  0
VERTEX
  8
0
  5
15D1
 10
26.4642
 20
130.755
 30
0.00000
  70
    32
  0
VERTEX
  8
0
  5
15D2
 10
26.4626
 20
130.730
 30
0.00000
  70
    32
  0
VERTEX
  8
0
  5
15D3
 10
26.4611
 20
130.704
 30
0.00000
  70
    32
  0
VERTEX
  8
0
  5
15D4
 10
26.4596
 20
130.679
 30
0.00000
  70
    32
  0
VERTEX
  8
0
  5
15D5
 10
26.4581
 20
130.653
 30
0.00000
  70
    32
  0
VERTEX
  8
0
  5
15D6
 10
26.4566
 20
130.628
 30
0.00000
  70
    32
  0
VERTEX
  8
0
  5
15D7
 10
26.4551
 20
130.602
 30
0.00000
  70
    32
  0
VERTEX
  8
0
  5
15D8
 10
26.4535
 20
130.577
 30
0.00000
  70
    32
  0
VERTEX
  8
0
  5
15D9
 10
26.4520
 20
130.552
 30
0.00000
  70
    32
  0
VERTEX
  8
0
  5
15DA
 10
26.4505
 20
130.526
 30
0.00000
  70
    32
  0
VERTEX
  8
0
  5
15DB
 10
26.4490
 20
130.501
 30
0.00000
  70
    32
  0
VERTEX
  8
0
  5
15DC
 10
26.4475
 20
130.475
 30
0.00000
  70
    32
  0
VERTEX
  8
0
  5
15DD
 10
26.4460
 20
130.450
 30
0.00000
  70
    32
  0
VERTEX
  8
0
  5
15DE
 10
26.4445
 20
130.425
 30
0.00000
  70
    32
  0
VERTEX
  8
0
  5
15DF
 10
26.4430
 20
130.399
 30
0.00000
  70
    32
  0
VERTEX
  8
0
  5
15E0
 10
26.4416
 20
130.374
 30
0.00000
  70
    32
  0
VERTEX
  8
0
  5
15E1
 10
26.4401
 20
130.349
 30
0.00000
  70
    32
  0
VERTEX
  8
0
  5
15E2
 10
26.4386
 20
130.323
 30
0.00000
  70
    32
  0
VERTEX
  8
0
  5
15E3
 10
26.4371
 20
130.298
 30
0.00000
  70
    32
  0
VERTEX
  8
0
  5
15E4
 10
26.4356
 20
130.273
 30
0.00000
  70
    32
  0
VERTEX
  8
0
  5
15E5
 10
26.4341
 20
130.247
 30
0.00000
  70
    32
  0
VERTEX
  8
0
  5
15E6
 10
26.4327
 20
130.222
 30
0.00000
  70
    32
  0
VERTEX
  8
0
  5
15E7
 10
26.4312
 20
130.197
 30
0.00000
  70
    32
  0
VERTEX
  8
0
  5
15E8
 10
26.4297
 20
130.172
 30
0.00000
  70
    32
  0
VERTEX
  8
0
  5
15E9
 10
26.4282
 20
130.146
 30
0.00000
  70
    32
  0
VERTEX
  8
0
  5
15EA
 10
26.4268
 20
130.121
 30
0.00000
  70
    32
  0
VERTEX
  8
0
  5
15EB
 10
26.4253
 20
130.096
 30
0.00000
  70
    32
  0
VERTEX
  8
0
  5
15EC
 10
26.4238
 20
130.071
 30
0.00000
  70
    32
  0
VERTEX
  8
0
  5
15ED
 10
26.4224
 20
130.046
 30
0.00000
  70
    32
  0
VERTEX
  8
0
  5
15EE
 10
26.4209
 20
130.020
 30
0.00000
  70
    32
  0
VERTEX
  8
0
  5
15EF
 10
26.4195
 20
129.995
 30
0.00000
  70
    32
  0
VERTEX
  8
0
  5
15F0
 10
26.4180
 20
129.970
 30
0.00000
  70
    32
  0
VERTEX
  8
0
  5
15F1
 10
26.4165
 20
129.945
 30
0.00000
  70
    32
  0
VERTEX
  8
0
  5
15F2
 10
26.4151
 20
129.920
 30
0.00000
  70
    32
  0
VERTEX
  8
0
  5
15F3
 10
26.4136
 20
129.895
 30
0.00000
  70
    32
  0
VERTEX
  8
0
  5
15F4
 10
26.4122
 20
129.870
 30
0.00000
  70
    32
  0
VERTEX
  8
0
  5
15F5
 10
26.4108
 20
129.845
 30
0.00000
  70
    32
  0
VERTEX
  8
0
  5
15F6
 10
26.4093
 20
129.820
 30
0.00000
  70
    32
  0
VERTEX
  8
0
  5
15F7
 10
26.4079
 20
129.794
 30
0.00000
  70
    32
  0
VERTEX
  8
0
  5
15F8
 10
26.4064
 20
129.769
 30
0.00000
  70
    32
  0
VERTEX
  8
0
  5
15F9
 10
26.4050
 20
129.744
 30
0.00000
  70
    32
  0
VERTEX
  8
0
  5
15FA
 10
26.4036
 20
129.719
 30
0.00000
  70
    32
  0
VERTEX
  8
0
  5
15FB
 10
26.4021
 20
129.694
 30
0.00000
  70
    32
  0
VERTEX
  8
0
  5
15FC
 10
26.4007
 20
129.669
 30
0.00000
  70
    32
  0
VERTEX
  8
0
  5
15FD
 10
26.3993
 20
129.644
 30
0.00000
  70
    32
  0
VERTEX
  8
0
  5
15FE
 10
26.3979
 20
129.619
 30
0.00000
  70
    32
  0
VERTEX
  8
0
  5
15FF
 10
26.3964
 20
129.594
 30
0.00000
  70
    32
  0
VERTEX
  8
0
  5
1600
 10
26.3950
 20
129.569
 30
0.00000
  70
    32
  0
VERTEX
  8
0
  5
1601
 10
26.3936
 20
129.545
 30
0.00000
  70
    32
  0
VERTEX
  8
0
  5
1602
 10
26.3922
 20
129.520
 30
0.00000
  70
    32
  0
VERTEX
  8
0
  5
1603
 10
26.3908
 20
129.495
 30
0.00000
  70
    32
  0
VERTEX
  8
0
  5
1604
 10
26.3894
 20
129.470
 30
0.00000
  70
    32
  0
VERTEX
  8
0
  5
1605
 10
26.3880
 20
129.445
 30
0.00000
  70
    32
  0
VERTEX
  8
0
  5
1606
 10
26.3865
 20
129.420
 30
0.00000
  70
    32
  0
VERTEX
  8
0
  5
1607
 10
26.3851
 20
129.395
 30
0.00000
  70
    32
  0
VERTEX
  8
0
  5
1608
 10
26.3837
 20
129.370
 30
0.00000
  70
    32
  0
VERTEX
  8
0
  5
1609
 10
26.3823
 20
129.346
 30
0.00000
  70
    32
  0
VERTEX
  8
0
  5
160A
 10
26.3809
 20
129.321
 30
0.00000
  70
    32
  0
VERTEX
  8
0
  5
160B
 10
26.3796
 20
129.296
 30
0.00000
  70
    32
  0
VERTEX
  8
0
  5
160C
 10
26.3782
 20
129.271
 30
0.00000
  70
    32
  0
VERTEX
  8
0
  5
160D
 10
26.3768
 20
129.246
 30
0.00000
  70
    32
  0
VERTEX
  8
0
  5
160E
 10
26.3754
 20
129.222
 30
0.00000
  70
    32
  0
VERTEX
  8
0
  5
160F
 10
26.3740
 20
129.197
 30
0.00000
  70
    32
  0
VERTEX
  8
0
  5
1610
 10
26.3726
 20
129.172
 30
0.00000
  70
    32
  0
VERTEX
  8
0
  5
1611
 10
26.3712
 20
129.147
 30
0.00000
  70
    32
  0
VERTEX
  8
0
  5
1612
 10
26.3699
 20
129.123
 30
0.00000
  70
    32
  0
VERTEX
  8
0
  5
1613
 10
26.3685
 20
129.098
 30
0.00000
  70
    32
  0
VERTEX
  8
0
  5
1614
 10
26.3671
 20
129.073
 30
0.00000
  70
    32
  0
VERTEX
  8
0
  5
1615
 10
26.3657
 20
129.049
 30
0.00000
  70
    32
  0
VERTEX
  8
0
  5
1616
 10
26.3644
 20
129.024
 30
0.00000
  70
    32
  0
VERTEX
  8
0
  5
1617
 10
26.3630
 20
128.999
 30
0.00000
  70
    32
  0
VERTEX
  8
0
  5
1618
 10
26.3616
 20
128.975
 30
0.00000
  70
    32
  0
VERTEX
  8
0
  5
1619
 10
26.3603
 20
128.950
 30
0.00000
  70
    32
  0
SEQEND
  8
0
  5
161A
  0
POLYLINE
  5
EC5
  8
0
 10
133.6397285518246747
 20
128.9500000000087709
 30
0.0
 66
     1
 70
     8
  0
VERTEX
  8
0
  5
161B
 10
133.640
 20
128.950
 30
0.00000
  70
    32
  0
VERTEX
  8
0
  5
161C
 10
133.638
 20
128.975
 30
0.00000
  70
    32
  0
VERTEX
  8
0
  5
161D
 10
133.637
 20
128.999
 30
0.00000
  70
    32
  0
VERTEX
  8
0
  5
161E
 10
133.636
 20
129.024
 30
0.00000
  70
    32
  0
VERTEX
  8
0
  5
161F
 10
133.634
 20
129.049
 30
0.00000
  70
    32
  0
VERTEX
  8
0
  5
1620
 10
133.633
 20
129.073
 30
0.00000
  70
    32
  0
VERTEX
  8
0
  5
1621
 10
133.632
 20
129.098
 30
0.00000
  70
    32
  0
VERTEX
  8
0
  5
1622
 10
133.630
 20
129.123
 30
0.00000
  70
    32
  0
VERTEX
  8
0
  5
1623
 10
133.629
 20
129.147
 30
0.00000
  70
    32
  0
VERTEX
  8
0
  5
1624
 10
133.627
 20
129.172
 30
0.00000
  70
    32
  0
VERTEX
  8
0
  5
1625
 10
133.626
 20
129.197
 30
0.00000
  70
    32
  0
VERTEX
  8
0
  5
1626
 10
133.625
 20
129.222
 30
0.00000
  70
    32
  0
VERTEX
  8
0
  5
1627
 10
133.623
 20
129.246
 30
0.00000
  70
    32
  0
VERTEX
  8
0
  5
1628
 10
133.622
 20
129.271
 30
0.00000
  70
    32
  0
VERTEX
  8
0
  5
1629
 10
133.620
 20
129.296
 30
0.00000
  70
    32
  0
VERTEX
  8
0
  5
162A
 10
133.619
 20
129.321
 30
0.00000
  70
    32
  0
VERTEX
  8
0
  5
162B
 10
133.618
 20
129.346
 30
0.00000
  70
    32
  0
VERTEX
  8
0
  5
162C
 10
133.616
 20
129.370
 30
0.00000
  70
    32
  0
VERTEX
  8
0
  5
162D
 10
133.615
 20
129.395
 30
0.00000
  70
    32
  0
VERTEX
  8
0
  5
162E
 10
133.613
 20
129.420
 30
0.00000
  70
    32
  0
VERTEX
  8
0
  5
162F
 10
133.612
 20
129.445
 30
0.00000
  70
    32
  0
VERTEX
  8
0
  5
1630
 10
133.611
 20
129.470
 30
0.00000
  70
    32
  0
VERTEX
  8
0
  5
1631
 10
133.609
 20
129.495
 30
0.00000
  70
    32
  0
VERTEX
  8
0
  5
1632
 10
133.608
 20
129.520
 30
0.00000
  70
    32
  0
VERTEX
  8
0
  5
1633
 10
133.606
 20
129.545
 30
0.00000
  70
    32
  0
VERTEX
  8
0
  5
1634
 10
133.605
 20
129.569
 30
0.00000
  70
    32
  0
VERTEX
  8
0
  5
1635
 10
133.604
 20
129.594
 30
0.00000
  70
    32
  0
VERTEX
  8
0
  5
1636
 10
133.602
 20
129.619
 30
0.00000
  70
    32
  0
VERTEX
  8
0
  5
1637
 10
133.601
 20
129.644
 30
0.00000
  70
    32
  0
VERTEX
  8
0
  5
1638
 10
133.599
 20
129.669
 30
0.00000
  70
    32
  0
VERTEX
  8
0
  5
1639
 10
133.598
 20
129.694
 30
0.00000
  70
    32
  0
VERTEX
  8
0
  5
163A
 10
133.596
 20
129.719
 30
0.00000
  70
    32
  0
VERTEX
  8
0
  5
163B
 10
133.595
 20
129.744
 30
0.00000
  70
    32
  0
VERTEX
  8
0
  5
163C
 10
133.594
 20
129.769
 30
0.00000
  70
    32
  0
VERTEX
  8
0
  5
163D
 10
133.592
 20
129.794
 30
0.00000
  70
    32
  0
VERTEX
  8
0
  5
163E
 10
133.591
 20
129.820
 30
0.00000
  70
    32
  0
VERTEX
  8
0
  5
163F
 10
133.589
 20
129.845
 30
0.00000
  70
    32
  0
VERTEX
  8
0
  5
1640
 10
133.588
 20
129.870
 30
0.00000
  70
    32
  0
VERTEX
  8
0
  5
1641
 10
133.586
 20
129.895
 30
0.00000
  70
    32
  0
VERTEX
  8
0
  5
1642
 10
133.585
 20
129.920
 30
0.00000
  70
    32
  0
VERTEX
  8
0
  5
1643
 10
133.583
 20
129.945
 30
0.00000
  70
    32
  0
VERTEX
  8
0
  5
1644
 10
133.582
 20
129.970
 30
0.00000
  70
    32
  0
VERTEX
  8
0
  5
1645
 10
133.581
 20
129.995
 30
0.00000
  70
    32
  0
VERTEX
  8
0
  5
1646
 10
133.579
 20
130.020
 30
0.00000
  70
    32
  0
VERTEX
  8
0
  5
1647
 10
133.578
 20
130.046
 30
0.00000
  70
    32
  0
VERTEX
  8
0
  5
1648
 10
133.576
 20
130.071
 30
0.00000
  70
    32
  0
VERTEX
  8
0
  5
1649
 10
133.575
 20
130.096
 30
0.00000
  70
    32
  0
VERTEX
  8
0
  5
164A
 10
133.573
 20
130.121
 30
0.00000
  70
    32
  0
VERTEX
  8
0
  5
164B
 10
133.572
 20
130.146
 30
0.00000
  70
    32
  0
VERTEX
  8
0
  5
164C
 10
133.570
 20
130.172
 30
0.00000
  70
    32
  0
VERTEX
  8
0
  5
164D
 10
133.569
 20
130.197
 30
0.00000
  70
    32
  0
VERTEX
  8
0
  5
164E
 10
133.567
 20
130.222
 30
0.00000
  70
    32
  0
VERTEX
  8
0
  5
164F
 10
133.566
 20
130.247
 30
0.00000
  70
    32
  0
VERTEX
  8
0
  5
1650
 10
133.564
 20
130.273
 30
0.00000
  70
    32
  0
VERTEX
  8
0
  5
1651
 10
133.563
 20
130.298
 30
0.00000
  70
    32
  0
VERTEX
  8
0
  5
1652
 10
133.561
 20
130.323
 30
0.00000
  70
    32
  0
VERTEX
  8
0
  5
1653
 10
133.560
 20
130.349
 30
0.00000
  70
    32
  0
VERTEX
  8
0
  5
1654
 10
133.558
 20
130.374
 30
0.00000
  70
    32
  0
VERTEX
  8
0
  5
1655
 10
133.557
 20
130.399
 30
0.00000
  70
    32
  0
VERTEX
  8
0
  5
1656
 10
133.555
 20
130.425
 30
0.00000
  70
    32
  0
VERTEX
  8
0
  5
1657
 10
133.554
 20
130.450
 30
0.00000
  70
    32
  0
VERTEX
  8
0
  5
1658
 10
133.552
 20
130.475
 30
0.00000
  70
    32
  0
VERTEX
  8
0
  5
1659
 10
133.551
 20
130.501
 30
0.00000
  70
    32
  0
VERTEX
  8
0
  5
165A
 10
133.549
 20
130.526
 30
0.00000
  70
    32
  0
VERTEX
  8
0
  5
165B
 10
133.548
 20
130.552
 30
0.00000
  70
    32
  0
VERTEX
  8
0
  5
165C
 10
133.546
 20
130.577
 30
0.00000
  70
    32
  0
VERTEX
  8
0
  5
165D
 10
133.545
 20
130.602
 30
0.00000
  70
    32
  0
VERTEX
  8
0
  5
165E
 10
133.543
 20
130.628
 30
0.00000
  70
    32
  0
VERTEX
  8
0
  5
165F
 10
133.542
 20
130.653
 30
0.00000
  70
    32
  0
VERTEX
  8
0
  5
1660
 10
133.540
 20
130.679
 30
0.00000
  70
    32
  0
VERTEX
  8
0
  5
1661
 10
133.539
 20
130.704
 30
0.00000
  70
    32
  0
VERTEX
  8
0
  5
1662
 10
133.537
 20
130.730
 30
0.00000
  70
    32
  0
VERTEX
  8
0
  5
1663
 10
133.536
 20
130.755
 30
0.00000
  70
    32
  0
VERTEX
  8
0
  5
1664
 10
133.534
 20
130.781
 30
0.00000
  70
    32
  0
VERTEX
  8
0
  5
1665
 10
133.533
 20
130.806
 30
0.00000
  70
    32
  0
VERTEX
  8
0
  5
1666
 10
133.531
 20
130.832
 30
0.00000
  70
    32
  0
VERTEX
  8
0
  5
1667
 10
133.530
 20
130.857
 30
0.00000
  70
    32
  0
VERTEX
  8
0
  5
1668
 10
133.528
 20
130.883
 30
0.00000
  70
    32
  0
VERTEX
  8
0
  5
1669
 10
133.527
 20
130.909
 30
0.00000
  70
    32
  0
VERTEX
  8
0
  5
166A
 10
133.525
 20
130.934
 30
0.00000
  70
    32
  0
VERTEX
  8
0
  5
166B
 10
133.524
 20
130.960
 30
0.00000
  70
    32
  0
VERTEX
  8
0
  5
166C
 10
133.522
 20
130.985
 30
0.00000
  70
    32
  0
VERTEX
  8
0
  5
166D
 10
133.521
 20
131.011
 30
0.00000
  70
    32
  0
VERTEX
  8
0
  5
166E
 10
133.519
 20
131.037
 30
0.00000
  70
    32
  0
VERTEX
  8
0
  5
166F
 10
133.517
 20
131.062
 30
0.00000
  70
    32
  0
VERTEX
  8
0
  5
1670
 10
133.516
 20
131.088
 30
0.00000
  70
    32
  0
VERTEX
  8
0
  5
1671
 10
133.514
 20
131.113
 30
0.00000
  70
    32
  0
VERTEX
  8
0
  5
1672
 10
133.513
 20
131.139
 30
0.00000
  70
    32
  0
VERTEX
  8
0
  5
1673
 10
133.511
 20
131.165
 30
0.00000
  70
    32
  0
VERTEX
  8
0
  5
1674
 10
133.510
 20
131.190
 30
0.00000
  70
    32
  0
VERTEX
  8
0
  5
1675
 10
133.508
 20
131.216
 30
0.00000
  70
    32
  0
VERTEX
  8
0
  5
1676
 10
133.507
 20
131.242
 30
0.00000
  70
    32
  0
VERTEX
  8
0
  5
1677
 10
133.505
 20
131.268
 30
0.00000
  70
    32
  0
VERTEX
  8
0
  5
1678
 10
133.503
 20
131.293
 30
0.00000
  70
    32
  0
VERTEX
  8
0
  5
1679
 10
133.502
 20
131.319
 30
0.00000
  70
    32
  0
VERTEX
  8
0
  5
167A
 10
133.500
 20
131.345
 30
0.00000
  70
    32
  0
VERTEX
  8
0
  5
167B
 10
133.499
 20
131.371
 30
0.00000
  70
    32
  0
VERTEX
  8
0
  5
167C
 10
133.497
 20
131.396
 30
0.00000
  70
    32
  0
VERTEX
  8
0
  5
167D
 10
133.496
 20
131.422
 30
0.00000
  70
    32
  0
VERTEX
  8
0
  5
167E
 10
133.494
 20
131.448
 30
0.00000
  70
    32
  0
VERTEX
  8
0
  5
167F
 10
133.492
 20
131.474
 30
0.00000
  70
    32
  0
VERTEX
  8
0
  5
1680
 10
133.491
 20
131.499
 30
0.00000
  70
    32
  0
VERTEX
  8
0
  5
1681
 10
133.489
 20
131.525
 30
0.00000
  70
    32
  0
VERTEX
  8
0
  5
1682
 10
133.488
 20
131.551
 30
0.00000
  70
    32
  0
VERTEX
  8
0
  5
1683
 10
133.486
 20
131.577
 30
0.00000
  70
    32
  0
VERTEX
  8
0
  5
1684
 10
133.484
 20
131.603
 30
0.00000
  70
    32
  0
VERTEX
  8
0
  5
1685
 10
133.483
 20
131.629
 30
0.00000
  70
    32
  0
VERTEX
  8
0
  5
1686
 10
133.481
 20
131.655
 30
0.00000
  70
    32
  0
VERTEX
  8
0
  5
1687
 10
133.480
 20
131.680
 30
0.00000
  70
    32
  0
VERTEX
  8
0
  5
1688
 10
133.478
 20
131.706
 30
0.00000
  70
    32
  0
VERTEX
  8
0
  5
1689
 10
133.476
 20
131.732
 30
0.00000
  70
    32
  0
VERTEX
  8
0
  5
168A
 10
133.475
 20
131.758
 30
0.00000
  70
    32
  0
VERTEX
  8
0
  5
168B
 10
133.473
 20
131.784
 30
0.00000
  70
    32
  0
VERTEX
  8
0
  5
168C
 10
133.472
 20
131.810
 30
0.00000
  70
    32
  0
VERTEX
  8
0
  5
168D
 10
133.470
 20
131.836
 30
0.00000
  70
    32
  0
VERTEX
  8
0
  5
168E
 10
133.468
 20
131.862
 30
0.00000
  70
    32
  0
VERTEX
  8
0
  5
168F
 10
133.467
 20
131.888
 30
0.00000
  70
    32
  0
VERTEX
  8
0
  5
1690
 10
133.465
 20
131.914
 30
0.00000
  70
    32
  0
VERTEX
  8
0
  5
1691
 10
133.464
 20
131.940
 30
0.00000
  70
    32
  0
VERTEX
  8
0
  5
1692
 10
133.462
 20
131.966
 30
0.00000
  70
    32
  0
VERTEX
  8
0
  5
1693
 10
133.460
 20
131.992
 30
0.00000
  70
    32
  0
VERTEX
  8
0
  5
1694
 10
133.459
 20
132.018
 30
0.00000
  70
    32
  0
VERTEX
  8
0
  5
1695
 10
133.457
 20
132.044
 30
0.00000
  70
    32
  0
VERTEX
  8
0
  5
1696
 10
133.455
 20
132.070
 30
0.00000
  70
    32
  0
VERTEX
  8
0
  5
1697
 10
133.454
 20
132.096
 30
0.00000
  70
    32
  0
VERTEX
  8
0
  5
1698
 10
133.452
 20
132.122
 30
0.00000
  70
    32
  0
VERTEX
  8
0
  5
1699
 10
133.451
 20
132.148
 30
0.00000
  70
    32
  0
VERTEX
  8
0
  5
169A
 10
133.449
 20
132.174
 30
0.00000
  70
    32
  0
VERTEX
  8
0
  5
169B
 10
133.447
 20
132.200
 30
0.00000
  70
    32
  0
SEQEND
  8
0
  5
169C
  0
POLYLINE
  5
EC6
  8
0
 10
69.63972855182584
 20
128.9500000000017792
 30
0.0
 66
     1
 70
     8
  0
VERTEX
  8
0
  5
169D
 10
69.6397
 20
128.950
 30
0.00000
  70
    32
  0
VERTEX
  8
0
  5
169E
 10
69.6384
 20
128.975
 30
0.00000
  70
    32
  0
VERTEX
  8
0
  5
169F
 10
69.6370
 20
128.999
 30
0.00000
  70
    32
  0
VERTEX
  8
0
  5
16A0
 10
69.6356
 20
129.024
 30
0.00000
  70
    32
  0
VERTEX
  8
0
  5
16A1
 10
69.6343
 20
129.049
 30
0.00000
  70
    32
  0
VERTEX
  8
0
  5
16A2
 10
69.6329
 20
129.073
 30
0.00000
  70
    32
  0
VERTEX
  8
0
  5
16A3
 10
69.6315
 20
129.098
 30
0.00000
  70
    32
  0
VERTEX
  8
0
  5
16A4
 10
69.6301
 20
129.123
 30
0.00000
  70
    32
  0
VERTEX
  8
0
  5
16A5
 10
69.6288
 20
129.147
 30
0.00000
  70
    32
  0
VERTEX
  8
0
  5
16A6
 10
69.6274
 20
129.172
 30
0.00000
  70
    32
  0
VERTEX
  8
0
  5
16A7
 10
69.6260
 20
129.197
 30
0.00000
  70
    32
  0
VERTEX
  8
0
  5
16A8
 10
69.6246
 20
129.222
 30
0.00000
  70
    32
  0
VERTEX
  8
0
  5
16A9
 10
69.6232
 20
129.246
 30
0.00000
  70
    32
  0
VERTEX
  8
0
  5
16AA
 10
69.6218
 20
129.271
 30
0.00000
  70
    32
  0
VERTEX
  8
0
  5
16AB
 10
69.6204
 20
129.296
 30
0.00000
  70
    32
  0
VERTEX
  8
0
  5
16AC
 10
69.6191
 20
129.321
 30
0.00000
  70
    32
  0
VERTEX
  8
0
  5
16AD
 10
69.6177
 20
129.346
 30
0.00000
  70
    32
  0
VERTEX
  8
0
  5
16AE
 10
69.6163
 20
129.370
 30
0.00000
  70
    32
  0
VERTEX
  8
0
  5
16AF
 10
69.6149
 20
129.395
 30
0.00000
  70
    32
  0
VERTEX
  8
0
  5
16B0
 10
69.6135
 20
129.420
 30
0.00000
  70
    32
  0
VERTEX
  8
0
  5
16B1
 10
69.6120
 20
129.445
 30
0.00000
  70
    32
  0
VERTEX
  8
0
  5
16B2
 10
69.6106
 20
129.470
 30
0.00000
  70
    32
  0
VERTEX
  8
0
  5
16B3
 10
69.6092
 20
129.495
 30
0.00000
  70
    32
  0
VERTEX
  8
0
  5
16B4
 10
69.6078
 20
129.520
 30
0.00000
  70
    32
  0
VERTEX
  8
0
  5
16B5
 10
69.6064
 20
129.545
 30
0.00000
  70
    32
  0
VERTEX
  8
0
  5
16B6
 10
69.6050
 20
129.569
 30
0.00000
  70
    32
  0
VERTEX
  8
0
  5
16B7
 10
69.6036
 20
129.594
 30
0.00000
  70
    32
  0
VERTEX
  8
0
  5
16B8
 10
69.6021
 20
129.619
 30
0.00000
  70
    32
  0
VERTEX
  8
0
  5
16B9
 10
69.6007
 20
129.644
 30
0.00000
  70
    32
  0
VERTEX
  8
0
  5
16BA
 10
69.5993
 20
129.669
 30
0.00000
  70
    32
  0
VERTEX
  8
0
  5
16BB
 10
69.5979
 20
129.694
 30
0.00000
  70
    32
  0
VERTEX
  8
0
  5
16BC
 10
69.5964
 20
129.719
 30
0.00000
  70
    32
  0
VERTEX
  8
0
  5
16BD
 10
69.5950
 20
129.744
 30
0.00000
  70
    32
  0
VERTEX
  8
0
  5
16BE
 10
69.5936
 20
129.769
 30
0.00000
  70
    32
  0
VERTEX
  8
0
  5
16BF
 10
69.5921
 20
129.794
 30
0.00000
  70
    32
  0
VERTEX
  8
0
  5
16C0
 10
69.5907
 20
129.820
 30
0.00000
  70
    32
  0
VERTEX
  8
0
  5
16C1
 10
69.5892
 20
129.845
 30
0.00000
  70
    32
  0
VERTEX
  8
0
  5
16C2
 10
69.5878
 20
129.870
 30
0.00000
  70
    32
  0
VERTEX
  8
0
  5
16C3
 10
69.5864
 20
129.895
 30
0.00000
  70
    32
  0
VERTEX
  8
0
  5
16C4
 10
69.5849
 20
129.920
 30
0.00000
  70
    32
  0
VERTEX
  8
0
  5
16C5
 10
69.5835
 20
129.945
 30
0.00000
  70
    32
  0
VERTEX
  8
0
  5
16C6
 10
69.5820
 20
129.970
 30
0.00000
  70
    32
  0
VERTEX
  8
0
  5
16C7
 10
69.5805
 20
129.995
 30
0.00000
  70
    32
  0
VERTEX
  8
0
  5
16C8
 10
69.5791
 20
130.020
 30
0.00000
  70
    32
  0
VERTEX
  8
0
  5
16C9
 10
69.5776
 20
130.046
 30
0.00000
  70
    32
  0
VERTEX
  8
0
  5
16CA
 10
69.5762
 20
130.071
 30
0.00000
  70
    32
  0
VERTEX
  8
0
  5
16CB
 10
69.5747
 20
130.096
 30
0.00000
  70
    32
  0
VERTEX
  8
0
  5
16CC
 10
69.5732
 20
130.121
 30
0.00000
  70
    32
  0
VERTEX
  8
0
  5
16CD
 10
69.5718
 20
130.146
 30
0.00000
  70
    32
  0
VERTEX
  8
0
  5
16CE
 10
69.5703
 20
130.172
 30
0.00000
  70
    32
  0
VERTEX
  8
0
  5
16CF
 10
69.5688
 20
130.197
 30
0.00000
  70
    32
  0
VERTEX
  8
0
  5
16D0
 10
69.5673
 20
130.222
 30
0.00000
  70
    32
  0
VERTEX
  8
0
  5
16D1
 10
69.5659
 20
130.247
 30
0.00000
  70
    32
  0
VERTEX
  8
0
  5
16D2
 10
69.5644
 20
130.273
 30
0.00000
  70
    32
  0
VERTEX
  8
0
  5
16D3
 10
69.5629
 20
130.298
 30
0.00000
  70
    32
  0
VERTEX
  8
0
  5
16D4
 10
69.5614
 20
130.323
 30
0.00000
  70
    32
  0
VERTEX
  8
0
  5
16D5
 10
69.5599
 20
130.349
 30
0.00000
  70
    32
  0
VERTEX
  8
0
  5
16D6
 10
69.5584
 20
130.374
 30
0.00000
  70
    32
  0
VERTEX
  8
0
  5
16D7
 10
69.5570
 20
130.399
 30
0.00000
  70
    32
  0
VERTEX
  8
0
  5
16D8
 10
69.5555
 20
130.425
 30
0.00000
  70
    32
  0
VERTEX
  8
0
  5
16D9
 10
69.5540
 20
130.450
 30
0.00000
  70
    32
  0
VERTEX
  8
0
  5
16DA
 10
69.5525
 20
130.475
 30
0.00000
  70
    32
  0
VERTEX
  8
0
  5
16DB
 10
69.5510
 20
130.501
 30
0.00000
  70
    32
  0
VERTEX
  8
0
  5
16DC
 10
69.5495
 20
130.526
 30
0.00000
  70
    32
  0
VERTEX
  8
0
  5
16DD
 10
69.5480
 20
130.552
 30
0.00000
  70
    32
  0
VERTEX
  8
0
  5
16DE
 10
69.5465
 20
130.577
 30
0.00000
  70
    32
  0
VERTEX
  8
0
  5
16DF
 10
69.5449
 20
130.602
 30
0.00000
  70
    32
  0
VERTEX
  8
0
  5
16E0
 10
69.5434
 20
130.628
 30
0.00000
  70
    32
  0
VERTEX
  8
0
  5
16E1
 10
69.5419
 20
130.653
 30
0.00000
  70
    32
  0
VERTEX
  8
0
  5
16E2
 10
69.5404
 20
130.679
 30
0.00000
  70
    32
  0
VERTEX
  8
0
  5
16E3
 10
69.5389
 20
130.704
 30
0.00000
  70
    32
  0
VERTEX
  8
0
  5
16E4
 10
69.5374
 20
130.730
 30
0.00000
  70
    32
  0
VERTEX
  8
0
  5
16E5
 10
69.5358
 20
130.755
 30
0.00000
  70
    32
  0
VERTEX
  8
0
  5
16E6
 10
69.5343
 20
130.781
 30
0.00000
  70
    32
  0
VERTEX
  8
0
  5
16E7
 10
69.5328
 20
130.806
 30
0.00000
  70
    32
  0
VERTEX
  8
0
  5
16E8
 10
69.5313
 20
130.832
 30
0.00000
  70
    32
  0
VERTEX
  8
0
  5
16E9
 10
69.5297
 20
130.857
 30
0.00000
  70
    32
  0
VERTEX
  8
0
  5
16EA
 10
69.5282
 20
130.883
 30
0.00000
  70
    32
  0
VERTEX
  8
0
  5
16EB
 10
69.5267
 20
130.909
 30
0.00000
  70
    32
  0
VERTEX
  8
0
  5
16EC
 10
69.5251
 20
130.934
 30
0.00000
  70
    32
  0
VERTEX
  8
0
  5
16ED
 10
69.5236
 20
130.960
 30
0.00000
  70
    32
  0
VERTEX
  8
0
  5
16EE
 10
69.5221
 20
130.985
 30
0.00000
  70
    32
  0
VERTEX
  8
0
  5
16EF
 10
69.5205
 20
131.011
 30
0.00000
  70
    32
  0
VERTEX
  8
0
  5
16F0
 10
69.5190
 20
131.037
 30
0.00000
  70
    32
  0
VERTEX
  8
0
  5
16F1
 10
69.5174
 20
131.062
 30
0.00000
  70
    32
  0
VERTEX
  8
0
  5
16F2
 10
69.5159
 20
131.088
 30
0.00000
  70
    32
  0
VERTEX
  8
0
  5
16F3
 10
69.5143
 20
131.113
 30
0.00000
  70
    32
  0
VERTEX
  8
0
  5
16F4
 10
69.5128
 20
131.139
 30
0.00000
  70
    32
  0
VERTEX
  8
0
  5
16F5
 10
69.5112
 20
131.165
 30
0.00000
  70
    32
  0
VERTEX
  8
0
  5
16F6
 10
69.5097
 20
131.190
 30
0.00000
  70
    32
  0
VERTEX
  8
0
  5
16F7
 10
69.5081
 20
131.216
 30
0.00000
  70
    32
  0
VERTEX
  8
0
  5
16F8
 10
69.5065
 20
131.242
 30
0.00000
  70
    32
  0
VERTEX
  8
0
  5
16F9
 10
69.5050
 20
131.268
 30
0.00000
  70
    32
  0
VERTEX
  8
0
  5
16FA
 10
69.5034
 20
131.293
 30
0.00000
  70
    32
  0
VERTEX
  8
0
  5
16FB
 10
69.5018
 20
131.319
 30
0.00000
  70
    32
  0
VERTEX
  8
0
  5
16FC
 10
69.5003
 20
131.345
 30
0.00000
  70
    32
  0
VERTEX
  8
0
  5
16FD
 10
69.4987
 20
131.371
 30
0.00000
  70
    32
  0
VERTEX
  8
0
  5
16FE
 10
69.4971
 20
131.396
 30
0.00000
  70
    32
  0
VERTEX
  8
0
  5
16FF
 10
69.4955
 20
131.422
 30
0.00000
  70
    32
  0
VERTEX
  8
0
  5
1700
 10
69.4940
 20
131.448
 30
0.00000
  70
    32
  0
VERTEX
  8
0
  5
1701
 10
69.4924
 20
131.474
 30
0.00000
  70
    32
  0
VERTEX
  8
0
  5
1702
 10
69.4908
 20
131.499
 30
0.00000
  70
    32
  0
VERTEX
  8
0
  5
1703
 10
69.4892
 20
131.525
 30
0.00000
  70
    32
  0
VERTEX
  8
0
  5
1704
 10
69.4876
 20
131.551
 30
0.00000
  70
    32
  0
VERTEX
  8
0
  5
1705
 10
69.4860
 20
131.577
 30
0.00000
  70
    32
  0
VERTEX
  8
0
  5
1706
 10
69.4844
 20
131.603
 30
0.00000
  70
    32
  0
VERTEX
  8
0
  5
1707
 10
69.4828
 20
131.629
 30
0.00000
  70
    32
  0
VERTEX
  8
0
  5
1708
 10
69.4812
 20
131.655
 30
0.00000
  70
    32
  0
VERTEX
  8
0
  5
1709
 10
69.4796
 20
131.680
 30
0.00000
  70
    32
  0
VERTEX
  8
0
  5
170A
 10
69.4780
 20
131.706
 30
0.00000
  70
    32
  0
VERTEX
  8
0
  5
170B
 10
69.4764
 20
131.732
 30
0.00000
  70
    32
  0
VERTEX
  8
0
  5
170C
 10
69.4748
 20
131.758
 30
0.00000
  70
    32
  0
VERTEX
  8
0
  5
170D
 10
69.4732
 20
131.784
 30
0.00000
  70
    32
  0
VERTEX
  8
0
  5
170E
 10
69.4716
 20
131.810
 30
0.00000
  70
    32
  0
VERTEX
  8
0
  5
170F
 10
69.4700
 20
131.836
 30
0.00000
  70
    32
  0
VERTEX
  8
0
  5
1710
 10
69.4684
 20
131.862
 30
0.00000
  70
    32
  0
VERTEX
  8
0
  5
1711
 10
69.4668
 20
131.888
 30
0.00000
  70
    32
  0
VERTEX
  8
0
  5
1712
 10
69.4652
 20
131.914
 30
0.00000
  70
    32
  0
VERTEX
  8
0
  5
1713
 10
69.4635
 20
131.940
 30
0.00000
  70
    32
  0
VERTEX
  8
0
  5
1714
 10
69.4619
 20
131.966
 30
0.00000
  70
    32
  0
VERTEX
  8
0
  5
1715
 10
69.4603
 20
131.992
 30
0.00000
  70
    32
  0
VERTEX
  8
0
  5
1716
 10
69.4587
 20
132.018
 30
0.00000
  70
    32
  0
VERTEX
  8
0
  5
1717
 10
69.4570
 20
132.044
 30
0.00000
  70
    32
  0
VERTEX
  8
0
  5
1718
 10
69.4554
 20
132.070
 30
0.00000
  70
    32
  0
VERTEX
  8
0
  5
1719
 10
69.4538
 20
132.096
 30
0.00000
  70
    32
  0
VERTEX
  8
0
  5
171A
 10
69.4522
 20
132.122
 30
0.00000
  70
    32
  0
VERTEX
  8
0
  5
171B
 10
69.4505
 20
132.148
 30
0.00000
  70
    32
  0
VERTEX
  8
0
  5
171C
 10
69.4489
 20
132.174
 30
0.00000
  70
    32
  0
VERTEX
  8
0
  5
171D
 10
69.4472
 20
132.200
 30
0.00000
  70
    32
  0
SEQEND
  8
0
  5
171E
  0
POLYLINE
  5
EC7
  8
0
 10
98.5527582066976748
 20
132.1999999999947875
 30
0.0
 66
     1
 70
     8
  0
VERTEX
  8
0
  5
171F
 10
98.5528
 20
132.200
 30
0.00000
  70
    32
  0
VERTEX
  8
0
  5
1720
 10
98.5511
 20
132.174
 30
0.00000
  70
    32
  0
VERTEX
  8
0
  5
1721
 10
98.5495
 20
132.148
 30
0.00000
  70
    32
  0
VERTEX
  8
0
  5
1722
 10
98.5478
 20
132.122
 30
0.00000
  70
    32
  0
VERTEX
  8
0
  5
1723
 10
98.5462
 20
132.096
 30
0.00000
  70
    32
  0
VERTEX
  8
0
  5
1724
 10
98.5446
 20
132.070
 30
0.00000
  70
    32
  0
VERTEX
  8
0
  5
1725
 10
98.5430
 20
132.044
 30
0.00000
  70
    32
  0
VERTEX
  8
0
  5
1726
 10
98.5413
 20
132.018
 30
0.00000
  70
    32
  0
VERTEX
  8
0
  5
1727
 10
98.5397
 20
131.992
 30
0.00000
  70
    32
  0
VERTEX
  8
0
  5
1728
 10
98.5381
 20
131.966
 30
0.00000
  70
    32
  0
VERTEX
  8
0
  5
1729
 10
98.5365
 20
131.940
 30
0.00000
  70
    32
  0
VERTEX
  8
0
  5
172A
 10
98.5348
 20
131.914
 30
0.00000
  70
    32
  0
VERTEX
  8
0
  5
172B
 10
98.5332
 20
131.888
 30
0.00000
  70
    32
  0
VERTEX
  8
0
  5
172C
 10
98.5316
 20
131.862
 30
0.00000
  70
    32
  0
VERTEX
  8
0
  5
172D
 10
98.5300
 20
131.836
 30
0.00000
  70
    32
  0
VERTEX
  8
0
  5
172E
 10
98.5284
 20
131.810
 30
0.00000
  70
    32
  0
VERTEX
  8
0
  5
172F
 10
98.5268
 20
131.784
 30
0.00000
  70
    32
  0
VERTEX
  8
0
  5
1730
 10
98.5252
 20
131.758
 30
0.00000
  70
    32
  0
VERTEX
  8
0
  5
1731
 10
98.5236
 20
131.732
 30
0.00000
  70
    32
  0
VERTEX
  8
0
  5
1732
 10
98.5220
 20
131.706
 30
0.00000
  70
    32
  0
VERTEX
  8
0
  5
1733
 10
98.5204
 20
131.680
 30
0.00000
  70
    32
  0
VERTEX
  8
0
  5
1734
 10
98.5188
 20
131.655
 30
0.00000
  70
    32
  0
VERTEX
  8
0
  5
1735
 10
98.5172
 20
131.629
 30
0.00000
  70
    32
  0
VERTEX
  8
0
  5
1736
 10
98.5156
 20
131.603
 30
0.00000
  70
    32
  0
VERTEX
  8
0
  5
1737
 10
98.5140
 20
131.577
 30
0.00000
  70
    32
  0
VERTEX
  8
0
  5
1738
 10
98.5124
 20
131.551
 30
0.00000
  70
    32
  0
VERTEX
  8
0
  5
1739
 10
98.5108
 20
131.525
 30
0.00000
  70
    32
  0
VERTEX
  8
0
  5
173A
 10
98.5092
 20
131.499
 30
0.00000
  70
    32
  0
VERTEX
  8
0
  5
173B
 10
98.5076
 20
131.474
 30
0.00000
  70
    32
  0
VERTEX
  8
0
  5
173C
 10
98.5060
 20
131.448
 30
0.00000
  70
    32
  0
VERTEX
  8
0
  5
173D
 10
98.5045
 20
131.422
 30
0.00000
  70
    32
  0
VERTEX
  8
0
  5
173E
 10
98.5029
 20
131.396
 30
0.00000
  70
    32
  0
VERTEX
  8
0
  5
173F
 10
98.5013
 20
131.371
 30
0.00000
  70
    32
  0
VERTEX
  8
0
  5
1740
 10
98.4997
 20
131.345
 30
0.00000
  70
    32
  0
VERTEX
  8
0
  5
1741
 10
98.4982
 20
131.319
 30
0.00000
  70
    32
  0
VERTEX
  8
0
  5
1742
 10
98.4966
 20
131.293
 30
0.00000
  70
    32
  0
VERTEX
  8
0
  5
1743
 10
98.4950
 20
131.268
 30
0.00000
  70
    32
  0
VERTEX
  8
0
  5
1744
 10
98.4935
 20
131.242
 30
0.00000
  70
    32
  0
VERTEX
  8
0
  5
1745
 10
98.4919
 20
131.216
 30
0.00000
  70
    32
  0
VERTEX
  8
0
  5
1746
 10
98.4903
 20
131.190
 30
0.00000
  70
    32
  0
VERTEX
  8
0
  5
1747
 10
98.4888
 20
131.165
 30
0.00000
  70
    32
  0
VERTEX
  8
0
  5
1748
 10
98.4872
 20
131.139
 30
0.00000
  70
    32
  0
VERTEX
  8
0
  5
1749
 10
98.4857
 20
131.113
 30
0.00000
  70
    32
  0
VERTEX
  8
0
  5
174A
 10
98.4841
 20
131.088
 30
0.00000
  70
    32
  0
VERTEX
  8
0
  5
174B
 10
98.4826
 20
131.062
 30
0.00000
  70
    32
  0
VERTEX
  8
0
  5
174C
 10
98.4810
 20
131.037
 30
0.00000
  70
    32
  0
VERTEX
  8
0
  5
174D
 10
98.4795
 20
131.011
 30
0.00000
  70
    32
  0
VERTEX
  8
0
  5
174E
 10
98.4779
 20
130.985
 30
0.00000
  70
    32
  0
VERTEX
  8
0
  5
174F
 10
98.4764
 20
130.960
 30
0.00000
  70
    32
  0
VERTEX
  8
0
  5
1750
 10
98.4749
 20
130.934
 30
0.00000
  70
    32
  0
VERTEX
  8
0
  5
1751
 10
98.4733
 20
130.909
 30
0.00000
  70
    32
  0
VERTEX
  8
0
  5
1752
 10
98.4718
 20
130.883
 30
0.00000
  70
    32
  0
VERTEX
  8
0
  5
1753
 10
98.4703
 20
130.857
 30
0.00000
  70
    32
  0
VERTEX
  8
0
  5
1754
 10
98.4687
 20
130.832
 30
0.00000
  70
    32
  0
VERTEX
  8
0
  5
1755
 10
98.4672
 20
130.806
 30
0.00000
  70
    32
  0
VERTEX
  8
0
  5
1756
 10
98.4657
 20
130.781
 30
0.00000
  70
    32
  0
VERTEX
  8
0
  5
1757
 10
98.4642
 20
130.755
 30
0.00000
  70
    32
  0
VERTEX
  8
0
  5
1758
 10
98.4626
 20
130.730
 30
0.00000
  70
    32
  0
VERTEX
  8
0
  5
1759
 10
98.4611
 20
130.704
 30
0.00000
  70
    32
  0
VERTEX
  8
0
  5
175A
 10
98.4596
 20
130.679
 30
0.00000
  70
    32
  0
VERTEX
  8
0
  5
175B
 10
98.4581
 20
130.653
 30
0.00000
  70
    32
  0
VERTEX
  8
0
  5
175C
 10
98.4566
 20
130.628
 30
0.00000
  70
    32
  0
VERTEX
  8
0
  5
175D
 10
98.4551
 20
130.602
 30
0.00000
  70
    32
  0
VERTEX
  8
0
  5
175E
 10
98.4535
 20
130.577
 30
0.00000
  70
    32
  0
VERTEX
  8
0
  5
175F
 10
98.4520
 20
130.552
 30
0.00000
  70
    32
  0
VERTEX
  8
0
  5
1760
 10
98.4505
 20
130.526
 30
0.00000
  70
    32
  0
VERTEX
  8
0
  5
1761
 10
98.4490
 20
130.501
 30
0.00000
  70
    32
  0
VERTEX
  8
0
  5
1762
 10
98.4475
 20
130.475
 30
0.00000
  70
    32
  0
VERTEX
  8
0
  5
1763
 10
98.4460
 20
130.450
 30
0.00000
  70
    32
  0
VERTEX
  8
0
  5
1764
 10
98.4445
 20
130.425
 30
0.00000
  70
    32
  0
VERTEX
  8
0
  5
1765
 10
98.4430
 20
130.399
 30
0.00000
  70
    32
  0
VERTEX
  8
0
  5
1766
 10
98.4416
 20
130.374
 30
0.00000
  70
    32
  0
VERTEX
  8
0
  5
1767
 10
98.4401
 20
130.349
 30
0.00000
  70
    32
  0
VERTEX
  8
0
  5
1768
 10
98.4386
 20
130.323
 30
0.00000
  70
    32
  0
VERTEX
  8
0
  5
1769
 10
98.4371
 20
130.298
 30
0.00000
  70
    32
  0
VERTEX
  8
0
  5
176A
 10
98.4356
 20
130.273
 30
0.00000
  70
    32
  0
VERTEX
  8
0
  5
176B
 10
98.4341
 20
130.247
 30
0.00000
  70
    32
  0
VERTEX
  8
0
  5
176C
 10
98.4327
 20
130.222
 30
0.00000
  70
    32
  0
VERTEX
  8
0
  5
176D
 10
98.4312
 20
130.197
 30
0.00000
  70
    32
  0
VERTEX
  8
0
  5
176E
 10
98.4297
 20
130.172
 30
0.00000
  70
    32
  0
VERTEX
  8
0
  5
176F
 10
98.4282
 20
130.146
 30
0.00000
  70
    32
  0
VERTEX
  8
0
  5
1770
 10
98.4268
 20
130.121
 30
0.00000
  70
    32
  0
VERTEX
  8
0
  5
1771
 10
98.4253
 20
130.096
 30
0.00000
  70
    32
  0
VERTEX
  8
0
  5
1772
 10
98.4238
 20
130.071
 30
0.00000
  70
    32
  0
VERTEX
  8
0
  5
1773
 10
98.4224
 20
130.046
 30
0.00000
  70
    32
  0
VERTEX
  8
0
  5
1774
 10
98.4209
 20
130.020
 30
0.00000
  70
    32
  0
VERTEX
  8
0
  5
1775
 10
98.4195
 20
129.995
 30
0.00000
  70
    32
  0
VERTEX
  8
0
  5
1776
 10
98.4180
 20
129.970
 30
0.00000
  70
    32
  0
VERTEX
  8
0
  5
1777
 10
98.4165
 20
129.945
 30
0.00000
  70
    32
  0
VERTEX
  8
0
  5
1778
 10
98.4151
 20
129.920
 30
0.00000
  70
    32
  0
VERTEX
  8
0
  5
1779
 10
98.4136
 20
129.895
 30
0.00000
  70
    32
  0
VERTEX
  8
0
  5
177A
 10
98.4122
 20
129.870
 30
0.00000
  70
    32
  0
VERTEX
  8
0
  5
177B
 10
98.4108
 20
129.845
 30
0.00000
  70
    32
  0
VERTEX
  8
0
  5
177C
 10
98.4093
 20
129.820
 30
0.00000
  70
    32
  0
VERTEX
  8
0
  5
177D
 10
98.4079
 20
129.794
 30
0.00000
  70
    32
  0
VERTEX
  8
0
  5
177E
 10
98.4064
 20
129.769
 30
0.00000
  70
    32
  0
VERTEX
  8
0
  5
177F
 10
98.4050
 20
129.744
 30
0.00000
  70
    32
  0
VERTEX
  8
0
  5
1780
 10
98.4036
 20
129.719
 30
0.00000
  70
    32
  0
VERTEX
  8
0
  5
1781
 10
98.4021
 20
129.694
 30
0.00000
  70
    32
  0
VERTEX
  8
0
  5
1782
 10
98.4007
 20
129.669
 30
0.00000
  70
    32
  0
VERTEX
  8
0
  5
1783
 10
98.3993
 20
129.644
 30
0.00000
  70
    32
  0
VERTEX
  8
0
  5
1784
 10
98.3979
 20
129.619
 30
0.00000
  70
    32
  0
VERTEX
  8
0
  5
1785
 10
98.3964
 20
129.594
 30
0.00000
  70
    32
  0
VERTEX
  8
0
  5
1786
 10
98.3950
 20
129.569
 30
0.00000
  70
    32
  0
VERTEX
  8
0
  5
1787
 10
98.3936
 20
129.545
 30
0.00000
  70
    32
  0
VERTEX
  8
0
  5
1788
 10
98.3922
 20
129.520
 30
0.00000
  70
    32
  0
VERTEX
  8
0
  5
1789
 10
98.3908
 20
129.495
 30
0.00000
  70
    32
  0
VERTEX
  8
0
  5
178A
 10
98.3894
 20
129.470
 30
0.00000
  70
    32
  0
VERTEX
  8
0
  5
178B
 10
98.3880
 20
129.445
 30
0.00000
  70
    32
  0
VERTEX
  8
0
  5
178C
 10
98.3865
 20
129.420
 30
0.00000
  70
    32
  0
VERTEX
  8
0
  5
178D
 10
98.3851
 20
129.395
 30
0.00000
  70
    32
  0
VERTEX
  8
0
  5
178E
 10
98.3837
 20
129.370
 30
0.00000
  70
    32
  0
VERTEX
  8
0
  5
178F
 10
98.3823
 20
129.346
 30
0.00000
  70
    32
  0
VERTEX
  8
0
  5
1790
 10
98.3809
 20
129.321
 30
0.00000
  70
    32
  0
VERTEX
  8
0
  5
1791
 10
98.3796
 20
129.296
 30
0.00000
  70
    32
  0
VERTEX
  8
0
  5
1792
 10
98.3782
 20
129.271
 30
0.00000
  70
    32
  0
VERTEX
  8
0
  5
1793
 10
98.3768
 20
129.246
 30
0.00000
  70
    32
  0
VERTEX
  8
0
  5
1794
 10
98.3754
 20
129.222
 30
0.00000
  70
    32
  0
VERTEX
  8
0
  5
1795
 10
98.3740
 20
129.197
 30
0.00000
  70
    32
  0
VERTEX
  8
0
  5
1796
 10
98.3726
 20
129.172
 30
0.00000
  70
    32
  0
VERTEX
  8
0
  5
1797
 10
98.3712
 20
129.147
 30
0.00000
  70
    32
  0
VERTEX
  8
0
  5
1798
 10
98.3699
 20
129.123
 30
0.00000
  70
    32
  0
VERTEX
  8
0
  5
1799
 10
98.3685
 20
129.098
 30
0.00000
  70
    32
  0
VERTEX
  8
0
  5
179A
 10
98.3671
 20
129.073
 30
0.00000
  70
    32
  0
VERTEX
  8
0
  5
179B
 10
98.3657
 20
129.049
 30
0.00000
  70
    32
  0
VERTEX
  8
0
  5
179C
 10
98.3644
 20
129.024
 30
0.00000
  70
    32
  0
VERTEX
  8
0
  5
179D
 10
98.3630
 20
128.999
 30
0.00000
  70
    32
  0
VERTEX
  8
0
  5
179E
 10
98.3616
 20
128.975
 30
0.00000
  70
    32
  0
VERTEX
  8
0
  5
179F
 10
98.3603
 20
128.950
 30
0.00000
  70
    32
  0
SEQEND
  8
0
  5
17A0
  0
POLYLINE
  5
EC8
  8
0
 10
101.63972855182584
 20
128.9500000000017792
 30
0.0
 66
     1
 70
     8
  0
VERTEX
  8
0
  5
17A1
 10
101.640
 20
128.950
 30
0.00000
  70
    32
  0
VERTEX
  8
0
  5
17A2
 10
101.638
 20
128.975
 30
0.00000
  70
    32
  0
VERTEX
  8
0
  5
17A3
 10
101.637
 20
128.999
 30
0.00000
  70
    32
  0
VERTEX
  8
0
  5
17A4
 10
101.636
 20
129.024
 30
0.00000
  70
    32
  0
VERTEX
  8
0
  5
17A5
 10
101.634
 20
129.049
 30
0.00000
  70
    32
  0
VERTEX
  8
0
  5
17A6
 10
101.633
 20
129.073
 30
0.00000
  70
    32
  0
VERTEX
  8
0
  5
17A7
 10
101.632
 20
129.098
 30
0.00000
  70
    32
  0
VERTEX
  8
0
  5
17A8
 10
101.630
 20
129.123
 30
0.00000
  70
    32
  0
VERTEX
  8
0
  5
17A9
 10
101.629
 20
129.147
 30
0.00000
  70
    32
  0
VERTEX
  8
0
  5
17AA
 10
101.627
 20
129.172
 30
0.00000
  70
    32
  0
VERTEX
  8
0
  5
17AB
 10
101.626
 20
129.197
 30
0.00000
  70
    32
  0
VERTEX
  8
0
  5
17AC
 10
101.625
 20
129.222
 30
0.00000
  70
    32
  0
VERTEX
  8
0
  5
17AD
 10
101.623
 20
129.246
 30
0.00000
  70
    32
  0
VERTEX
  8
0
  5
17AE
 10
101.622
 20
129.271
 30
0.00000
  70
    32
  0
VERTEX
  8
0
  5
17AF
 10
101.620
 20
129.296
 30
0.00000
  70
    32
  0
VERTEX
  8
0
  5
17B0
 10
101.619
 20
129.321
 30
0.00000
  70
    32
  0
VERTEX
  8
0
  5
17B1
 10
101.618
 20
129.346
 30
0.00000
  70
    32
  0
VERTEX
  8
0
  5
17B2
 10
101.616
 20
129.370
 30
0.00000
  70
    32
  0
VERTEX
  8
0
  5
17B3
 10
101.615
 20
129.395
 30
0.00000
  70
    32
  0
VERTEX
  8
0
  5
17B4
 10
101.613
 20
129.420
 30
0.00000
  70
    32
  0
VERTEX
  8
0
  5
17B5
 10
101.612
 20
129.445
 30
0.00000
  70
    32
  0
VERTEX
  8
0
  5
17B6
 10
101.611
 20
129.470
 30
0.00000
  70
    32
  0
VERTEX
  8
0
  5
17B7
 10
101.609
 20
129.495
 30
0.00000
  70
    32
  0
VERTEX
  8
0
  5
17B8
 10
101.608
 20
129.520
 30
0.00000
  70
    32
  0
VERTEX
  8
0
  5
17B9
 10
101.606
 20
129.545
 30
0.00000
  70
    32
  0
VERTEX
  8
0
  5
17BA
 10
101.605
 20
129.569
 30
0.00000
  70
    32
  0
VERTEX
  8
0
  5
17BB
 10
101.604
 20
129.594
 30
0.00000
  70
    32
  0
VERTEX
  8
0
  5
17BC
 10
101.602
 20
129.619
 30
0.00000
  70
    32
  0
VERTEX
  8
0
  5
17BD
 10
101.601
 20
129.644
 30
0.00000
  70
    32
  0
VERTEX
  8
0
  5
17BE
 10
101.599
 20
129.669
 30
0.00000
  70
    32
  0
VERTEX
  8
0
  5
17BF
 10
101.598
 20
129.694
 30
0.00000
  70
    32
  0
VERTEX
  8
0
  5
17C0
 10
101.596
 20
129.719
 30
0.00000
  70
    32
  0
VERTEX
  8
0
  5
17C1
 10
101.595
 20
129.744
 30
0.00000
  70
    32
  0
VERTEX
  8
0
  5
17C2
 10
101.594
 20
129.769
 30
0.00000
  70
    32
  0
VERTEX
  8
0
  5
17C3
 10
101.592
 20
129.794
 30
0.00000
  70
    32
  0
VERTEX
  8
0
  5
17C4
 10
101.591
 20
129.820
 30
0.00000
  70
    32
  0
VERTEX
  8
0
  5
17C5
 10
101.589
 20
129.845
 30
0.00000
  70
    32
  0
VERTEX
  8
0
  5
17C6
 10
101.588
 20
129.870
 30
0.00000
  70
    32
  0
VERTEX
  8
0
  5
17C7
 10
101.586
 20
129.895
 30
0.00000
  70
    32
  0
VERTEX
  8
0
  5
17C8
 10
101.585
 20
129.920
 30
0.00000
  70
    32
  0
VERTEX
  8
0
  5
17C9
 10
101.583
 20
129.945
 30
0.00000
  70
    32
  0
VERTEX
  8
0
  5
17CA
 10
101.582
 20
129.970
 30
0.00000
  70
    32
  0
VERTEX
  8
0
  5
17CB
 10
101.581
 20
129.995
 30
0.00000
  70
    32
  0
VERTEX
  8
0
  5
17CC
 10
101.579
 20
130.020
 30
0.00000
  70
    32
  0
VERTEX
  8
0
  5
17CD
 10
101.578
 20
130.046
 30
0.00000
  70
    32
  0
VERTEX
  8
0
  5
17CE
 10
101.576
 20
130.071
 30
0.00000
  70
    32
  0
VERTEX
  8
0
  5
17CF
 10
101.575
 20
130.096
 30
0.00000
  70
    32
  0
VERTEX
  8
0
  5
17D0
 10
101.573
 20
130.121
 30
0.00000
  70
    32
  0
VERTEX
  8
0
  5
17D1
 10
101.572
 20
130.146
 30
0.00000
  70
    32
  0
VERTEX
  8
0
  5
17D2
 10
101.570
 20
130.172
 30
0.00000
  70
    32
  0
VERTEX
  8
0
  5
17D3
 10
101.569
 20
130.197
 30
0.00000
  70
    32
  0
VERTEX
  8
0
  5
17D4
 10
101.567
 20
130.222
 30
0.00000
  70
    32
  0
VERTEX
  8
0
  5
17D5
 10
101.566
 20
130.247
 30
0.00000
  70
    32
  0
VERTEX
  8
0
  5
17D6
 10
101.564
 20
130.273
 30
0.00000
  70
    32
  0
VERTEX
  8
0
  5
17D7
 10
101.563
 20
130.298
 30
0.00000
  70
    32
  0
VERTEX
  8
0
  5
17D8
 10
101.561
 20
130.323
 30
0.00000
  70
    32
  0
VERTEX
  8
0
  5
17D9
 10
101.560
 20
130.349
 30
0.00000
  70
    32
  0
VERTEX
  8
0
  5
17DA
 10
101.558
 20
130.374
 30
0.00000
  70
    32
  0
VERTEX
  8
0
  5
17DB
 10
101.557
 20
130.399
 30
0.00000
  70
    32
  0
VERTEX
  8
0
  5
17DC
 10
101.555
 20
130.425
 30
0.00000
  70
    32
  0
VERTEX
  8
0
  5
17DD
 10
101.554
 20
130.450
 30
0.00000
  70
    32
  0
VERTEX
  8
0
  5
17DE
 10
101.552
 20
130.475
 30
0.00000
  70
    32
  0
VERTEX
  8
0
  5
17DF
 10
101.551
 20
130.501
 30
0.00000
  70
    32
  0
VERTEX
  8
0
  5
17E0
 10
101.549
 20
130.526
 30
0.00000
  70
    32
  0
VERTEX
  8
0
  5
17E1
 10
101.548
 20
130.552
 30
0.00000
  70
    32
  0
VERTEX
  8
0
  5
17E2
 10
101.546
 20
130.577
 30
0.00000
  70
    32
  0
VERTEX
  8
0
  5
17E3
 10
101.545
 20
130.602
 30
0.00000
  70
    32
  0
VERTEX
  8
0
  5
17E4
 10
101.543
 20
130.628
 30
0.00000
  70
    32
  0
VERTEX
  8
0
  5
17E5
 10
101.542
 20
130.653
 30
0.00000
  70
    32
  0
VERTEX
  8
0
  5
17E6
 10
101.540
 20
130.679
 30
0.00000
  70
    32
  0
VERTEX
  8
0
  5
17E7
 10
101.539
 20
130.704
 30
0.00000
  70
    32
  0
VERTEX
  8
0
  5
17E8
 10
101.537
 20
130.730
 30
0.00000
  70
    32
  0
VERTEX
  8
0
  5
17E9
 10
101.536
 20
130.755
 30
0.00000
  70
    32
  0
VERTEX
  8
0
  5
17EA
 10
101.534
 20
130.781
 30
0.00000
  70
    32
  0
VERTEX
  8
0
  5
17EB
 10
101.533
 20
130.806
 30
0.00000
  70
    32
  0
VERTEX
  8
0
  5
17EC
 10
101.531
 20
130.832
 30
0.00000
  70
    32
  0
VERTEX
  8
0
  5
17ED
 10
101.530
 20
130.857
 30
0.00000
  70
    32
  0
VERTEX
  8
0
  5
17EE
 10
101.528
 20
130.883
 30
0.00000
  70
    32
  0
VERTEX
  8
0
  5
17EF
 10
101.527
 20
130.909
 30
0.00000
  70
    32
  0
VERTEX
  8
0
  5
17F0
 10
101.525
 20
130.934
 30
0.00000
  70
    32
  0
VERTEX
  8
0
  5
17F1
 10
101.524
 20
130.960
 30
0.00000
  70
    32
  0
VERTEX
  8
0
  5
17F2
 10
101.522
 20
130.985
 30
0.00000
  70
    32
  0
VERTEX
  8
0
  5
17F3
 10
101.521
 20
131.011
 30
0.00000
  70
    32
  0
VERTEX
  8
0
  5
17F4
 10
101.519
 20
131.037
 30
0.00000
  70
    32
  0
VERTEX
  8
0
  5
17F5
 10
101.517
 20
131.062
 30
0.00000
  70
    32
  0
VERTEX
  8
0
  5
17F6
 10
101.516
 20
131.088
 30
0.00000
  70
    32
  0
VERTEX
  8
0
  5
17F7
 10
101.514
 20
131.113
 30
0.00000
  70
    32
  0
VERTEX
  8
0
  5
17F8
 10
101.513
 20
131.139
 30
0.00000
  70
    32
  0
VERTEX
  8
0
  5
17F9
 10
101.511
 20
131.165
 30
0.00000
  70
    32
  0
VERTEX
  8
0
  5
17FA
 10
101.510
 20
131.190
 30
0.00000
  70
    32
  0
VERTEX
  8
0
  5
17FB
 10
101.508
 20
131.216
 30
0.00000
  70
    32
  0
VERTEX
  8
0
  5
17FC
 10
101.507
 20
131.242
 30
0.00000
  70
    32
  0
VERTEX
  8
0
  5
17FD
 10
101.505
 20
131.268
 30
0.00000
  70
    32
  0
VERTEX
  8
0
  5
17FE
 10
101.503
 20
131.293
 30
0.00000
  70
    32
  0
VERTEX
  8
0
  5
17FF
 10
101.502
 20
131.319
 30
0.00000
  70
    32
  0
VERTEX
  8
0
  5
1800
 10
101.500
 20
131.345
 30
0.00000
  70
    32
  0
VERTEX
  8
0
  5
1801
 10
101.499
 20
131.371
 30
0.00000
  70
    32
  0
VERTEX
  8
0
  5
1802
 10
101.497
 20
131.396
 30
0.00000
  70
    32
  0
VERTEX
  8
0
  5
1803
 10
101.496
 20
131.422
 30
0.00000
  70
    32
  0
VERTEX
  8
0
  5
1804
 10
101.494
 20
131.448
 30
0.00000
  70
    32
  0
VERTEX
  8
0
  5
1805
 10
101.492
 20
131.474
 30
0.00000
  70
    32
  0
VERTEX
  8
0
  5
1806
 10
101.491
 20
131.499
 30
0.00000
  70
    32
  0
VERTEX
  8
0
  5
1807
 10
101.489
 20
131.525
 30
0.00000
  70
    32
  0
VERTEX
  8
0
  5
1808
 10
101.488
 20
131.551
 30
0.00000
  70
    32
  0
VERTEX
  8
0
  5
1809
 10
101.486
 20
131.577
 30
0.00000
  70
    32
  0
VERTEX
  8
0
  5
180A
 10
101.484
 20
131.603
 30
0.00000
  70
    32
  0
VERTEX
  8
0
  5
180B
 10
101.483
 20
131.629
 30
0.00000
  70
    32
  0
VERTEX
  8
0
  5
180C
 10
101.481
 20
131.655
 30
0.00000
  70
    32
  0
VERTEX
  8
0
  5
180D
 10
101.480
 20
131.680
 30
0.00000
  70
    32
  0
VERTEX
  8
0
  5
180E
 10
101.478
 20
131.706
 30
0.00000
  70
    32
  0
VERTEX
  8
0
  5
180F
 10
101.476
 20
131.732
 30
0.00000
  70
    32
  0
VERTEX
  8
0
  5
1810
 10
101.475
 20
131.758
 30
0.00000
  70
    32
  0
VERTEX
  8
0
  5
1811
 10
101.473
 20
131.784
 30
0.00000
  70
    32
  0
VERTEX
  8
0
  5
1812
 10
101.472
 20
131.810
 30
0.00000
  70
    32
  0
VERTEX
  8
0
  5
1813
 10
101.470
 20
131.836
 30
0.00000
  70
    32
  0
VERTEX
  8
0
  5
1814
 10
101.468
 20
131.862
 30
0.00000
  70
    32
  0
VERTEX
  8
0
  5
1815
 10
101.467
 20
131.888
 30
0.00000
  70
    32
  0
VERTEX
  8
0
  5
1816
 10
101.465
 20
131.914
 30
0.00000
  70
    32
  0
VERTEX
  8
0
  5
1817
 10
101.464
 20
131.940
 30
0.00000
  70
    32
  0
VERTEX
  8
0
  5
1818
 10
101.462
 20
131.966
 30
0.00000
  70
    32
  0
VERTEX
  8
0
  5
1819
 10
101.460
 20
131.992
 30
0.00000
  70
    32
  0
VERTEX
  8
0
  5
181A
 10
101.459
 20
132.018
 30
0.00000
  70
    32
  0
VERTEX
  8
0
  5
181B
 10
101.457
 20
132.044
 30
0.00000
  70
    32
  0
VERTEX
  8
0
  5
181C
 10
101.455
 20
132.070
 30
0.00000
  70
    32
  0
VERTEX
  8
0
  5
181D
 10
101.454
 20
132.096
 30
0.00000
  70
    32
  0
VERTEX
  8
0
  5
181E
 10
101.452
 20
132.122
 30
0.00000
  70
    32
  0
VERTEX
  8
0
  5
181F
 10
101.451
 20
132.148
 30
0.00000
  70
    32
  0
VERTEX
  8
0
  5
1820
 10
101.449
 20
132.174
 30
0.00000
  70
    32
  0
VERTEX
  8
0
  5
1821
 10
101.447
 20
132.200
 30
0.00000
  70
    32
  0
SEQEND
  8
0
  5
1822
  0
POLYLINE
  5
EC9
  8
0
 10
85.63972855182584
 20
128.9500000000017792
 30
0.0
 66
     1
 70
     8
  0
VERTEX
  8
0
  5
1823
 10
85.6397
 20
128.950
 30
0.00000
  70
    32
  0
VERTEX
  8
0
  5
1824
 10
85.6384
 20
128.975
 30
0.00000
  70
    32
  0
VERTEX
  8
0
  5
1825
 10
85.6370
 20
128.999
 30
0.00000
  70
    32
  0
VERTEX
  8
0
  5
1826
 10
85.6356
 20
129.024
 30
0.00000
  70
    32
  0
VERTEX
  8
0
  5
1827
 10
85.6343
 20
129.049
 30
0.00000
  70
    32
  0
VERTEX
  8
0
  5
1828
 10
85.6329
 20
129.073
 30
0.00000
  70
    32
  0
VERTEX
  8
0
  5
1829
 10
85.6315
 20
129.098
 30
0.00000
  70
    32
  0
VERTEX
  8
0
  5
182A
 10
85.6301
 20
129.123
 30
0.00000
  70
    32
  0
VERTEX
  8
0
  5
182B
 10
85.6288
 20
129.147
 30
0.00000
  70
    32
  0
VERTEX
  8
0
  5
182C
 10
85.6274
 20
129.172
 30
0.00000
  70
    32
  0
VERTEX
  8
0
  5
182D
 10
85.6260
 20
129.197
 30
0.00000
  70
    32
  0
VERTEX
  8
0
  5
182E
 10
85.6246
 20
129.222
 30
0.00000
  70
    32
  0
VERTEX
  8
0
  5
182F
 10
85.6232
 20
129.246
 30
0.00000
  70
    32
  0
VERTEX
  8
0
  5
1830
 10
85.6218
 20
129.271
 30
0.00000
  70
    32
  0
VERTEX
  8
0
  5
1831
 10
85.6204
 20
129.296
 30
0.00000
  70
    32
  0
VERTEX
  8
0
  5
1832
 10
85.6191
 20
129.321
 30
0.00000
  70
    32
  0
VERTEX
  8
0
  5
1833
 10
85.6177
 20
129.346
 30
0.00000
  70
    32
  0
VERTEX
  8
0
  5
1834
 10
85.6163
 20
129.370
 30
0.00000
  70
    32
  0
VERTEX
  8
0
  5
1835
 10
85.6149
 20
129.395
 30
0.00000
  70
    32
  0
VERTEX
  8
0
  5
1836
 10
85.6135
 20
129.420
 30
0.00000
  70
    32
  0
VERTEX
  8
0
  5
1837
 10
85.6120
 20
129.445
 30
0.00000
  70
    32
  0
VERTEX
  8
0
  5
1838
 10
85.6106
 20
129.470
 30
0.00000
  70
    32
  0
VERTEX
  8
0
  5
1839
 10
85.6092
 20
129.495
 30
0.00000
  70
    32
  0
VERTEX
  8
0
  5
183A
 10
85.6078
 20
129.520
 30
0.00000
  70
    32
  0
VERTEX
  8
0
  5
183B
 10
85.6064
 20
129.545
 30
0.00000
  70
    32
  0
VERTEX
  8
0
  5
183C
 10
85.6050
 20
129.569
 30
0.00000
  70
    32
  0
VERTEX
  8
0
  5
183D
 10
85.6036
 20
129.594
 30
0.00000
  70
    32
  0
VERTEX
  8
0
  5
183E
 10
85.6021
 20
129.619
 30
0.00000
  70
    32
  0
VERTEX
  8
0
  5
183F
 10
85.6007
 20
129.644
 30
0.00000
  70
    32
  0
VERTEX
  8
0
  5
1840
 10
85.5993
 20
129.669
 30
0.00000
  70
    32
  0
VERTEX
  8
0
  5
1841
 10
85.5979
 20
129.694
 30
0.00000
  70
    32
  0
VERTEX
  8
0
  5
1842
 10
85.5964
 20
129.719
 30
0.00000
  70
    32
  0
VERTEX
  8
0
  5
1843
 10
85.5950
 20
129.744
 30
0.00000
  70
    32
  0
VERTEX
  8
0
  5
1844
 10
85.5936
 20
129.769
 30
0.00000
  70
    32
  0
VERTEX
  8
0
  5
1845
 10
85.5921
 20
129.794
 30
0.00000
  70
    32
  0
VERTEX
  8
0
  5
1846
 10
85.5907
 20
129.820
 30
0.00000
  70
    32
  0
VERTEX
  8
0
  5
1847
 10
85.5892
 20
129.845
 30
0.00000
  70
    32
  0
VERTEX
  8
0
  5
1848
 10
85.5878
 20
129.870
 30
0.00000
  70
    32
  0
VERTEX
  8
0
  5
1849
 10
85.5864
 20
129.895
 30
0.00000
  70
    32
  0
VERTEX
  8
0
  5
184A
 10
85.5849
 20
129.920
 30
0.00000
  70
    32
  0
VERTEX
  8
0
  5
184B
 10
85.5835
 20
129.945
 30
0.00000
  70
    32
  0
VERTEX
  8
0
  5
184C
 10
85.5820
 20
129.970
 30
0.00000
  70
    32
  0
VERTEX
  8
0
  5
184D
 10
85.5805
 20
129.995
 30
0.00000
  70
    32
  0
VERTEX
  8
0
  5
184E
 10
85.5791
 20
130.020
 30
0.00000
  70
    32
  0
VERTEX
  8
0
  5
184F
 10
85.5776
 20
130.046
 30
0.00000
  70
    32
  0
VERTEX
  8
0
  5
1850
 10
85.5762
 20
130.071
 30
0.00000
  70
    32
  0
VERTEX
  8
0
  5
1851
 10
85.5747
 20
130.096
 30
0.00000
  70
    32
  0
VERTEX
  8
0
  5
1852
 10
85.5732
 20
130.121
 30
0.00000
  70
    32
  0
VERTEX
  8
0
  5
1853
 10
85.5718
 20
130.146
 30
0.00000
  70
    32
  0
VERTEX
  8
0
  5
1854
 10
85.5703
 20
130.172
 30
0.00000
  70
    32
  0
VERTEX
  8
0
  5
1855
 10
85.5688
 20
130.197
 30
0.00000
  70
    32
  0
VERTEX
  8
0
  5
1856
 10
85.5673
 20
130.222
 30
0.00000
  70
    32
  0
VERTEX
  8
0
  5
1857
 10
85.5659
 20
130.247
 30
0.00000
  70
    32
  0
VERTEX
  8
0
  5
1858
 10
85.5644
 20
130.273
 30
0.00000
  70
    32
  0
VERTEX
  8
0
  5
1859
 10
85.5629
 20
130.298
 30
0.00000
  70
    32
  0
VERTEX
  8
0
  5
185A
 10
85.5614
 20
130.323
 30
0.00000
  70
    32
  0
VERTEX
  8
0
  5
185B
 10
85.5599
 20
130.349
 30
0.00000
  70
    32
  0
VERTEX
  8
0
  5
185C
 10
85.5584
 20
130.374
 30
0.00000
  70
    32
  0
VERTEX
  8
0
  5
185D
 10
85.5570
 20
130.399
 30
0.00000
  70
    32
  0
VERTEX
  8
0
  5
185E
 10
85.5555
 20
130.425
 30
0.00000
  70
    32
  0
VERTEX
  8
0
  5
185F
 10
85.5540
 20
130.450
 30
0.00000
  70
    32
  0
VERTEX
  8
0
  5
1860
 10
85.5525
 20
130.475
 30
0.00000
  70
    32
  0
VERTEX
  8
0
  5
1861
 10
85.5510
 20
130.501
 30
0.00000
  70
    32
  0
VERTEX
  8
0
  5
1862
 10
85.5495
 20
130.526
 30
0.00000
  70
    32
  0
VERTEX
  8
0
  5
1863
 10
85.5480
 20
130.552
 30
0.00000
  70
    32
  0
VERTEX
  8
0
  5
1864
 10
85.5465
 20
130.577
 30
0.00000
  70
    32
  0
VERTEX
  8
0
  5
1865
 10
85.5449
 20
130.602
 30
0.00000
  70
    32
  0
VERTEX
  8
0
  5
1866
 10
85.5434
 20
130.628
 30
0.00000
  70
    32
  0
VERTEX
  8
0
  5
1867
 10
85.5419
 20
130.653
 30
0.00000
  70
    32
  0
VERTEX
  8
0
  5
1868
 10
85.5404
 20
130.679
 30
0.00000
  70
    32
  0
VERTEX
  8
0
  5
1869
 10
85.5389
 20
130.704
 30
0.00000
  70
    32
  0
VERTEX
  8
0
  5
186A
 10
85.5374
 20
130.730
 30
0.00000
  70
    32
  0
VERTEX
  8
0
  5
186B
 10
85.5358
 20
130.755
 30
0.00000
  70
    32
  0
VERTEX
  8
0
  5
186C
 10
85.5343
 20
130.781
 30
0.00000
  70
    32
  0
VERTEX
  8
0
  5
186D
 10
85.5328
 20
130.806
 30
0.00000
  70
    32
  0
VERTEX
  8
0
  5
186E
 10
85.5313
 20
130.832
 30
0.00000
  70
    32
  0
VERTEX
  8
0
  5
186F
 10
85.5297
 20
130.857
 30
0.00000
  70
    32
  0
VERTEX
  8
0
  5
1870
 10
85.5282
 20
130.883
 30
0.00000
  70
    32
  0
VERTEX
  8
0
  5
1871
 10
85.5267
 20
130.909
 30
0.00000
  70
    32
  0
VERTEX
  8
0
  5
1872
 10
85.5251
 20
130.934
 30
0.00000
  70
    32
  0
VERTEX
  8
0
  5
1873
 10
85.5236
 20
130.960
 30
0.00000
  70
    32
  0
VERTEX
  8
0
  5
1874
 10
85.5221
 20
130.985
 30
0.00000
  70
    32
  0
VERTEX
  8
0
  5
1875
 10
85.5205
 20
131.011
 30
0.00000
  70
    32
  0
VERTEX
  8
0
  5
1876
 10
85.5190
 20
131.037
 30
0.00000
  70
    32
  0
VERTEX
  8
0
  5
1877
 10
85.5174
 20
131.062
 30
0.00000
  70
    32
  0
VERTEX
  8
0
  5
1878
 10
85.5159
 20
131.088
 30
0.00000
  70
    32
  0
VERTEX
  8
0
  5
1879
 10
85.5143
 20
131.113
 30
0.00000
  70
    32
  0
VERTEX
  8
0
  5
187A
 10
85.5128
 20
131.139
 30
0.00000
  70
    32
  0
VERTEX
  8
0
  5
187B
 10
85.5112
 20
131.165
 30
0.00000
  70
    32
  0
VERTEX
  8
0
  5
187C
 10
85.5097
 20
131.190
 30
0.00000
  70
    32
  0
VERTEX
  8
0
  5
187D
 10
85.5081
 20
131.216
 30
0.00000
  70
    32
  0
VERTEX
  8
0
  5
187E
 10
85.5065
 20
131.242
 30
0.00000
  70
    32
  0
VERTEX
  8
0
  5
187F
 10
85.5050
 20
131.268
 30
0.00000
  70
    32
  0
VERTEX
  8
0
  5
1880
 10
85.5034
 20
131.293
 30
0.00000
  70
    32
  0
VERTEX
  8
0
  5
1881
 10
85.5018
 20
131.319
 30
0.00000
  70
    32
  0
VERTEX
  8
0
  5
1882
 10
85.5003
 20
131.345
 30
0.00000
  70
    32
  0
VERTEX
  8
0
  5
1883
 10
85.4987
 20
131.371
 30
0.00000
  70
    32
  0
VERTEX
  8
0
  5
1884
 10
85.4971
 20
131.396
 30
0.00000
  70
    32
  0
VERTEX
  8
0
  5
1885
 10
85.4955
 20
131.422
 30
0.00000
  70
    32
  0
VERTEX
  8
0
  5
1886
 10
85.4940
 20
131.448
 30
0.00000
  70
    32
  0
VERTEX
  8
0
  5
1887
 10
85.4924
 20
131.474
 30
0.00000
  70
    32
  0
VERTEX
  8
0
  5
1888
 10
85.4908
 20
131.499
 30
0.00000
  70
    32
  0
VERTEX
  8
0
  5
1889
 10
85.4892
 20
131.525
 30
0.00000
  70
    32
  0
VERTEX
  8
0
  5
188A
 10
85.4876
 20
131.551
 30
0.00000
  70
    32
  0
VERTEX
  8
0
  5
188B
 10
85.4860
 20
131.577
 30
0.00000
  70
    32
  0
VERTEX
  8
0
  5
188C
 10
85.4844
 20
131.603
 30
0.00000
  70
    32
  0
VERTEX
  8
0
  5
188D
 10
85.4828
 20
131.629
 30
0.00000
  70
    32
  0
VERTEX
  8
0
  5
188E
 10
85.4812
 20
131.655
 30
0.00000
  70
    32
  0
VERTEX
  8
0
  5
188F
 10
85.4796
 20
131.680
 30
0.00000
  70
    32
  0
VERTEX
  8
0
  5
1890
 10
85.4780
 20
131.706
 30
0.00000
  70
    32
  0
VERTEX
  8
0
  5
1891
 10
85.4764
 20
131.732
 30
0.00000
  70
    32
  0
VERTEX
  8
0
  5
1892
 10
85.4748
 20
131.758
 30
0.00000
  70
    32
  0
VERTEX
  8
0
  5
1893
 10
85.4732
 20
131.784
 30
0.00000
  70
    32
  0
VERTEX
  8
0
  5
1894
 10
85.4716
 20
131.810
 30
0.00000
  70
    32
  0
VERTEX
  8
0
  5
1895
 10
85.4700
 20
131.836
 30
0.00000
  70
    32
  0
VERTEX
  8
0
  5
1896
 10
85.4684
 20
131.862
 30
0.00000
  70
    32
  0
VERTEX
  8
0
  5
1897
 10
85.4668
 20
131.888
 30
0.00000
  70
    32
  0
VERTEX
  8
0
  5
1898
 10
85.4652
 20
131.914
 30
0.00000
  70
    32
  0
VERTEX
  8
0
  5
1899
 10
85.4635
 20
131.940
 30
0.00000
  70
    32
  0
VERTEX
  8
0
  5
189A
 10
85.4619
 20
131.966
 30
0.00000
  70
    32
  0
VERTEX
  8
0
  5
189B
 10
85.4603
 20
131.992
 30
0.00000
  70
    32
  0
VERTEX
  8
0
  5
189C
 10
85.4587
 20
132.018
 30
0.00000
  70
    32
  0
VERTEX
  8
0
  5
189D
 10
85.4570
 20
132.044
 30
0.00000
  70
    32
  0
VERTEX
  8
0
  5
189E
 10
85.4554
 20
132.070
 30
0.00000
  70
    32
  0
VERTEX
  8
0
  5
189F
 10
85.4538
 20
132.096
 30
0.00000
  70
    32
  0
VERTEX
  8
0
  5
18A0
 10
85.4522
 20
132.122
 30
0.00000
  70
    32
  0
VERTEX
  8
0
  5
18A1
 10
85.4505
 20
132.148
 30
0.00000
  70
    32
  0
VERTEX
  8
0
  5
18A2
 10
85.4489
 20
132.174
 30
0.00000
  70
    32
  0
VERTEX
  8
0
  5
18A3
 10
85.4472
 20
132.200
 30
0.00000
  70
    32
  0
SEQEND
  8
0
  5
18A4
  0
POLYLINE
  5
ECA
  8
0
 10
42.5527582066980301
 20
132.1999999999963791
 30
0.0
 66
     1
 70
     8
  0
VERTEX
  8
0
  5
18A5
 10
42.5528
 20
132.200
 30
0.00000
  70
    32
  0
VERTEX
  8
0
  5
18A6
 10
42.5511
 20
132.174
 30
0.00000
  70
    32
  0
VERTEX
  8
0
  5
18A7
 10
42.5495
 20
132.148
 30
0.00000
  70
    32
  0
VERTEX
  8
0
  5
18A8
 10
42.5478
 20
132.122
 30
0.00000
  70
    32
  0
VERTEX
  8
0
  5
18A9
 10
42.5462
 20
132.096
 30
0.00000
  70
    32
  0
VERTEX
  8
0
  5
18AA
 10
42.5446
 20
132.070
 30
0.00000
  70
    32
  0
VERTEX
  8
0
  5
18AB
 10
42.5430
 20
132.044
 30
0.00000
  70
    32
  0
VERTEX
  8
0
  5
18AC
 10
42.5413
 20
132.018
 30
0.00000
  70
    32
  0
VERTEX
  8
0
  5
18AD
 10
42.5397
 20
131.992
 30
0.00000
  70
    32
  0
VERTEX
  8
0
  5
18AE
 10
42.5381
 20
131.966
 30
0.00000
  70
    32
  0
VERTEX
  8
0
  5
18AF
 10
42.5365
 20
131.940
 30
0.00000
  70
    32
  0
VERTEX
  8
0
  5
18B0
 10
42.5348
 20
131.914
 30
0.00000
  70
    32
  0
VERTEX
  8
0
  5
18B1
 10
42.5332
 20
131.888
 30
0.00000
  70
    32
  0
VERTEX
  8
0
  5
18B2
 10
42.5316
 20
131.862
 30
0.00000
  70
    32
  0
VERTEX
  8
0
  5
18B3
 10
42.5300
 20
131.836
 30
0.00000
  70
    32
  0
VERTEX
  8
0
  5
18B4
 10
42.5284
 20
131.810
 30
0.00000
  70
    32
  0
VERTEX
  8
0
  5
18B5
 10
42.5268
 20
131.784
 30
0.00000
  70
    32
  0
VERTEX
  8
0
  5
18B6
 10
42.5252
 20
131.758
 30
0.00000
  70
    32
  0
VERTEX
  8
0
  5
18B7
 10
42.5236
 20
131.732
 30
0.00000
  70
    32
  0
VERTEX
  8
0
  5
18B8
 10
42.5220
 20
131.706
 30
0.00000
  70
    32
  0
VERTEX
  8
0
  5
18B9
 10
42.5204
 20
131.680
 30
0.00000
  70
    32
  0
VERTEX
  8
0
  5
18BA
 10
42.5188
 20
131.655
 30
0.00000
  70
    32
  0
VERTEX
  8
0
  5
18BB
 10
42.5172
 20
131.629
 30
0.00000
  70
    32
  0
VERTEX
  8
0
  5
18BC
 10
42.5156
 20
131.603
 30
0.00000
  70
    32
  0
VERTEX
  8
0
  5
18BD
 10
42.5140
 20
131.577
 30
0.00000
  70
    32
  0
VERTEX
  8
0
  5
18BE
 10
42.5124
 20
131.551
 30
0.00000
  70
    32
  0
VERTEX
  8
0
  5
18BF
 10
42.5108
 20
131.525
 30
0.00000
  70
    32
  0
VERTEX
  8
0
  5
18C0
 10
42.5092
 20
131.499
 30
0.00000
  70
    32
  0
VERTEX
  8
0
  5
18C1
 10
42.5076
 20
131.474
 30
0.00000
  70
    32
  0
VERTEX
  8
0
  5
18C2
 10
42.5060
 20
131.448
 30
0.00000
  70
    32
  0
VERTEX
  8
0
  5
18C3
 10
42.5045
 20
131.422
 30
0.00000
  70
    32
  0
VERTEX
  8
0
  5
18C4
 10
42.5029
 20
131.396
 30
0.00000
  70
    32
  0
VERTEX
  8
0
  5
18C5
 10
42.5013
 20
131.371
 30
0.00000
  70
    32
  0
VERTEX
  8
0
  5
18C6
 10
42.4997
 20
131.345
 30
0.00000
  70
    32
  0
VERTEX
  8
0
  5
18C7
 10
42.4982
 20
131.319
 30
0.00000
  70
    32
  0
VERTEX
  8
0
  5
18C8
 10
42.4966
 20
131.293
 30
0.00000
  70
    32
  0
VERTEX
  8
0
  5
18C9
 10
42.4950
 20
131.268
 30
0.00000
  70
    32
  0
VERTEX
  8
0
  5
18CA
 10
42.4935
 20
131.242
 30
0.00000
  70
    32
  0
VERTEX
  8
0
  5
18CB
 10
42.4919
 20
131.216
 30
0.00000
  70
    32
  0
VERTEX
  8
0
  5
18CC
 10
42.4903
 20
131.190
 30
0.00000
  70
    32
  0
VERTEX
  8
0
  5
18CD
 10
42.4888
 20
131.165
 30
0.00000
  70
    32
  0
VERTEX
  8
0
  5
18CE
 10
42.4872
 20
131.139
 30
0.00000
  70
    32
  0
VERTEX
  8
0
  5
18CF
 10
42.4857
 20
131.113
 30
0.00000
  70
    32
  0
VERTEX
  8
0
  5
18D0
 10
42.4841
 20
131.088
 30
0.00000
  70
    32
  0
VERTEX
  8
0
  5
18D1
 10
42.4826
 20
131.062
 30
0.00000
  70
    32
  0
VERTEX
  8
0
  5
18D2
 10
42.4810
 20
131.037
 30
0.00000
  70
    32
  0
VERTEX
  8
0
  5
18D3
 10
42.4795
 20
131.011
 30
0.00000
  70
    32
  0
VERTEX
  8
0
  5
18D4
 10
42.4779
 20
130.985
 30
0.00000
  70
    32
  0
VERTEX
  8
0
  5
18D5
 10
42.4764
 20
130.960
 30
0.00000
  70
    32
  0
VERTEX
  8
0
  5
18D6
 10
42.4749
 20
130.934
 30
0.00000
  70
    32
  0
VERTEX
  8
0
  5
18D7
 10
42.4733
 20
130.909
 30
0.00000
  70
    32
  0
VERTEX
  8
0
  5
18D8
 10
42.4718
 20
130.883
 30
0.00000
  70
    32
  0
VERTEX
  8
0
  5
18D9
 10
42.4703
 20
130.857
 30
0.00000
  70
    32
  0
VERTEX
  8
0
  5
18DA
 10
42.4687
 20
130.832
 30
0.00000
  70
    32
  0
VERTEX
  8
0
  5
18DB
 10
42.4672
 20
130.806
 30
0.00000
  70
    32
  0
VERTEX
  8
0
  5
18DC
 10
42.4657
 20
130.781
 30
0.00000
  70
    32
  0
VERTEX
  8
0
  5
18DD
 10
42.4642
 20
130.755
 30
0.00000
  70
    32
  0
VERTEX
  8
0
  5
18DE
 10
42.4626
 20
130.730
 30
0.00000
  70
    32
  0
VERTEX
  8
0
  5
18DF
 10
42.4611
 20
130.704
 30
0.00000
  70
    32
  0
VERTEX
  8
0
  5
18E0
 10
42.4596
 20
130.679
 30
0.00000
  70
    32
  0
VERTEX
  8
0
  5
18E1
 10
42.4581
 20
130.653
 30
0.00000
  70
    32
  0
VERTEX
  8
0
  5
18E2
 10
42.4566
 20
130.628
 30
0.00000
  70
    32
  0
VERTEX
  8
0
  5
18E3
 10
42.4551
 20
130.602
 30
0.00000
  70
    32
  0
VERTEX
  8
0
  5
18E4
 10
42.4535
 20
130.577
 30
0.00000
  70
    32
  0
VERTEX
  8
0
  5
18E5
 10
42.4520
 20
130.552
 30
0.00000
  70
    32
  0
VERTEX
  8
0
  5
18E6
 10
42.4505
 20
130.526
 30
0.00000
  70
    32
  0
VERTEX
  8
0
  5
18E7
 10
42.4490
 20
130.501
 30
0.00000
  70
    32
  0
VERTEX
  8
0
  5
18E8
 10
42.4475
 20
130.475
 30
0.00000
  70
    32
  0
VERTEX
  8
0
  5
18E9
 10
42.4460
 20
130.450
 30
0.00000
  70
    32
  0
VERTEX
  8
0
  5
18EA
 10
42.4445
 20
130.425
 30
0.00000
  70
    32
  0
VERTEX
  8
0
  5
18EB
 10
42.4430
 20
130.399
 30
0.00000
  70
    32
  0
VERTEX
  8
0
  5
18EC
 10
42.4416
 20
130.374
 30
0.00000
  70
    32
  0
VERTEX
  8
0
  5
18ED
 10
42.4401
 20
130.349
 30
0.00000
  70
    32
  0
VERTEX
  8
0
  5
18EE
 10
42.4386
 20
130.323
 30
0.00000
  70
    32
  0
VERTEX
  8
0
  5
18EF
 10
42.4371
 20
130.298
 30
0.00000
  70
    32
  0
VERTEX
  8
0
  5
18F0
 10
42.4356
 20
130.273
 30
0.00000
  70
    32
  0
VERTEX
  8
0
  5
18F1
 10
42.4341
 20
130.247
 30
0.00000
  70
    32
  0
VERTEX
  8
0
  5
18F2
 10
42.4327
 20
130.222
 30
0.00000
  70
    32
  0
VERTEX
  8
0
  5
18F3
 10
42.4312
 20
130.197
 30
0.00000
  70
    32
  0
VERTEX
  8
0
  5
18F4
 10
42.4297
 20
130.172
 30
0.00000
  70
    32
  0
VERTEX
  8
0
  5
18F5
 10
42.4282
 20
130.146
 30
0.00000
  70
    32
  0
VERTEX
  8
0
  5
18F6
 10
42.4268
 20
130.121
 30
0.00000
  70
    32
  0
VERTEX
  8
0
  5
18F7
 10
42.4253
 20
130.096
 30
0.00000
  70
    32
  0
VERTEX
  8
0
  5
18F8
 10
42.4238
 20
130.071
 30
0.00000
  70
    32
  0
VERTEX
  8
0
  5
18F9
 10
42.4224
 20
130.046
 30
0.00000
  70
    32
  0
VERTEX
  8
0
  5
18FA
 10
42.4209
 20
130.020
 30
0.00000
  70
    32
  0
VERTEX
  8
0
  5
18FB
 10
42.4195
 20
129.995
 30
0.00000
  70
    32
  0
VERTEX
  8
0
  5
18FC
 10
42.4180
 20
129.970
 30
0.00000
  70
    32
  0
VERTEX
  8
0
  5
18FD
 10
42.4165
 20
129.945
 30
0.00000
  70
    32
  0
VERTEX
  8
0
  5
18FE
 10
42.4151
 20
129.920
 30
0.00000
  70
    32
  0
VERTEX
  8
0
  5
18FF
 10
42.4136
 20
129.895
 30
0.00000
  70
    32
  0
VERTEX
  8
0
  5
1900
 10
42.4122
 20
129.870
 30
0.00000
  70
    32
  0
VERTEX
  8
0
  5
1901
 10
42.4108
 20
129.845
 30
0.00000
  70
    32
  0
VERTEX
  8
0
  5
1902
 10
42.4093
 20
129.820
 30
0.00000
  70
    32
  0
VERTEX
  8
0
  5
1903
 10
42.4079
 20
129.794
 30
0.00000
  70
    32
  0
VERTEX
  8
0
  5
1904
 10
42.4064
 20
129.769
 30
0.00000
  70
    32
  0
VERTEX
  8
0
  5
1905
 10
42.4050
 20
129.744
 30
0.00000
  70
    32
  0
VERTEX
  8
0
  5
1906
 10
42.4036
 20
129.719
 30
0.00000
  70
    32
  0
VERTEX
  8
0
  5
1907
 10
42.4021
 20
129.694
 30
0.00000
  70
    32
  0
VERTEX
  8
0
  5
1908
 10
42.4007
 20
129.669
 30
0.00000
  70
    32
  0
VERTEX
  8
0
  5
1909
 10
42.3993
 20
129.644
 30
0.00000
  70
    32
  0
VERTEX
  8
0
  5
190A
 10
42.3979
 20
129.619
 30
0.00000
  70
    32
  0
VERTEX
  8
0
  5
190B
 10
42.3964
 20
129.594
 30
0.00000
  70
    32
  0
VERTEX
  8
0
  5
190C
 10
42.3950
 20
129.569
 30
0.00000
  70
    32
  0
VERTEX
  8
0
  5
190D
 10
42.3936
 20
129.545
 30
0.00000
  70
    32
  0
VERTEX
  8
0
  5
190E
 10
42.3922
 20
129.520
 30
0.00000
  70
    32
  0
VERTEX
  8
0
  5
190F
 10
42.3908
 20
129.495
 30
0.00000
  70
    32
  0
VERTEX
  8
0
  5
1910
 10
42.3894
 20
129.470
 30
0.00000
  70
    32
  0
VERTEX
  8
0
  5
1911
 10
42.3880
 20
129.445
 30
0.00000
  70
    32
  0
VERTEX
  8
0
  5
1912
 10
42.3865
 20
129.420
 30
0.00000
  70
    32
  0
VERTEX
  8
0
  5
1913
 10
42.3851
 20
129.395
 30
0.00000
  70
    32
  0
VERTEX
  8
0
  5
1914
 10
42.3837
 20
129.370
 30
0.00000
  70
    32
  0
VERTEX
  8
0
  5
1915
 10
42.3823
 20
129.346
 30
0.00000
  70
    32
  0
VERTEX
  8
0
  5
1916
 10
42.3809
 20
129.321
 30
0.00000
  70
    32
  0
VERTEX
  8
0
  5
1917
 10
42.3796
 20
129.296
 30
0.00000
  70
    32
  0
VERTEX
  8
0
  5
1918
 10
42.3782
 20
129.271
 30
0.00000
  70
    32
  0
VERTEX
  8
0
  5
1919
 10
42.3768
 20
129.246
 30
0.00000
  70
    32
  0
VERTEX
  8
0
  5
191A
 10
42.3754
 20
129.222
 30
0.00000
  70
    32
  0
VERTEX
  8
0
  5
191B
 10
42.3740
 20
129.197
 30
0.00000
  70
    32
  0
VERTEX
  8
0
  5
191C
 10
42.3726
 20
129.172
 30
0.00000
  70
    32
  0
VERTEX
  8
0
  5
191D
 10
42.3712
 20
129.147
 30
0.00000
  70
    32
  0
VERTEX
  8
0
  5
191E
 10
42.3699
 20
129.123
 30
0.00000
  70
    32
  0
VERTEX
  8
0
  5
191F
 10
42.3685
 20
129.098
 30
0.00000
  70
    32
  0
VERTEX
  8
0
  5
1920
 10
42.3671
 20
129.073
 30
0.00000
  70
    32
  0
VERTEX
  8
0
  5
1921
 10
42.3657
 20
129.049
 30
0.00000
  70
    32
  0
VERTEX
  8
0
  5
1922
 10
42.3644
 20
129.024
 30
0.00000
  70
    32
  0
VERTEX
  8
0
  5
1923
 10
42.3630
 20
128.999
 30
0.00000
  70
    32
  0
VERTEX
  8
0
  5
1924
 10
42.3616
 20
128.975
 30
0.00000
  70
    32
  0
VERTEX
  8
0
  5
1925
 10
42.3603
 20
128.950
 30
0.00000
  70
    32
  0
SEQEND
  8
0
  5
1926
  0
POLYLINE
  5
ECB
  8
0
 10
66.5527582066980301
 20
132.1999999999963791
 30
0.0
 66
     1
 70
     8
  0
VERTEX
  8
0
  5
1927
 10
66.5528
 20
132.200
 30
0.00000
  70
    32
  0
VERTEX
  8
0
  5
1928
 10
66.5511
 20
132.174
 30
0.00000
  70
    32
  0
VERTEX
  8
0
  5
1929
 10
66.5495
 20
132.148
 30
0.00000
  70
    32
  0
VERTEX
  8
0
  5
192A
 10
66.5478
 20
132.122
 30
0.00000
  70
    32
  0
VERTEX
  8
0
  5
192B
 10
66.5462
 20
132.096
 30
0.00000
  70
    32
  0
VERTEX
  8
0
  5
192C
 10
66.5446
 20
132.070
 30
0.00000
  70
    32
  0
VERTEX
  8
0
  5
192D
 10
66.5430
 20
132.044
 30
0.00000
  70
    32
  0
VERTEX
  8
0
  5
192E
 10
66.5413
 20
132.018
 30
0.00000
  70
    32
  0
VERTEX
  8
0
  5
192F
 10
66.5397
 20
131.992
 30
0.00000
  70
    32
  0
VERTEX
  8
0
  5
1930
 10
66.5381
 20
131.966
 30
0.00000
  70
    32
  0
VERTEX
  8
0
  5
1931
 10
66.5365
 20
131.940
 30
0.00000
  70
    32
  0
VERTEX
  8
0
  5
1932
 10
66.5348
 20
131.914
 30
0.00000
  70
    32
  0
VERTEX
  8
0
  5
1933
 10
66.5332
 20
131.888
 30
0.00000
  70
    32
  0
VERTEX
  8
0
  5
1934
 10
66.5316
 20
131.862
 30
0.00000
  70
    32
  0
VERTEX
  8
0
  5
1935
 10
66.5300
 20
131.836
 30
0.00000
  70
    32
  0
VERTEX
  8
0
  5
1936
 10
66.5284
 20
131.810
 30
0.00000
  70
    32
  0
VERTEX
  8
0
  5
1937
 10
66.5268
 20
131.784
 30
0.00000
  70
    32
  0
VERTEX
  8
0
  5
1938
 10
66.5252
 20
131.758
 30
0.00000
  70
    32
  0
VERTEX
  8
0
  5
1939
 10
66.5236
 20
131.732
 30
0.00000
  70
    32
  0
VERTEX
  8
0
  5
193A
 10
66.5220
 20
131.706
 30
0.00000
  70
    32
  0
VERTEX
  8
0
  5
193B
 10
66.5204
 20
131.680
 30
0.00000
  70
    32
  0
VERTEX
  8
0
  5
193C
 10
66.5188
 20
131.655
 30
0.00000
  70
    32
  0
VERTEX
  8
0
  5
193D
 10
66.5172
 20
131.629
 30
0.00000
  70
    32
  0
VERTEX
  8
0
  5
193E
 10
66.5156
 20
131.603
 30
0.00000
  70
    32
  0
VERTEX
  8
0
  5
193F
 10
66.5140
 20
131.577
 30
0.00000
  70
    32
  0
VERTEX
  8
0
  5
1940
 10
66.5124
 20
131.551
 30
0.00000
  70
    32
  0
VERTEX
  8
0
  5
1941
 10
66.5108
 20
131.525
 30
0.00000
  70
    32
  0
VERTEX
  8
0
  5
1942
 10
66.5092
 20
131.499
 30
0.00000
  70
    32
  0
VERTEX
  8
0
  5
1943
 10
66.5076
 20
131.474
 30
0.00000
  70
    32
  0
VERTEX
  8
0
  5
1944
 10
66.5060
 20
131.448
 30
0.00000
  70
    32
  0
VERTEX
  8
0
  5
1945
 10
66.5045
 20
131.422
 30
0.00000
  70
    32
  0
VERTEX
  8
0
  5
1946
 10
66.5029
 20
131.396
 30
0.00000
  70
    32
  0
VERTEX
  8
0
  5
1947
 10
66.5013
 20
131.371
 30
0.00000
  70
    32
  0
VERTEX
  8
0
  5
1948
 10
66.4997
 20
131.345
 30
0.00000
  70
    32
  0
VERTEX
  8
0
  5
1949
 10
66.4982
 20
131.319
 30
0.00000
  70
    32
  0
VERTEX
  8
0
  5
194A
 10
66.4966
 20
131.293
 30
0.00000
  70
    32
  0
VERTEX
  8
0
  5
194B
 10
66.4950
 20
131.268
 30
0.00000
  70
    32
  0
VERTEX
  8
0
  5
194C
 10
66.4935
 20
131.242
 30
0.00000
  70
    32
  0
VERTEX
  8
0
  5
194D
 10
66.4919
 20
131.216
 30
0.00000
  70
    32
  0
VERTEX
  8
0
  5
194E
 10
66.4903
 20
131.190
 30
0.00000
  70
    32
  0
VERTEX
  8
0
  5
194F
 10
66.4888
 20
131.165
 30
0.00000
  70
    32
  0
VERTEX
  8
0
  5
1950
 10
66.4872
 20
131.139
 30
0.00000
  70
    32
  0
VERTEX
  8
0
  5
1951
 10
66.4857
 20
131.113
 30
0.00000
  70
    32
  0
VERTEX
  8
0
  5
1952
 10
66.4841
 20
131.088
 30
0.00000
  70
    32
  0
VERTEX
  8
0
  5
1953
 10
66.4826
 20
131.062
 30
0.00000
  70
    32
  0
VERTEX
  8
0
  5
1954
 10
66.4810
 20
131.037
 30
0.00000
  70
    32
  0
VERTEX
  8
0
  5
1955
 10
66.4795
 20
131.011
 30
0.00000
  70
    32
  0
VERTEX
  8
0
  5
1956
 10
66.4779
 20
130.985
 30
0.00000
  70
    32
  0
VERTEX
  8
0
  5
1957
 10
66.4764
 20
130.960
 30
0.00000
  70
    32
  0
VERTEX
  8
0
  5
1958
 10
66.4749
 20
130.934
 30
0.00000
  70
    32
  0
VERTEX
  8
0
  5
1959
 10
66.4733
 20
130.909
 30
0.00000
  70
    32
  0
VERTEX
  8
0
  5
195A
 10
66.4718
 20
130.883
 30
0.00000
  70
    32
  0
VERTEX
  8
0
  5
195B
 10
66.4703
 20
130.857
 30
0.00000
  70
    32
  0
VERTEX
  8
0
  5
195C
 10
66.4687
 20
130.832
 30
0.00000
  70
    32
  0
VERTEX
  8
0
  5
195D
 10
66.4672
 20
130.806
 30
0.00000
  70
    32
  0
VERTEX
  8
0
  5
195E
 10
66.4657
 20
130.781
 30
0.00000
  70
    32
  0
VERTEX
  8
0
  5
195F
 10
66.4642
 20
130.755
 30
0.00000
  70
    32
  0
VERTEX
  8
0
  5
1960
 10
66.4626
 20
130.730
 30
0.00000
  70
    32
  0
VERTEX
  8
0
  5
1961
 10
66.4611
 20
130.704
 30
0.00000
  70
    32
  0
VERTEX
  8
0
  5
1962
 10
66.4596
 20
130.679
 30
0.00000
  70
    32
  0
VERTEX
  8
0
  5
1963
 10
66.4581
 20
130.653
 30
0.00000
  70
    32
  0
VERTEX
  8
0
  5
1964
 10
66.4566
 20
130.628
 30
0.00000
  70
    32
  0
VERTEX
  8
0
  5
1965
 10
66.4551
 20
130.602
 30
0.00000
  70
    32
  0
VERTEX
  8
0
  5
1966
 10
66.4535
 20
130.577
 30
0.00000
  70
    32
  0
VERTEX
  8
0
  5
1967
 10
66.4520
 20
130.552
 30
0.00000
  70
    32
  0
VERTEX
  8
0
  5
1968
 10
66.4505
 20
130.526
 30
0.00000
  70
    32
  0
VERTEX
  8
0
  5
1969
 10
66.4490
 20
130.501
 30
0.00000
  70
    32
  0
VERTEX
  8
0
  5
196A
 10
66.4475
 20
130.475
 30
0.00000
  70
    32
  0
VERTEX
  8
0
  5
196B
 10
66.4460
 20
130.450
 30
0.00000
  70
    32
  0
VERTEX
  8
0
  5
196C
 10
66.4445
 20
130.425
 30
0.00000
  70
    32
  0
VERTEX
  8
0
  5
196D
 10
66.4430
 20
130.399
 30
0.00000
  70
    32
  0
VERTEX
  8
0
  5
196E
 10
66.4416
 20
130.374
 30
0.00000
  70
    32
  0
VERTEX
  8
0
  5
196F
 10
66.4401
 20
130.349
 30
0.00000
  70
    32
  0
VERTEX
  8
0
  5
1970
 10
66.4386
 20
130.323
 30
0.00000
  70
    32
  0
VERTEX
  8
0
  5
1971
 10
66.4371
 20
130.298
 30
0.00000
  70
    32
  0
VERTEX
  8
0
  5
1972
 10
66.4356
 20
130.273
 30
0.00000
  70
    32
  0
VERTEX
  8
0
  5
1973
 10
66.4341
 20
130.247
 30
0.00000
  70
    32
  0
VERTEX
  8
0
  5
1974
 10
66.4327
 20
130.222
 30
0.00000
  70
    32
  0
VERTEX
  8
0
  5
1975
 10
66.4312
 20
130.197
 30
0.00000
  70
    32
  0
VERTEX
  8
0
  5
1976
 10
66.4297
 20
130.172
 30
0.00000
  70
    32
  0
VERTEX
  8
0
  5
1977
 10
66.4282
 20
130.146
 30
0.00000
  70
    32
  0
VERTEX
  8
0
  5
1978
 10
66.4268
 20
130.121
 30
0.00000
  70
    32
  0
VERTEX
  8
0
  5
1979
 10
66.4253
 20
130.096
 30
0.00000
  70
    32
  0
VERTEX
  8
0
  5
197A
 10
66.4238
 20
130.071
 30
0.00000
  70
    32
  0
VERTEX
  8
0
  5
197B
 10
66.4224
 20
130.046
 30
0.00000
  70
    32
  0
VERTEX
  8
0
  5
197C
 10
66.4209
 20
130.020
 30
0.00000
  70
    32
  0
VERTEX
  8
0
  5
197D
 10
66.4195
 20
129.995
 30
0.00000
  70
    32
  0
VERTEX
  8
0
  5
197E
 10
66.4180
 20
129.970
 30
0.00000
  70
    32
  0
VERTEX
  8
0
  5
197F
 10
66.4165
 20
129.945
 30
0.00000
  70
    32
  0
VERTEX
  8
0
  5
1980
 10
66.4151
 20
129.920
 30
0.00000
  70
    32
  0
VERTEX
  8
0
  5
1981
 10
66.4136
 20
129.895
 30
0.00000
  70
    32
  0
VERTEX
  8
0
  5
1982
 10
66.4122
 20
129.870
 30
0.00000
  70
    32
  0
VERTEX
  8
0
  5
1983
 10
66.4108
 20
129.845
 30
0.00000
  70
    32
  0
VERTEX
  8
0
  5
1984
 10
66.4093
 20
129.820
 30
0.00000
  70
    32
  0
VERTEX
  8
0
  5
1985
 10
66.4079
 20
129.794
 30
0.00000
  70
    32
  0
VERTEX
  8
0
  5
1986
 10
66.4064
 20
129.769
 30
0.00000
  70
    32
  0
VERTEX
  8
0
  5
1987
 10
66.4050
 20
129.744
 30
0.00000
  70
    32
  0
VERTEX
  8
0
  5
1988
 10
66.4036
 20
129.719
 30
0.00000
  70
    32
  0
VERTEX
  8
0
  5
1989
 10
66.4021
 20
129.694
 30
0.00000
  70
    32
  0
VERTEX
  8
0
  5
198A
 10
66.4007
 20
129.669
 30
0.00000
  70
    32
  0
VERTEX
  8
0
  5
198B
 10
66.3993
 20
129.644
 30
0.00000
  70
    32
  0
VERTEX
  8
0
  5
198C
 10
66.3979
 20
129.619
 30
0.00000
  70
    32
  0
VERTEX
  8
0
  5
198D
 10
66.3964
 20
129.594
 30
0.00000
  70
    32
  0
VERTEX
  8
0
  5
198E
 10
66.3950
 20
129.569
 30
0.00000
  70
    32
  0
VERTEX
  8
0
  5
198F
 10
66.3936
 20
129.545
 30
0.00000
  70
    32
  0
VERTEX
  8
0
  5
1990
 10
66.3922
 20
129.520
 30
0.00000
  70
    32
  0
VERTEX
  8
0
  5
1991
 10
66.3908
 20
129.495
 30
0.00000
  70
    32
  0
VERTEX
  8
0
  5
1992
 10
66.3894
 20
129.470
 30
0.00000
  70
    32
  0
VERTEX
  8
0
  5
1993
 10
66.3880
 20
129.445
 30
0.00000
  70
    32
  0
VERTEX
  8
0
  5
1994
 10
66.3865
 20
129.420
 30
0.00000
  70
    32
  0
VERTEX
  8
0
  5
1995
 10
66.3851
 20
129.395
 30
0.00000
  70
    32
  0
VERTEX
  8
0
  5
1996
 10
66.3837
 20
129.370
 30
0.00000
  70
    32
  0
VERTEX
  8
0
  5
1997
 10
66.3823
 20
129.346
 30
0.00000
  70
    32
  0
VERTEX
  8
0
  5
1998
 10
66.3809
 20
129.321
 30
0.00000
  70
    32
  0
VERTEX
  8
0
  5
1999
 10
66.3796
 20
129.296
 30
0.00000
  70
    32
  0
VERTEX
  8
0
  5
199A
 10
66.3782
 20
129.271
 30
0.00000
  70
    32
  0
VERTEX
  8
0
  5
199B
 10
66.3768
 20
129.246
 30
0.00000
  70
    32
  0
VERTEX
  8
0
  5
199C
 10
66.3754
 20
129.222
 30
0.00000
  70
    32
  0
VERTEX
  8
0
  5
199D
 10
66.3740
 20
129.197
 30
0.00000
  70
    32
  0
VERTEX
  8
0
  5
199E
 10
66.3726
 20
129.172
 30
0.00000
  70
    32
  0
VERTEX
  8
0
  5
199F
 10
66.3712
 20
129.147
 30
0.00000
  70
    32
  0
VERTEX
  8
0
  5
19A0
 10
66.3699
 20
129.123
 30
0.00000
  70
    32
  0
VERTEX
  8
0
  5
19A1
 10
66.3685
 20
129.098
 30
0.00000
  70
    32
  0
VERTEX
  8
0
  5
19A2
 10
66.3671
 20
129.073
 30
0.00000
  70
    32
  0
VERTEX
  8
0
  5
19A3
 10
66.3657
 20
129.049
 30
0.00000
  70
    32
  0
VERTEX
  8
0
  5
19A4
 10
66.3644
 20
129.024
 30
0.00000
  70
    32
  0
VERTEX
  8
0
  5
19A5
 10
66.3630
 20
128.999
 30
0.00000
  70
    32
  0
VERTEX
  8
0
  5
19A6
 10
66.3616
 20
128.975
 30
0.00000
  70
    32
  0
VERTEX
  8
0
  5
19A7
 10
66.3603
 20
128.950
 30
0.00000
  70
    32
  0
SEQEND
  8
0
  5
19A8
  0
POLYLINE
  5
ECC
  8
0
 10
130.5527582066976606
 20
132.1999999999947875
 30
0.0
 66
     1
 70
     8
  0
VERTEX
  8
0
  5
19A9
 10
130.553
 20
132.200
 30
0.00000
  70
    32
  0
VERTEX
  8
0
  5
19AA
 10
130.551
 20
132.174
 30
0.00000
  70
    32
  0
VERTEX
  8
0
  5
19AB
 10
130.549
 20
132.148
 30
0.00000
  70
    32
  0
VERTEX
  8
0
  5
19AC
 10
130.548
 20
132.122
 30
0.00000
  70
    32
  0
VERTEX
  8
0
  5
19AD
 10
130.546
 20
132.096
 30
0.00000
  70
    32
  0
VERTEX
  8
0
  5
19AE
 10
130.545
 20
132.070
 30
0.00000
  70
    32
  0
VERTEX
  8
0
  5
19AF
 10
130.543
 20
132.044
 30
0.00000
  70
    32
  0
VERTEX
  8
0
  5
19B0
 10
130.541
 20
132.018
 30
0.00000
  70
    32
  0
VERTEX
  8
0
  5
19B1
 10
130.540
 20
131.992
 30
0.00000
  70
    32
  0
VERTEX
  8
0
  5
19B2
 10
130.538
 20
131.966
 30
0.00000
  70
    32
  0
VERTEX
  8
0
  5
19B3
 10
130.536
 20
131.940
 30
0.00000
  70
    32
  0
VERTEX
  8
0
  5
19B4
 10
130.535
 20
131.914
 30
0.00000
  70
    32
  0
VERTEX
  8
0
  5
19B5
 10
130.533
 20
131.888
 30
0.00000
  70
    32
  0
VERTEX
  8
0
  5
19B6
 10
130.532
 20
131.862
 30
0.00000
  70
    32
  0
VERTEX
  8
0
  5
19B7
 10
130.530
 20
131.836
 30
0.00000
  70
    32
  0
VERTEX
  8
0
  5
19B8
 10
130.528
 20
131.810
 30
0.00000
  70
    32
  0
VERTEX
  8
0
  5
19B9
 10
130.527
 20
131.784
 30
0.00000
  70
    32
  0
VERTEX
  8
0
  5
19BA
 10
130.525
 20
131.758
 30
0.00000
  70
    32
  0
VERTEX
  8
0
  5
19BB
 10
130.524
 20
131.732
 30
0.00000
  70
    32
  0
VERTEX
  8
0
  5
19BC
 10
130.522
 20
131.706
 30
0.00000
  70
    32
  0
VERTEX
  8
0
  5
19BD
 10
130.520
 20
131.680
 30
0.00000
  70
    32
  0
VERTEX
  8
0
  5
19BE
 10
130.519
 20
131.655
 30
0.00000
  70
    32
  0
VERTEX
  8
0
  5
19BF
 10
130.517
 20
131.629
 30
0.00000
  70
    32
  0
VERTEX
  8
0
  5
19C0
 10
130.516
 20
131.603
 30
0.00000
  70
    32
  0
VERTEX
  8
0
  5
19C1
 10
130.514
 20
131.577
 30
0.00000
  70
    32
  0
VERTEX
  8
0
  5
19C2
 10
130.512
 20
131.551
 30
0.00000
  70
    32
  0
VERTEX
  8
0
  5
19C3
 10
130.511
 20
131.525
 30
0.00000
  70
    32
  0
VERTEX
  8
0
  5
19C4
 10
130.509
 20
131.499
 30
0.00000
  70
    32
  0
VERTEX
  8
0
  5
19C5
 10
130.508
 20
131.474
 30
0.00000
  70
    32
  0
VERTEX
  8
0
  5
19C6
 10
130.506
 20
131.448
 30
0.00000
  70
    32
  0
VERTEX
  8
0
  5
19C7
 10
130.504
 20
131.422
 30
0.00000
  70
    32
  0
VERTEX
  8
0
  5
19C8
 10
130.503
 20
131.396
 30
0.00000
  70
    32
  0
VERTEX
  8
0
  5
19C9
 10
130.501
 20
131.371
 30
0.00000
  70
    32
  0
VERTEX
  8
0
  5
19CA
 10
130.500
 20
131.345
 30
0.00000
  70
    32
  0
VERTEX
  8
0
  5
19CB
 10
130.498
 20
131.319
 30
0.00000
  70
    32
  0
VERTEX
  8
0
  5
19CC
 10
130.497
 20
131.293
 30
0.00000
  70
    32
  0
VERTEX
  8
0
  5
19CD
 10
130.495
 20
131.268
 30
0.00000
  70
    32
  0
VERTEX
  8
0
  5
19CE
 10
130.493
 20
131.242
 30
0.00000
  70
    32
  0
VERTEX
  8
0
  5
19CF
 10
130.492
 20
131.216
 30
0.00000
  70
    32
  0
VERTEX
  8
0
  5
19D0
 10
130.490
 20
131.190
 30
0.00000
  70
    32
  0
VERTEX
  8
0
  5
19D1
 10
130.489
 20
131.165
 30
0.00000
  70
    32
  0
VERTEX
  8
0
  5
19D2
 10
130.487
 20
131.139
 30
0.00000
  70
    32
  0
VERTEX
  8
0
  5
19D3
 10
130.486
 20
131.113
 30
0.00000
  70
    32
  0
VERTEX
  8
0
  5
19D4
 10
130.484
 20
131.088
 30
0.00000
  70
    32
  0
VERTEX
  8
0
  5
19D5
 10
130.483
 20
131.062
 30
0.00000
  70
    32
  0
VERTEX
  8
0
  5
19D6
 10
130.481
 20
131.037
 30
0.00000
  70
    32
  0
VERTEX
  8
0
  5
19D7
 10
130.479
 20
131.011
 30
0.00000
  70
    32
  0
VERTEX
  8
0
  5
19D8
 10
130.478
 20
130.985
 30
0.00000
  70
    32
  0
VERTEX
  8
0
  5
19D9
 10
130.476
 20
130.960
 30
0.00000
  70
    32
  0
VERTEX
  8
0
  5
19DA
 10
130.475
 20
130.934
 30
0.00000
  70
    32
  0
VERTEX
  8
0
  5
19DB
 10
130.473
 20
130.909
 30
0.00000
  70
    32
  0
VERTEX
  8
0
  5
19DC
 10
130.472
 20
130.883
 30
0.00000
  70
    32
  0
VERTEX
  8
0
  5
19DD
 10
130.470
 20
130.857
 30
0.00000
  70
    32
  0
VERTEX
  8
0
  5
19DE
 10
130.469
 20
130.832
 30
0.00000
  70
    32
  0
VERTEX
  8
0
  5
19DF
 10
130.467
 20
130.806
 30
0.00000
  70
    32
  0
VERTEX
  8
0
  5
19E0
 10
130.466
 20
130.781
 30
0.00000
  70
    32
  0
VERTEX
  8
0
  5
19E1
 10
130.464
 20
130.755
 30
0.00000
  70
    32
  0
VERTEX
  8
0
  5
19E2
 10
130.463
 20
130.730
 30
0.00000
  70
    32
  0
VERTEX
  8
0
  5
19E3
 10
130.461
 20
130.704
 30
0.00000
  70
    32
  0
VERTEX
  8
0
  5
19E4
 10
130.460
 20
130.679
 30
0.00000
  70
    32
  0
VERTEX
  8
0
  5
19E5
 10
130.458
 20
130.653
 30
0.00000
  70
    32
  0
VERTEX
  8
0
  5
19E6
 10
130.457
 20
130.628
 30
0.00000
  70
    32
  0
VERTEX
  8
0
  5
19E7
 10
130.455
 20
130.602
 30
0.00000
  70
    32
  0
VERTEX
  8
0
  5
19E8
 10
130.454
 20
130.577
 30
0.00000
  70
    32
  0
VERTEX
  8
0
  5
19E9
 10
130.452
 20
130.552
 30
0.00000
  70
    32
  0
VERTEX
  8
0
  5
19EA
 10
130.451
 20
130.526
 30
0.00000
  70
    32
  0
VERTEX
  8
0
  5
19EB
 10
130.449
 20
130.501
 30
0.00000
  70
    32
  0
VERTEX
  8
0
  5
19EC
 10
130.448
 20
130.475
 30
0.00000
  70
    32
  0
VERTEX
  8
0
  5
19ED
 10
130.446
 20
130.450
 30
0.00000
  70
    32
  0
VERTEX
  8
0
  5
19EE
 10
130.445
 20
130.425
 30
0.00000
  70
    32
  0
VERTEX
  8
0
  5
19EF
 10
130.443
 20
130.399
 30
0.00000
  70
    32
  0
VERTEX
  8
0
  5
19F0
 10
130.442
 20
130.374
 30
0.00000
  70
    32
  0
VERTEX
  8
0
  5
19F1
 10
130.440
 20
130.349
 30
0.00000
  70
    32
  0
VERTEX
  8
0
  5
19F2
 10
130.439
 20
130.323
 30
0.00000
  70
    32
  0
VERTEX
  8
0
  5
19F3
 10
130.437
 20
130.298
 30
0.00000
  70
    32
  0
VERTEX
  8
0
  5
19F4
 10
130.436
 20
130.273
 30
0.00000
  70
    32
  0
VERTEX
  8
0
  5
19F5
 10
130.434
 20
130.247
 30
0.00000
  70
    32
  0
VERTEX
  8
0
  5
19F6
 10
130.433
 20
130.222
 30
0.00000
  70
    32
  0
VERTEX
  8
0
  5
19F7
 10
130.431
 20
130.197
 30
0.00000
  70
    32
  0
VERTEX
  8
0
  5
19F8
 10
130.430
 20
130.172
 30
0.00000
  70
    32
  0
VERTEX
  8
0
  5
19F9
 10
130.428
 20
130.146
 30
0.00000
  70
    32
  0
VERTEX
  8
0
  5
19FA
 10
130.427
 20
130.121
 30
0.00000
  70
    32
  0
VERTEX
  8
0
  5
19FB
 10
130.425
 20
130.096
 30
0.00000
  70
    32
  0
VERTEX
  8
0
  5
19FC
 10
130.424
 20
130.071
 30
0.00000
  70
    32
  0
VERTEX
  8
0
  5
19FD
 10
130.422
 20
130.046
 30
0.00000
  70
    32
  0
VERTEX
  8
0
  5
19FE
 10
130.421
 20
130.020
 30
0.00000
  70
    32
  0
VERTEX
  8
0
  5
19FF
 10
130.419
 20
129.995
 30
0.00000
  70
    32
  0
VERTEX
  8
0
  5
1A00
 10
130.418
 20
129.970
 30
0.00000
  70
    32
  0
VERTEX
  8
0
  5
1A01
 10
130.417
 20
129.945
 30
0.00000
  70
    32
  0
VERTEX
  8
0
  5
1A02
 10
130.415
 20
129.920
 30
0.00000
  70
    32
  0
VERTEX
  8
0
  5
1A03
 10
130.414
 20
129.895
 30
0.00000
  70
    32
  0
VERTEX
  8
0
  5
1A04
 10
130.412
 20
129.870
 30
0.00000
  70
    32
  0
VERTEX
  8
0
  5
1A05
 10
130.411
 20
129.845
 30
0.00000
  70
    32
  0
VERTEX
  8
0
  5
1A06
 10
130.409
 20
129.820
 30
0.00000
  70
    32
  0
VERTEX
  8
0
  5
1A07
 10
130.408
 20
129.794
 30
0.00000
  70
    32
  0
VERTEX
  8
0
  5
1A08
 10
130.406
 20
129.769
 30
0.00000
  70
    32
  0
VERTEX
  8
0
  5
1A09
 10
130.405
 20
129.744
 30
0.00000
  70
    32
  0
VERTEX
  8
0
  5
1A0A
 10
130.404
 20
129.719
 30
0.00000
  70
    32
  0
VERTEX
  8
0
  5
1A0B
 10
130.402
 20
129.694
 30
0.00000
  70
    32
  0
VERTEX
  8
0
  5
1A0C
 10
130.401
 20
129.669
 30
0.00000
  70
    32
  0
VERTEX
  8
0
  5
1A0D
 10
130.399
 20
129.644
 30
0.00000
  70
    32
  0
VERTEX
  8
0
  5
1A0E
 10
130.398
 20
129.619
 30
0.00000
  70
    32
  0
VERTEX
  8
0
  5
1A0F
 10
130.396
 20
129.594
 30
0.00000
  70
    32
  0
VERTEX
  8
0
  5
1A10
 10
130.395
 20
129.569
 30
0.00000
  70
    32
  0
VERTEX
  8
0
  5
1A11
 10
130.394
 20
129.545
 30
0.00000
  70
    32
  0
VERTEX
  8
0
  5
1A12
 10
130.392
 20
129.520
 30
0.00000
  70
    32
  0
VERTEX
  8
0
  5
1A13
 10
130.391
 20
129.495
 30
0.00000
  70
    32
  0
VERTEX
  8
0
  5
1A14
 10
130.389
 20
129.470
 30
0.00000
  70
    32
  0
VERTEX
  8
0
  5
1A15
 10
130.388
 20
129.445
 30
0.00000
  70
    32
  0
VERTEX
  8
0
  5
1A16
 10
130.387
 20
129.420
 30
0.00000
  70
    32
  0
VERTEX
  8
0
  5
1A17
 10
130.385
 20
129.395
 30
0.00000
  70
    32
  0
VERTEX
  8
0
  5
1A18
 10
130.384
 20
129.370
 30
0.00000
  70
    32
  0
VERTEX
  8
0
  5
1A19
 10
130.382
 20
129.346
 30
0.00000
  70
    32
  0
VERTEX
  8
0
  5
1A1A
 10
130.381
 20
129.321
 30
0.00000
  70
    32
  0
VERTEX
  8
0
  5
1A1B
 10
130.380
 20
129.296
 30
0.00000
  70
    32
  0
VERTEX
  8
0
  5
1A1C
 10
130.378
 20
129.271
 30
0.00000
  70
    32
  0
VERTEX
  8
0
  5
1A1D
 10
130.377
 20
129.246
 30
0.00000
  70
    32
  0
VERTEX
  8
0
  5
1A1E
 10
130.375
 20
129.222
 30
0.00000
  70
    32
  0
VERTEX
  8
0
  5
1A1F
 10
130.374
 20
129.197
 30
0.00000
  70
    32
  0
VERTEX
  8
0
  5
1A20
 10
130.373
 20
129.172
 30
0.00000
  70
    32
  0
VERTEX
  8
0
  5
1A21
 10
130.371
 20
129.147
 30
0.00000
  70
    32
  0
VERTEX
  8
0
  5
1A22
 10
130.370
 20
129.123
 30
0.00000
  70
    32
  0
VERTEX
  8
0
  5
1A23
 10
130.368
 20
129.098
 30
0.00000
  70
    32
  0
VERTEX
  8
0
  5
1A24
 10
130.367
 20
129.073
 30
0.00000
  70
    32
  0
VERTEX
  8
0
  5
1A25
 10
130.366
 20
129.049
 30
0.00000
  70
    32
  0
VERTEX
  8
0
  5
1A26
 10
130.364
 20
129.024
 30
0.00000
  70
    32
  0
VERTEX
  8
0
  5
1A27
 10
130.363
 20
128.999
 30
0.00000
  70
    32
  0
VERTEX
  8
0
  5
1A28
 10
130.362
 20
128.975
 30
0.00000
  70
    32
  0
VERTEX
  8
0
  5
1A29
 10
130.360
 20
128.950
 30
0.00000
  70
    32
  0
SEQEND
  8
0
  5
1A2A
  0
POLYLINE
  5
ECD
  8
0
 10
117.63972855182584
 20
128.9500000000017792
 30
0.0
 66
     1
 70
     8
  0
VERTEX
  8
0
  5
1A2B
 10
117.640
 20
128.950
 30
0.00000
  70
    32
  0
VERTEX
  8
0
  5
1A2C
 10
117.638
 20
128.975
 30
0.00000
  70
    32
  0
VERTEX
  8
0
  5
1A2D
 10
117.637
 20
128.999
 30
0.00000
  70
    32
  0
VERTEX
  8
0
  5
1A2E
 10
117.636
 20
129.024
 30
0.00000
  70
    32
  0
VERTEX
  8
0
  5
1A2F
 10
117.634
 20
129.049
 30
0.00000
  70
    32
  0
VERTEX
  8
0
  5
1A30
 10
117.633
 20
129.073
 30
0.00000
  70
    32
  0
VERTEX
  8
0
  5
1A31
 10
117.632
 20
129.098
 30
0.00000
  70
    32
  0
VERTEX
  8
0
  5
1A32
 10
117.630
 20
129.123
 30
0.00000
  70
    32
  0
VERTEX
  8
0
  5
1A33
 10
117.629
 20
129.147
 30
0.00000
  70
    32
  0
VERTEX
  8
0
  5
1A34
 10
117.627
 20
129.172
 30
0.00000
  70
    32
  0
VERTEX
  8
0
  5
1A35
 10
117.626
 20
129.197
 30
0.00000
  70
    32
  0
VERTEX
  8
0
  5
1A36
 10
117.625
 20
129.222
 30
0.00000
  70
    32
  0
VERTEX
  8
0
  5
1A37
 10
117.623
 20
129.246
 30
0.00000
  70
    32
  0
VERTEX
  8
0
  5
1A38
 10
117.622
 20
129.271
 30
0.00000
  70
    32
  0
VERTEX
  8
0
  5
1A39
 10
117.620
 20
129.296
 30
0.00000
  70
    32
  0
VERTEX
  8
0
  5
1A3A
 10
117.619
 20
129.321
 30
0.00000
  70
    32
  0
VERTEX
  8
0
  5
1A3B
 10
117.618
 20
129.346
 30
0.00000
  70
    32
  0
VERTEX
  8
0
  5
1A3C
 10
117.616
 20
129.370
 30
0.00000
  70
    32
  0
VERTEX
  8
0
  5
1A3D
 10
117.615
 20
129.395
 30
0.00000
  70
    32
  0
VERTEX
  8
0
  5
1A3E
 10
117.613
 20
129.420
 30
0.00000
  70
    32
  0
VERTEX
  8
0
  5
1A3F
 10
117.612
 20
129.445
 30
0.00000
  70
    32
  0
VERTEX
  8
0
  5
1A40
 10
117.611
 20
129.470
 30
0.00000
  70
    32
  0
VERTEX
  8
0
  5
1A41
 10
117.609
 20
129.495
 30
0.00000
  70
    32
  0
VERTEX
  8
0
  5
1A42
 10
117.608
 20
129.520
 30
0.00000
  70
    32
  0
VERTEX
  8
0
  5
1A43
 10
117.606
 20
129.545
 30
0.00000
  70
    32
  0
VERTEX
  8
0
  5
1A44
 10
117.605
 20
129.569
 30
0.00000
  70
    32
  0
VERTEX
  8
0
  5
1A45
 10
117.604
 20
129.594
 30
0.00000
  70
    32
  0
VERTEX
  8
0
  5
1A46
 10
117.602
 20
129.619
 30
0.00000
  70
    32
  0
VERTEX
  8
0
  5
1A47
 10
117.601
 20
129.644
 30
0.00000
  70
    32
  0
VERTEX
  8
0
  5
1A48
 10
117.599
 20
129.669
 30
0.00000
  70
    32
  0
VERTEX
  8
0
  5
1A49
 10
117.598
 20
129.694
 30
0.00000
  70
    32
  0
VERTEX
  8
0
  5
1A4A
 10
117.596
 20
129.719
 30
0.00000
  70
    32
  0
VERTEX
  8
0
  5
1A4B
 10
117.595
 20
129.744
 30
0.00000
  70
    32
  0
VERTEX
  8
0
  5
1A4C
 10
117.594
 20
129.769
 30
0.00000
  70
    32
  0
VERTEX
  8
0
  5
1A4D
 10
117.592
 20
129.794
 30
0.00000
  70
    32
  0
VERTEX
  8
0
  5
1A4E
 10
117.591
 20
129.820
 30
0.00000
  70
    32
  0
VERTEX
  8
0
  5
1A4F
 10
117.589
 20
129.845
 30
0.00000
  70
    32
  0
VERTEX
  8
0
  5
1A50
 10
117.588
 20
129.870
 30
0.00000
  70
    32
  0
VERTEX
  8
0
  5
1A51
 10
117.586
 20
129.895
 30
0.00000
  70
    32
  0
VERTEX
  8
0
  5
1A52
 10
117.585
 20
129.920
 30
0.00000
  70
    32
  0
VERTEX
  8
0
  5
1A53
 10
117.583
 20
129.945
 30
0.00000
  70
    32
  0
VERTEX
  8
0
  5
1A54
 10
117.582
 20
129.970
 30
0.00000
  70
    32
  0
VERTEX
  8
0
  5
1A55
 10
117.581
 20
129.995
 30
0.00000
  70
    32
  0
VERTEX
  8
0
  5
1A56
 10
117.579
 20
130.020
 30
0.00000
  70
    32
  0
VERTEX
  8
0
  5
1A57
 10
117.578
 20
130.046
 30
0.00000
  70
    32
  0
VERTEX
  8
0
  5
1A58
 10
117.576
 20
130.071
 30
0.00000
  70
    32
  0
VERTEX
  8
0
  5
1A59
 10
117.575
 20
130.096
 30
0.00000
  70
    32
  0
VERTEX
  8
0
  5
1A5A
 10
117.573
 20
130.121
 30
0.00000
  70
    32
  0
VERTEX
  8
0
  5
1A5B
 10
117.572
 20
130.146
 30
0.00000
  70
    32
  0
VERTEX
  8
0
  5
1A5C
 10
117.570
 20
130.172
 30
0.00000
  70
    32
  0
VERTEX
  8
0
  5
1A5D
 10
117.569
 20
130.197
 30
0.00000
  70
    32
  0
VERTEX
  8
0
  5
1A5E
 10
117.567
 20
130.222
 30
0.00000
  70
    32
  0
VERTEX
  8
0
  5
1A5F
 10
117.566
 20
130.247
 30
0.00000
  70
    32
  0
VERTEX
  8
0
  5
1A60
 10
117.564
 20
130.273
 30
0.00000
  70
    32
  0
VERTEX
  8
0
  5
1A61
 10
117.563
 20
130.298
 30
0.00000
  70
    32
  0
VERTEX
  8
0
  5
1A62
 10
117.561
 20
130.323
 30
0.00000
  70
    32
  0
VERTEX
  8
0
  5
1A63
 10
117.560
 20
130.349
 30
0.00000
  70
    32
  0
VERTEX
  8
0
  5
1A64
 10
117.558
 20
130.374
 30
0.00000
  70
    32
  0
VERTEX
  8
0
  5
1A65
 10
117.557
 20
130.399
 30
0.00000
  70
    32
  0
VERTEX
  8
0
  5
1A66
 10
117.555
 20
130.425
 30
0.00000
  70
    32
  0
VERTEX
  8
0
  5
1A67
 10
117.554
 20
130.450
 30
0.00000
  70
    32
  0
VERTEX
  8
0
  5
1A68
 10
117.552
 20
130.475
 30
0.00000
  70
    32
  0
VERTEX
  8
0
  5
1A69
 10
117.551
 20
130.501
 30
0.00000
  70
    32
  0
VERTEX
  8
0
  5
1A6A
 10
117.549
 20
130.526
 30
0.00000
  70
    32
  0
VERTEX
  8
0
  5
1A6B
 10
117.548
 20
130.552
 30
0.00000
  70
    32
  0
VERTEX
  8
0
  5
1A6C
 10
117.546
 20
130.577
 30
0.00000
  70
    32
  0
VERTEX
  8
0
  5
1A6D
 10
117.545
 20
130.602
 30
0.00000
  70
    32
  0
VERTEX
  8
0
  5
1A6E
 10
117.543
 20
130.628
 30
0.00000
  70
    32
  0
VERTEX
  8
0
  5
1A6F
 10
117.542
 20
130.653
 30
0.00000
  70
    32
  0
VERTEX
  8
0
  5
1A70
 10
117.540
 20
130.679
 30
0.00000
  70
    32
  0
VERTEX
  8
0
  5
1A71
 10
117.539
 20
130.704
 30
0.00000
  70
    32
  0
VERTEX
  8
0
  5
1A72
 10
117.537
 20
130.730
 30
0.00000
  70
    32
  0
VERTEX
  8
0
  5
1A73
 10
117.536
 20
130.755
 30
0.00000
  70
    32
  0
VERTEX
  8
0
  5
1A74
 10
117.534
 20
130.781
 30
0.00000
  70
    32
  0
VERTEX
  8
0
  5
1A75
 10
117.533
 20
130.806
 30
0.00000
  70
    32
  0
VERTEX
  8
0
  5
1A76
 10
117.531
 20
130.832
 30
0.00000
  70
    32
  0
VERTEX
  8
0
  5
1A77
 10
117.530
 20
130.857
 30
0.00000
  70
    32
  0
VERTEX
  8
0
  5
1A78
 10
117.528
 20
130.883
 30
0.00000
  70
    32
  0
VERTEX
  8
0
  5
1A79
 10
117.527
 20
130.909
 30
0.00000
  70
    32
  0
VERTEX
  8
0
  5
1A7A
 10
117.525
 20
130.934
 30
0.00000
  70
    32
  0
VERTEX
  8
0
  5
1A7B
 10
117.524
 20
130.960
 30
0.00000
  70
    32
  0
VERTEX
  8
0
  5
1A7C
 10
117.522
 20
130.985
 30
0.00000
  70
    32
  0
VERTEX
  8
0
  5
1A7D
 10
117.521
 20
131.011
 30
0.00000
  70
    32
  0
VERTEX
  8
0
  5
1A7E
 10
117.519
 20
131.037
 30
0.00000
  70
    32
  0
VERTEX
  8
0
  5
1A7F
 10
117.517
 20
131.062
 30
0.00000
  70
    32
  0
VERTEX
  8
0
  5
1A80
 10
117.516
 20
131.088
 30
0.00000
  70
    32
  0
VERTEX
  8
0
  5
1A81
 10
117.514
 20
131.113
 30
0.00000
  70
    32
  0
VERTEX
  8
0
  5
1A82
 10
117.513
 20
131.139
 30
0.00000
  70
    32
  0
VERTEX
  8
0
  5
1A83
 10
117.511
 20
131.165
 30
0.00000
  70
    32
  0
VERTEX
  8
0
  5
1A84
 10
117.510
 20
131.190
 30
0.00000
  70
    32
  0
VERTEX
  8
0
  5
1A85
 10
117.508
 20
131.216
 30
0.00000
  70
    32
  0
VERTEX
  8
0
  5
1A86
 10
117.507
 20
131.242
 30
0.00000
  70
    32
  0
VERTEX
  8
0
  5
1A87
 10
117.505
 20
131.268
 30
0.00000
  70
    32
  0
VERTEX
  8
0
  5
1A88
 10
117.503
 20
131.293
 30
0.00000
  70
    32
  0
VERTEX
  8
0
  5
1A89
 10
117.502
 20
131.319
 30
0.00000
  70
    32
  0
VERTEX
  8
0
  5
1A8A
 10
117.500
 20
131.345
 30
0.00000
  70
    32
  0
VERTEX
  8
0
  5
1A8B
 10
117.499
 20
131.371
 30
0.00000
  70
    32
  0
VERTEX
  8
0
  5
1A8C
 10
117.497
 20
131.396
 30
0.00000
  70
    32
  0
VERTEX
  8
0
  5
1A8D
 10
117.496
 20
131.422
 30
0.00000
  70
    32
  0
VERTEX
  8
0
  5
1A8E
 10
117.494
 20
131.448
 30
0.00000
  70
    32
  0
VERTEX
  8
0
  5
1A8F
 10
117.492
 20
131.474
 30
0.00000
  70
    32
  0
VERTEX
  8
0
  5
1A90
 10
117.491
 20
131.499
 30
0.00000
  70
    32
  0
VERTEX
  8
0
  5
1A91
 10
117.489
 20
131.525
 30
0.00000
  70
    32
  0
VERTEX
  8
0
  5
1A92
 10
117.488
 20
131.551
 30
0.00000
  70
    32
  0
VERTEX
  8
0
  5
1A93
 10
117.486
 20
131.577
 30
0.00000
  70
    32
  0
VERTEX
  8
0
  5
1A94
 10
117.484
 20
131.603
 30
0.00000
  70
    32
  0
VERTEX
  8
0
  5
1A95
 10
117.483
 20
131.629
 30
0.00000
  70
    32
  0
VERTEX
  8
0
  5
1A96
 10
117.481
 20
131.655
 30
0.00000
  70
    32
  0
VERTEX
  8
0
  5
1A97
 10
117.480
 20
131.680
 30
0.00000
  70
    32
  0
VERTEX
  8
0
  5
1A98
 10
117.478
 20
131.706
 30
0.00000
  70
    32
  0
VERTEX
  8
0
  5
1A99
 10
117.476
 20
131.732
 30
0.00000
  70
    32
  0
VERTEX
  8
0
  5
1A9A
 10
117.475
 20
131.758
 30
0.00000
  70
    32
  0
VERTEX
  8
0
  5
1A9B
 10
117.473
 20
131.784
 30
0.00000
  70
    32
  0
VERTEX
  8
0
  5
1A9C
 10
117.472
 20
131.810
 30
0.00000
  70
    32
  0
VERTEX
  8
0
  5
1A9D
 10
117.470
 20
131.836
 30
0.00000
  70
    32
  0
VERTEX
  8
0
  5
1A9E
 10
117.468
 20
131.862
 30
0.00000
  70
    32
  0
VERTEX
  8
0
  5
1A9F
 10
117.467
 20
131.888
 30
0.00000
  70
    32
  0
VERTEX
  8
0
  5
1AA0
 10
117.465
 20
131.914
 30
0.00000
  70
    32
  0
VERTEX
  8
0
  5
1AA1
 10
117.464
 20
131.940
 30
0.00000
  70
    32
  0
VERTEX
  8
0
  5
1AA2
 10
117.462
 20
131.966
 30
0.00000
  70
    32
  0
VERTEX
  8
0
  5
1AA3
 10
117.460
 20
131.992
 30
0.00000
  70
    32
  0
VERTEX
  8
0
  5
1AA4
 10
117.459
 20
132.018
 30
0.00000
  70
    32
  0
VERTEX
  8
0
  5
1AA5
 10
117.457
 20
132.044
 30
0.00000
  70
    32
  0
VERTEX
  8
0
  5
1AA6
 10
117.455
 20
132.070
 30
0.00000
  70
    32
  0
VERTEX
  8
0
  5
1AA7
 10
117.454
 20
132.096
 30
0.00000
  70
    32
  0
VERTEX
  8
0
  5
1AA8
 10
117.452
 20
132.122
 30
0.00000
  70
    32
  0
VERTEX
  8
0
  5
1AA9
 10
117.451
 20
132.148
 30
0.00000
  70
    32
  0
VERTEX
  8
0
  5
1AAA
 10
117.449
 20
132.174
 30
0.00000
  70
    32
  0
VERTEX
  8
0
  5
1AAB
 10
117.447
 20
132.200
 30
0.00000
  70
    32
  0
SEQEND
  8
0
  5
1AAC
  0
POLYLINE
  5
ECE
  8
0
 10
114.5527582066977175
 20
132.199999999994958
 30
0.0
 66
     1
 70
     8
  0
VERTEX
  8
0
  5
1AAD
 10
114.553
 20
132.200
 30
0.00000
  70
    32
  0
VERTEX
  8
0
  5
1AAE
 10
114.551
 20
132.174
 30
0.00000
  70
    32
  0
VERTEX
  8
0
  5
1AAF
 10
114.549
 20
132.148
 30
0.00000
  70
    32
  0
VERTEX
  8
0
  5
1AB0
 10
114.548
 20
132.122
 30
0.00000
  70
    32
  0
VERTEX
  8
0
  5
1AB1
 10
114.546
 20
132.096
 30
0.00000
  70
    32
  0
VERTEX
  8
0
  5
1AB2
 10
114.545
 20
132.070
 30
0.00000
  70
    32
  0
VERTEX
  8
0
  5
1AB3
 10
114.543
 20
132.044
 30
0.00000
  70
    32
  0
VERTEX
  8
0
  5
1AB4
 10
114.541
 20
132.018
 30
0.00000
  70
    32
  0
VERTEX
  8
0
  5
1AB5
 10
114.540
 20
131.992
 30
0.00000
  70
    32
  0
VERTEX
  8
0
  5
1AB6
 10
114.538
 20
131.966
 30
0.00000
  70
    32
  0
VERTEX
  8
0
  5
1AB7
 10
114.536
 20
131.940
 30
0.00000
  70
    32
  0
VERTEX
  8
0
  5
1AB8
 10
114.535
 20
131.914
 30
0.00000
  70
    32
  0
VERTEX
  8
0
  5
1AB9
 10
114.533
 20
131.888
 30
0.00000
  70
    32
  0
VERTEX
  8
0
  5
1ABA
 10
114.532
 20
131.862
 30
0.00000
  70
    32
  0
VERTEX
  8
0
  5
1ABB
 10
114.530
 20
131.836
 30
0.00000
  70
    32
  0
VERTEX
  8
0
  5
1ABC
 10
114.528
 20
131.810
 30
0.00000
  70
    32
  0
VERTEX
  8
0
  5
1ABD
 10
114.527
 20
131.784
 30
0.00000
  70
    32
  0
VERTEX
  8
0
  5
1ABE
 10
114.525
 20
131.758
 30
0.00000
  70
    32
  0
VERTEX
  8
0
  5
1ABF
 10
114.524
 20
131.732
 30
0.00000
  70
    32
  0
VERTEX
  8
0
  5
1AC0
 10
114.522
 20
131.706
 30
0.00000
  70
    32
  0
VERTEX
  8
0
  5
1AC1
 10
114.520
 20
131.680
 30
0.00000
  70
    32
  0
VERTEX
  8
0
  5
1AC2
 10
114.519
 20
131.655
 30
0.00000
  70
    32
  0
VERTEX
  8
0
  5
1AC3
 10
114.517
 20
131.629
 30
0.00000
  70
    32
  0
VERTEX
  8
0
  5
1AC4
 10
114.516
 20
131.603
 30
0.00000
  70
    32
  0
VERTEX
  8
0
  5
1AC5
 10
114.514
 20
131.577
 30
0.00000
  70
    32
  0
VERTEX
  8
0
  5
1AC6
 10
114.512
 20
131.551
 30
0.00000
  70
    32
  0
VERTEX
  8
0
  5
1AC7
 10
114.511
 20
131.525
 30
0.00000
  70
    32
  0
VERTEX
  8
0
  5
1AC8
 10
114.509
 20
131.499
 30
0.00000
  70
    32
  0
VERTEX
  8
0
  5
1AC9
 10
114.508
 20
131.474
 30
0.00000
  70
    32
  0
VERTEX
  8
0
  5
1ACA
 10
114.506
 20
131.448
 30
0.00000
  70
    32
  0
VERTEX
  8
0
  5
1ACB
 10
114.504
 20
131.422
 30
0.00000
  70
    32
  0
VERTEX
  8
0
  5
1ACC
 10
114.503
 20
131.396
 30
0.00000
  70
    32
  0
VERTEX
  8
0
  5
1ACD
 10
114.501
 20
131.371
 30
0.00000
  70
    32
  0
VERTEX
  8
0
  5
1ACE
 10
114.500
 20
131.345
 30
0.00000
  70
    32
  0
VERTEX
  8
0
  5
1ACF
 10
114.498
 20
131.319
 30
0.00000
  70
    32
  0
VERTEX
  8
0
  5
1AD0
 10
114.497
 20
131.293
 30
0.00000
  70
    32
  0
VERTEX
  8
0
  5
1AD1
 10
114.495
 20
131.268
 30
0.00000
  70
    32
  0
VERTEX
  8
0
  5
1AD2
 10
114.493
 20
131.242
 30
0.00000
  70
    32
  0
VERTEX
  8
0
  5
1AD3
 10
114.492
 20
131.216
 30
0.00000
  70
    32
  0
VERTEX
  8
0
  5
1AD4
 10
114.490
 20
131.190
 30
0.00000
  70
    32
  0
VERTEX
  8
0
  5
1AD5
 10
114.489
 20
131.165
 30
0.00000
  70
    32
  0
VERTEX
  8
0
  5
1AD6
 10
114.487
 20
131.139
 30
0.00000
  70
    32
  0
VERTEX
  8
0
  5
1AD7
 10
114.486
 20
131.113
 30
0.00000
  70
    32
  0
VERTEX
  8
0
  5
1AD8
 10
114.484
 20
131.088
 30
0.00000
  70
    32
  0
VERTEX
  8
0
  5
1AD9
 10
114.483
 20
131.062
 30
0.00000
  70
    32
  0
VERTEX
  8
0
  5
1ADA
 10
114.481
 20
131.037
 30
0.00000
  70
    32
  0
VERTEX
  8
0
  5
1ADB
 10
114.479
 20
131.011
 30
0.00000
  70
    32
  0
VERTEX
  8
0
  5
1ADC
 10
114.478
 20
130.985
 30
0.00000
  70
    32
  0
VERTEX
  8
0
  5
1ADD
 10
114.476
 20
130.960
 30
0.00000
  70
    32
  0
VERTEX
  8
0
  5
1ADE
 10
114.475
 20
130.934
 30
0.00000
  70
    32
  0
VERTEX
  8
0
  5
1ADF
 10
114.473
 20
130.909
 30
0.00000
  70
    32
  0
VERTEX
  8
0
  5
1AE0
 10
114.472
 20
130.883
 30
0.00000
  70
    32
  0
VERTEX
  8
0
  5
1AE1
 10
114.470
 20
130.857
 30
0.00000
  70
    32
  0
VERTEX
  8
0
  5
1AE2
 10
114.469
 20
130.832
 30
0.00000
  70
    32
  0
VERTEX
  8
0
  5
1AE3
 10
114.467
 20
130.806
 30
0.00000
  70
    32
  0
VERTEX
  8
0
  5
1AE4
 10
114.466
 20
130.781
 30
0.00000
  70
    32
  0
VERTEX
  8
0
  5
1AE5
 10
114.464
 20
130.755
 30
0.00000
  70
    32
  0
VERTEX
  8
0
  5
1AE6
 10
114.463
 20
130.730
 30
0.00000
  70
    32
  0
VERTEX
  8
0
  5
1AE7
 10
114.461
 20
130.704
 30
0.00000
  70
    32
  0
VERTEX
  8
0
  5
1AE8
 10
114.460
 20
130.679
 30
0.00000
  70
    32
  0
VERTEX
  8
0
  5
1AE9
 10
114.458
 20
130.653
 30
0.00000
  70
    32
  0
VERTEX
  8
0
  5
1AEA
 10
114.457
 20
130.628
 30
0.00000
  70
    32
  0
VERTEX
  8
0
  5
1AEB
 10
114.455
 20
130.602
 30
0.00000
  70
    32
  0
VERTEX
  8
0
  5
1AEC
 10
114.454
 20
130.577
 30
0.00000
  70
    32
  0
VERTEX
  8
0
  5
1AED
 10
114.452
 20
130.552
 30
0.00000
  70
    32
  0
VERTEX
  8
0
  5
1AEE
 10
114.451
 20
130.526
 30
0.00000
  70
    32
  0
VERTEX
  8
0
  5
1AEF
 10
114.449
 20
130.501
 30
0.00000
  70
    32
  0
VERTEX
  8
0
  5
1AF0
 10
114.448
 20
130.475
 30
0.00000
  70
    32
  0
VERTEX
  8
0
  5
1AF1
 10
114.446
 20
130.450
 30
0.00000
  70
    32
  0
VERTEX
  8
0
  5
1AF2
 10
114.445
 20
130.425
 30
0.00000
  70
    32
  0
VERTEX
  8
0
  5
1AF3
 10
114.443
 20
130.399
 30
0.00000
  70
    32
  0
VERTEX
  8
0
  5
1AF4
 10
114.442
 20
130.374
 30
0.00000
  70
    32
  0
VERTEX
  8
0
  5
1AF5
 10
114.440
 20
130.349
 30
0.00000
  70
    32
  0
VERTEX
  8
0
  5
1AF6
 10
114.439
 20
130.323
 30
0.00000
  70
    32
  0
VERTEX
  8
0
  5
1AF7
 10
114.437
 20
130.298
 30
0.00000
  70
    32
  0
VERTEX
  8
0
  5
1AF8
 10
114.436
 20
130.273
 30
0.00000
  70
    32
  0
VERTEX
  8
0
  5
1AF9
 10
114.434
 20
130.247
 30
0.00000
  70
    32
  0
VERTEX
  8
0
  5
1AFA
 10
114.433
 20
130.222
 30
0.00000
  70
    32
  0
VERTEX
  8
0
  5
1AFB
 10
114.431
 20
130.197
 30
0.00000
  70
    32
  0
VERTEX
  8
0
  5
1AFC
 10
114.430
 20
130.172
 30
0.00000
  70
    32
  0
VERTEX
  8
0
  5
1AFD
 10
114.428
 20
130.146
 30
0.00000
  70
    32
  0
VERTEX
  8
0
  5
1AFE
 10
114.427
 20
130.121
 30
0.00000
  70
    32
  0
VERTEX
  8
0
  5
1AFF
 10
114.425
 20
130.096
 30
0.00000
  70
    32
  0
VERTEX
  8
0
  5
1B00
 10
114.424
 20
130.071
 30
0.00000
  70
    32
  0
VERTEX
  8
0
  5
1B01
 10
114.422
 20
130.046
 30
0.00000
  70
    32
  0
VERTEX
  8
0
  5
1B02
 10
114.421
 20
130.020
 30
0.00000
  70
    32
  0
VERTEX
  8
0
  5
1B03
 10
114.419
 20
129.995
 30
0.00000
  70
    32
  0
VERTEX
  8
0
  5
1B04
 10
114.418
 20
129.970
 30
0.00000
  70
    32
  0
VERTEX
  8
0
  5
1B05
 10
114.417
 20
129.945
 30
0.00000
  70
    32
  0
VERTEX
  8
0
  5
1B06
 10
114.415
 20
129.920
 30
0.00000
  70
    32
  0
VERTEX
  8
0
  5
1B07
 10
114.414
 20
129.895
 30
0.00000
  70
    32
  0
VERTEX
  8
0
  5
1B08
 10
114.412
 20
129.870
 30
0.00000
  70
    32
  0
VERTEX
  8
0
  5
1B09
 10
114.411
 20
129.845
 30
0.00000
  70
    32
  0
VERTEX
  8
0
  5
1B0A
 10
114.409
 20
129.820
 30
0.00000
  70
    32
  0
VERTEX
  8
0
  5
1B0B
 10
114.408
 20
129.794
 30
0.00000
  70
    32
  0
VERTEX
  8
0
  5
1B0C
 10
114.406
 20
129.769
 30
0.00000
  70
    32
  0
VERTEX
  8
0
  5
1B0D
 10
114.405
 20
129.744
 30
0.00000
  70
    32
  0
VERTEX
  8
0
  5
1B0E
 10
114.404
 20
129.719
 30
0.00000
  70
    32
  0
VERTEX
  8
0
  5
1B0F
 10
114.402
 20
129.694
 30
0.00000
  70
    32
  0
VERTEX
  8
0
  5
1B10
 10
114.401
 20
129.669
 30
0.00000
  70
    32
  0
VERTEX
  8
0
  5
1B11
 10
114.399
 20
129.644
 30
0.00000
  70
    32
  0
VERTEX
  8
0
  5
1B12
 10
114.398
 20
129.619
 30
0.00000
  70
    32
  0
VERTEX
  8
0
  5
1B13
 10
114.396
 20
129.594
 30
0.00000
  70
    32
  0
VERTEX
  8
0
  5
1B14
 10
114.395
 20
129.569
 30
0.00000
  70
    32
  0
VERTEX
  8
0
  5
1B15
 10
114.394
 20
129.545
 30
0.00000
  70
    32
  0
VERTEX
  8
0
  5
1B16
 10
114.392
 20
129.520
 30
0.00000
  70
    32
  0
VERTEX
  8
0
  5
1B17
 10
114.391
 20
129.495
 30
0.00000
  70
    32
  0
VERTEX
  8
0
  5
1B18
 10
114.389
 20
129.470
 30
0.00000
  70
    32
  0
VERTEX
  8
0
  5
1B19
 10
114.388
 20
129.445
 30
0.00000
  70
    32
  0
VERTEX
  8
0
  5
1B1A
 10
114.387
 20
129.420
 30
0.00000
  70
    32
  0
VERTEX
  8
0
  5
1B1B
 10
114.385
 20
129.395
 30
0.00000
  70
    32
  0
VERTEX
  8
0
  5
1B1C
 10
114.384
 20
129.370
 30
0.00000
  70
    32
  0
VERTEX
  8
0
  5
1B1D
 10
114.382
 20
129.346
 30
0.00000
  70
    32
  0
VERTEX
  8
0
  5
1B1E
 10
114.381
 20
129.321
 30
0.00000
  70
    32
  0
VERTEX
  8
0
  5
1B1F
 10
114.380
 20
129.296
 30
0.00000
  70
    32
  0
VERTEX
  8
0
  5
1B20
 10
114.378
 20
129.271
 30
0.00000
  70
    32
  0
VERTEX
  8
0
  5
1B21
 10
114.377
 20
129.246
 30
0.00000
  70
    32
  0
VERTEX
  8
0
  5
1B22
 10
114.375
 20
129.222
 30
0.00000
  70
    32
  0
VERTEX
  8
0
  5
1B23
 10
114.374
 20
129.197
 30
0.00000
  70
    32
  0
VERTEX
  8
0
  5
1B24
 10
114.373
 20
129.172
 30
0.00000
  70
    32
  0
VERTEX
  8
0
  5
1B25
 10
114.371
 20
129.147
 30
0.00000
  70
    32
  0
VERTEX
  8
0
  5
1B26
 10
114.370
 20
129.123
 30
0.00000
  70
    32
  0
VERTEX
  8
0
  5
1B27
 10
114.368
 20
129.098
 30
0.00000
  70
    32
  0
VERTEX
  8
0
  5
1B28
 10
114.367
 20
129.073
 30
0.00000
  70
    32
  0
VERTEX
  8
0
  5
1B29
 10
114.366
 20
129.049
 30
0.00000
  70
    32
  0
VERTEX
  8
0
  5
1B2A
 10
114.364
 20
129.024
 30
0.00000
  70
    32
  0
VERTEX
  8
0
  5
1B2B
 10
114.363
 20
128.999
 30
0.00000
  70
    32
  0
VERTEX
  8
0
  5
1B2C
 10
114.362
 20
128.975
 30
0.00000
  70
    32
  0
VERTEX
  8
0
  5
1B2D
 10
114.360
 20
128.950
 30
0.00000
  70
    32
  0
SEQEND
  8
0
  5
1B2E
  0
LINE
  5
ECF
  8
0
 10
131.2223611165372859
 20
56.8999999999998707
 30
0.0
 11
131.2223611165372859
 21
88.7000000000000455
 31
0.0
  0
LINE
  5
ED0
  8
0
 10
68.7776388834627141
 20
88.7000000000000455
 30
0.0
 11
131.2223611165372859
 21
88.7000000000000455
 31
0.0
  0
LINE
  5
ED1
  8
0
 10
68.7776388834627141
 20
88.7000000000000455
 30
0.0
 11
68.7776388834627141
 21
56.8999999999998707
 31
0.0
  0
LINE
  5
ED2
  8
0
 10
48.972361116537293
 20
56.8999999999998707
 30
0.0
 11
48.972361116537293
 21
88.7000000000000455
 31
0.0
  0
LINE
  5
ED3
  8
0
 10
48.972361116537293
 20
88.7000000000000455
 30
0.0
 11
20.75
 21
88.7000000000000455
 31
0.0
  0
LINE
  5
ED4
  8
0
 10
179.25
 20
88.7000000000000455
 30
0.0
 11
151.0276388834635952
 21
88.7000000000000455
 31
0.0
  0
LINE
  5
ED5
  8
0
 10
151.0276388834635952
 20
88.7000000000000455
 30
0.0
 11
151.0276388834635952
 21
56.8999999999998707
 31
0.0
  0
LINE
  5
ED6
  8
0
 10
75.0
 20
56.8999999999998707
 30
0.0
 11
75.0
 21
88.7000000000000455
 31
0.0
  0
LINE
  5
ED7
  8
0
 10
157.25
 20
56.8999999999998707
 30
0.0
 11
157.25
 21
88.7000000000000455
 31
0.0
  0
LINE
  5
ED8
  8
0
 10
157.25
 20
56.8999999999998707
 30
0.0
 11
125.0000000000008953
 21
56.8999999999998707
 31
0.0
  0
LINE
  5
ED9
  8
0
 10
42.75
 20
56.8999999999998707
 30
0.0
 11
75.0
 21
56.8999999999998707
 31
0.0
  0
LINE
  5
EDA
  8
0
 10
42.75
 20
88.7000000000000455
 30
0.0
 11
42.75
 21
56.8999999999998707
 31
0.0
  0
LINE
  5
EDB
  8
0
 10
125.0000000000008953
 20
88.7000000000000455
 30
0.0
 11
125.0000000000008953
 21
56.8999999999998707
 31
0.0
  0
LINE
  5
EDC
  8
0
 10
252.25
 20
128.6999999999999886
 30
0.0
 11
252.2500000000009095
 21
95.0
 31
0.0
  0
LINE
  5
EDD
  8
0
 10
252.2500000000009095
 20
95.0
 30
0.0
 11
245.75
 21
95.0
 31
0.0
  0
LINE
  5
EDE
  8
0
 10
225.75
 20
88.7000000000000455
 30
0.0
 11
245.7500000000009095
 21
88.7000000000000455
 31
0.0
  0
LINE
  5
EDF
  8
0
 10
219.25
 20
95.0
 30
0.0
 11
225.75
 21
95.0
 31
0.0
  0
LINE
  5
EE0
  8
0
 10
219.25
 20
128.6999999999999886
 30
0.0
 11
219.25
 21
95.0
 31
0.0
  0
LINE
  5
EE1
  8
0
 10
223.25
 20
128.6999999999999886
 30
0.0
 11
219.25
 21
128.6999999999999886
 31
0.0
  0
LINE
  5
EE2
  8
0
 10
223.25
 20
132.1999999999999886
 30
0.0
 11
223.25
 21
128.6999999999999886
 31
0.0
  0
LINE
  5
EE3
  8
0
 10
248.25
 20
132.1999999999999886
 30
0.0
 11
223.25
 21
132.1999999999999886
 31
0.0
  0
LINE
  5
EE4
  8
0
 10
248.25
 20
128.6999999999999886
 30
0.0
 11
248.25
 21
132.1999999999999886
 31
0.0
  0
CIRCLE
  5
EE5
  8
3
 10
235.75
 20
110.4500000000000028
 30
0.0
 40
4.0
  0
LINE
  5
EE6
  8
0
 10
248.25
 20
128.6999999999999886
 30
0.0
 11
252.25
 21
128.6999999999999886
 31
0.0
  0
LINE
  5
EE7
  8
0
 10
245.7500000000009095
 20
56.8999999999998707
 30
0.0
 11
245.75
 21
95.0
 31
0.0
  0
LINE
  5
EE8
  8
0
 10
245.7500000000009095
 20
56.8999999999998707
 30
0.0
 11
225.75
 21
56.8999999999998707
 31
0.0
  0
LINE
  5
EE9
  8
0
 10
225.75
 20
95.0
 30
0.0
 11
225.75
 21
56.8999999999998707
 31
0.0
  0
CIRCLE
  5
EEA
  8
0
 10
56.0000000000009095
 20
188.6999999999999886
 30
0.0
 40
8.0
  0
POLYLINE
  5
EEB
  8
0
 66
     1
 10
0.0
 20
0.0
 30
0.0
 70
     1
  0
VERTEX
  5
11FD
  8
0
 10
53.6905989232427601
 20
192.6999999999999886
 30
0.0
  0
VERTEX
  5
11FE
  8
0
 10
51.3811978464837011
 20
188.6999999999999886
 30
0.0
  0
VERTEX
  5
11FF
  8
0
 10
53.6905989232427601
 20
184.6999999999999886
 30
0.0
  0
VERTEX
  5
1200
  8
0
 10
58.3094010767590589
 20
184.6999999999999886
 30
0.0
  0
VERTEX
  5
1201
  8
0
 10
60.6188021535181178
 20
188.6999999999999886
 30
0.0
  0
VERTEX
  5
1202
  8
0
 10
58.3094010767590589
 20
192.6999999999999886
 30
0.0
  0
SEQEND
  5
1203
  8
0
  0
CIRCLE
  5
EEC
  8
0
 10
28.0
 20
179.44999999987769
 30
0.0
 40
1.2295
  0
LINE
  5
EED
  8
1
 10
32.5
 20
179.44999999987769
 30
0.0
 11
23.5
 21
179.44999999987769
 31
0.0
  0
LINE
  5
EEE
  8
1
 10
28.0
 20
174.949999999877889
 30
0.0
 11
28.0
 21
183.9499999998774911
 31
0.0
  0
LINE
  5
EEF
  8
1
 10
184.25
 20
188.7000000000005002
 30
0.0
 11
15.75
 21
188.6999999999999886
 31
0.0
  0
LINE
  5
EF0
  8
1
 10
100.0
 20
210.2000000000003013
 30
0.0
 11
100.0
 21
167.2000000000003013
 31
0.0
  0
LINE
  5
EF1
  8
1
 10
56.0000000000009095
 20
200.2000000000008981
 30
0.0
 11
56.0000000000009095
 21
177.1999999999991076
 31
0.0
  0
CIRCLE
  5
EF2
  8
0
 10
144.0
 20
188.7000000000001876
 30
0.0
 40
8.0
  0
POLYLINE
  5
EF3
  8
0
 66
     1
 10
0.0
 20
0.0
 30
0.0
 70
     1
  0
VERTEX
  5
1204
  8
0
 10
141.6905989232417937
 20
192.7000000000001876
 30
0.0
  0
VERTEX
  5
1205
  8
0
 10
139.3811978464827916
 20
188.7000000000001876
 30
0.0
  0
VERTEX
  5
1206
  8
0
 10
141.6905989232417937
 20
184.7000000000003013
 30
0.0
  0
VERTEX
  5
1207
  8
0
 10
146.3094010767580926
 20
184.7000000000003013
 30
0.0
  0
VERTEX
  5
1208
  8
0
 10
148.6188021535172084
 20
188.7000000000001876
 30
0.0
  0
VERTEX
  5
1209
  8
0
 10
146.3094010767580926
 20
192.7000000000001876
 30
0.0
  0
SEQEND
  5
120A
  8
0
  0
LINE
  5
EF4
  8
1
 10
144.0
 20
200.2000000000012108
 30
0.0
 11
144.0
 21
177.1999999999993065
 31
0.0
  0
CIRCLE
  5
EF5
  8
0
 10
44.0
 20
179.44999999987769
 30
0.0
 40
1.2295
  0
LINE
  5
EF6
  8
1
 10
48.5
 20
179.44999999987769
 30
0.0
 11
39.5
 21
179.44999999987769
 31
0.0
  0
LINE
  5
EF7
  8
1
 10
44.0
 20
174.949999999877889
 30
0.0
 11
44.0
 21
183.9499999998774911
 31
0.0
  0
CIRCLE
  5
EF8
  8
0
 10
68.0
 20
179.44999999987769
 30
0.0
 40
1.2295
  0
LINE
  5
EF9
  8
1
 10
72.5
 20
179.44999999987769
 30
0.0
 11
63.5
 21
179.44999999987769
 31
0.0
  0
LINE
  5
EFA
  8
1
 10
68.0
 20
174.949999999877889
 30
0.0
 11
68.0
 21
183.9499999998774911
 31
0.0
  0
CIRCLE
  5
EFB
  8
0
 10
84.0
 20
179.44999999987769
 30
0.0
 40
1.2295
  0
LINE
  5
EFC
  8
1
 10
88.4999999999999858
 20
179.44999999987769
 30
0.0
 11
79.5
 21
179.44999999987769
 31
0.0
  0
LINE
  5
EFD
  8
1
 10
84.0
 20
174.949999999877889
 30
0.0
 11
84.0
 21
183.9499999998774911
 31
0.0
  0
CIRCLE
  5
EFE
  8
0
 10
100.0
 20
179.4500000000005002
 30
0.0
 40
1.2295
  0
LINE
  5
EFF
  8
1
 10
104.5
 20
179.4500000000005002
 30
0.0
 11
95.5
 21
179.4500000000005002
 31
0.0
  0
CIRCLE
  5
F00
  8
0
 10
116.0
 20
179.449999999877889
 30
0.0
 40
1.2295
  0
LINE
  5
F01
  8
1
 10
120.5
 20
179.449999999877889
 30
0.0
 11
111.5
 21
179.449999999877889
 31
0.0
  0
LINE
  5
F02
  8
1
 10
116.0
 20
174.9499999998780879
 30
0.0
 11
116.0
 21
183.94999999987769
 31
0.0
  0
CIRCLE
  5
F03
  8
0
 10
132.0
 20
179.449999999877889
 30
0.0
 40
1.2295
  0
LINE
  5
F04
  8
1
 10
136.5
 20
179.449999999877889
 30
0.0
 11
127.5
 21
179.449999999877889
 31
0.0
  0
LINE
  5
F05
  8
1
 10
132.0
 20
174.9499999998780879
 30
0.0
 11
132.0
 21
183.94999999987769
 31
0.0
  0
CIRCLE
  5
F06
  8
0
 10
156.0
 20
179.4499999998782016
 30
0.0
 40
1.2295
  0
LINE
  5
F07
  8
1
 10
160.5
 20
179.4499999998782016
 30
0.0
 11
151.5
 21
179.4499999998782016
 31
0.0
  0
LINE
  5
F08
  8
1
 10
156.0
 20
174.9499999998784006
 30
0.0
 11
156.0
 21
183.949999999877889
 31
0.0
  0
CIRCLE
  5
F09
  8
0
 10
172.0
 20
179.4499999998782016
 30
0.0
 40
1.2295
  0
LINE
  5
F0A
  8
1
 10
176.5
 20
179.4499999998782016
 30
0.0
 11
167.5
 21
179.4499999998782016
 31
0.0
  0
LINE
  5
F0B
  8
1
 10
172.0
 20
174.9499999998784006
 30
0.0
 11
172.0
 21
183.949999999877889
 31
0.0
  0
CIRCLE
  5
F0C
  8
0
 10
172.0
 20
197.9500000000375906
 30
0.0
 40
1.2295
  0
LINE
  5
F0D
  8
1
 10
176.5
 20
197.9500000000375906
 30
0.0
 11
167.5
 21
197.9500000000375906
 31
0.0
  0
LINE
  5
F0E
  8
1
 10
172.0
 20
193.4500000000377895
 30
0.0
 11
172.0
 21
202.4500000000373063
 31
0.0
  0
CIRCLE
  5
F0F
  8
0
 10
156.0
 20
197.9500000000375906
 30
0.0
 40
1.2295
  0
LINE
  5
F10
  8
1
 10
160.5
 20
197.9500000000375906
 30
0.0
 11
151.5
 21
197.9500000000375906
 31
0.0
  0
LINE
  5
F11
  8
1
 10
156.0
 20
193.4500000000377895
 30
0.0
 11
156.0
 21
202.4500000000373063
 31
0.0
  0
CIRCLE
  5
F12
  8
0
 10
132.0
 20
197.9500000000373063
 30
0.0
 40
1.2295
  0
LINE
  5
F13
  8
1
 10
136.5
 20
197.9500000000373063
 30
0.0
 11
127.5
 21
197.9500000000373063
 31
0.0
  0
LINE
  5
F14
  8
1
 10
132.0
 20
193.4500000000375053
 30
0.0
 11
132.0
 21
202.4500000000371074
 31
0.0
  0
CIRCLE
  5
F15
  8
0
 10
116.0
 20
197.9500000000373063
 30
0.0
 40
1.2295
  0
LINE
  5
F16
  8
1
 10
120.5
 20
197.9500000000373063
 30
0.0
 11
111.5
 21
197.9500000000373063
 31
0.0
  0
LINE
  5
F17
  8
1
 10
116.0
 20
193.4500000000375053
 30
0.0
 11
116.0
 21
202.4500000000371074
 31
0.0
  0
CIRCLE
  5
F18
  8
0
 10
100.0
 20
197.9500000000003013
 30
0.0
 40
1.2295
  0
LINE
  5
F19
  8
1
 10
104.5
 20
197.9500000000003013
 30
0.0
 11
95.5
 21
197.9500000000003013
 31
0.0
  0
CIRCLE
  5
F1A
  8
0
 10
84.0
 20
197.9500000000371074
 30
0.0
 40
1.2295
  0
LINE
  5
F1B
  8
1
 10
88.4999999999999858
 20
197.9500000000371074
 30
0.0
 11
79.5
 21
197.9500000000371074
 31
0.0
  0
LINE
  5
F1C
  8
1
 10
84.0
 20
193.4500000000373063
 30
0.0
 11
84.0
 21
202.4500000000369084
 31
0.0
  0
CIRCLE
  5
F1D
  8
0
 10
68.0
 20
197.9500000000371074
 30
0.0
 40
1.2295
  0
LINE
  5
F1E
  8
1
 10
72.5
 20
197.9500000000371074
 30
0.0
 11
63.5
 21
197.9500000000371074
 31
0.0
  0
LINE
  5
F1F
  8
1
 10
68.0
 20
193.4500000000373063
 30
0.0
 11
68.0
 21
202.4500000000369084
 31
0.0
  0
CIRCLE
  5
F20
  8
0
 10
44.0
 20
197.9500000000371074
 30
0.0
 40
1.2295
  0
LINE
  5
F21
  8
1
 10
48.5
 20
197.9500000000371074
 30
0.0
 11
39.5
 21
197.9500000000371074
 31
0.0
  0
LINE
  5
F22
  8
1
 10
44.0
 20
193.4500000000373063
 30
0.0
 11
44.0
 21
202.4500000000369084
 31
0.0
  0
CIRCLE
  5
F23
  8
0
 10
28.0
 20
197.9500000000371074
 30
0.0
 40
1.2295
  0
LINE
  5
F24
  8
1
 10
32.5
 20
197.9500000000371074
 30
0.0
 11
23.5
 21
197.9500000000371074
 31
0.0
  0
LINE
  5
F25
  8
1
 10
28.0
 20
193.4500000000373063
 30
0.0
 11
28.0
 21
202.4500000000369084
 31
0.0
  0
LINE
  5
F26
  8
1
 10
56.0000000000009095
 20
135.1999999999999886
 30
0.0
 11
56.0000000000009095
 21
37.6999999999998181
 31
0.0
  0
LINE
  5
F2C
  8
1
 10
100.0
 20
137.1999999999999886
 30
0.0
 11
100.0
 21
83.7000000000000455
 31
0.0
  0
LINE
  5
F2D
  8
1
 10
143.9999999999990905
 20
135.1999999999999886
 30
0.0
 11
143.9999999999990905
 21
37.6999999999998181
 31
0.0
  0
LINE
  5
F33
  8
1
 10
235.7500000000009095
 20
137.1999999999999886
 30
0.0
 11
235.7500000000009095
 21
35.6999999999998181
 31
0.0
  0
CIRCLE
  5
F39
  8
0
 10
235.7500000000009095
 20
110.4500000000000028
 30
0.0
 40
3.3235000000000001
  0
LINE
  5
F3A
  8
1
 10
242.75
 20
110.4500000000000028
 30
0.0
 11
228.75
 21
110.4500000000000028
 31
0.0
  0
LINE
  5
1011
  8
0
 10
240.7500000000009095
 20
42.1999999999997328
 30
0.0
 11
230.7500000000009095
 21
42.1999999999998394
 31
0.0
  0
LINE
  5
1012
  8
0
 10
232.2500000000009095
 20
40.6999999999998465
 30
0.0
 11
230.7500000000009095
 21
42.1999999999998394
 31
0.0
  0
LINE
  5
1013
  8
0
 10
240.7500000000009095
 20
42.1999999999997328
 30
0.0
 11
239.2500000000009095
 21
40.6999999999997826
 31
0.0
  0
LINE
  5
1014
  8
0
 10
240.7500000000009095
 20
56.8999999999998707
 30
0.0
 11
240.7500000000009095
 21
42.1999999999997328
 31
0.0
  0
LINE
  5
1015
  8
3
 10
239.9380000000010114
 20
56.8999999999998707
 30
0.0
 11
239.9380000000010114
 21
41.3879999999998276
 31
0.0
  0
LINE
  5
1016
  8
3
 10
231.5620000000008076
 20
56.8999999999998707
 30
0.0
 11
231.5620000000008929
 21
41.3879999999998915
 31
0.0
  0
LINE
  5
1017
  8
0
 10
230.7500000000009095
 20
56.8999999999998707
 30
0.0
 11
230.7500000000009095
 21
42.1999999999998394
 31
0.0
  0
LINE
  5
1018
  8
0
 10
239.2500000000009095
 20
40.6999999999997826
 30
0.0
 11
232.2500000000009095
 21
40.6999999999998465
 31
0.0
  0
LINE
  5
1019
  8
0
 10
148.9999999999990905
 20
42.1999999999997328
 30
0.0
 11
138.9999999999990905
 21
42.1999999999998394
 31
0.0
  0
LINE
  5
101A
  8
0
 10
140.4999999999990905
 20
40.6999999999998465
 30
0.0
 11
138.9999999999990905
 21
42.1999999999998394
 31
0.0
  0
LINE
  5
101B
  8
0
 10
148.9999999999990905
 20
42.1999999999997328
 30
0.0
 11
147.4999999999990905
 21
40.6999999999997826
 31
0.0
  0
LINE
  5
101C
  8
0
 10
148.9999999999990905
 20
56.8999999999998707
 30
0.0
 11
148.9999999999990905
 21
42.1999999999997328
 31
0.0
  0
LINE
  5
101D
  8
3
 10
148.1879999999991924
 20
56.8999999999998707
 30
0.0
 11
148.1879999999991924
 21
41.3879999999998276
 31
0.0
  0
LINE
  5
101E
  8
3
 10
139.8119999999989886
 20
56.8999999999998707
 30
0.0
 11
139.8119999999989886
 21
41.3879999999998915
 31
0.0
  0
LINE
  5
101F
  8
0
 10
138.9999999999990905
 20
56.8999999999998707
 30
0.0
 11
138.9999999999990905
 21
42.1999999999998394
 31
0.0
  0
LINE
  5
1020
  8
0
 10
147.4999999999990905
 20
40.6999999999997826
 30
0.0
 11
140.4999999999990905
 21
40.6999999999998465
 31
0.0
  0
LINE
  5
1021
  8
0
 10
61.0000000000009095
 20
42.1999999999997328
 30
0.0
 11
51.0000000000009095
 21
42.1999999999998394
 31
0.0
  0
LINE
  5
1022
  8
0
 10
52.5000000000009095
 20
40.6999999999998465
 30
0.0
 11
51.0000000000009095
 21
42.1999999999998394
 31
0.0
  0
LINE
  5
1023
  8
0
 10
61.0000000000009095
 20
42.1999999999997328
 30
0.0
 11
59.5000000000009095
 21
40.6999999999997826
 31
0.0
  0
LINE
  5
1024
  8
0
 10
61.0000000000009308
 20
56.8999999999998707
 30
0.0
 11
61.0000000000009095
 21
42.1999999999997328
 31
0.0
  0
LINE
  5
1025
  8
3
 10
60.1880000000010114
 20
56.8999999999998707
 30
0.0
 11
60.1880000000010114
 21
41.3879999999998276
 31
0.0
  0
LINE
  5
1026
  8
3
 10
51.8120000000008289
 20
56.8999999999998707
 30
0.0
 11
51.8120000000008574
 21
41.3879999999998915
 31
0.0
  0
LINE
  5
1027
  8
0
 10
51.0000000000009095
 20
56.8999999999998707
 30
0.0
 11
51.0000000000009095
 21
42.1999999999998394
 31
0.0
  0
LINE
  5
1028
  8
0
 10
59.5000000000009095
 20
40.6999999999997826
 30
0.0
 11
52.5000000000009095
 21
40.6999999999998465
 31
0.0
  0
LINE
  5
110C
  8
0
 10
466.2500000000001137
 20
76.6000000000000654
 30
0.0
 11
453.2499999999998863
 21
76.6000000000000654
 31
0.0
  0
LINE
  5
110D
  8
0
 10
407.7499999999998863
 20
86.6000000000000654
 30
0.0
 11
395.75
 21
86.6000000000000654
 31
0.0
  0
LINE
  5
110E
  8
0
 10
395.25
 20
87.1000000000000654
 30
0.0
 11
395.75
 21
86.6000000000000654
 31
0.0
  0
LINE
  5
110F
  8
0
 10
458.75
 20
102.0999999999999943
 30
0.0
 11
459.25
 21
102.5999999999999943
 31
0.0
  0
LINE
  5
1110
  8
0
 10
459.25
 20
102.5999999999999943
 30
0.0
 11
478.75
 21
102.5999999999999943
 31
0.0
  0
LINE
  5
1111
  8
0
 10
479.25
 20
102.0999999999999943
 30
0.0
 11
478.75
 21
102.5999999999999943
 31
0.0
  0
LINE
  5
1112
  8
0
 10
478.75
 20
86.6000000000000654
 30
0.0
 11
466.7500000000001137
 21
86.6000000000000654
 31
0.0
  0
LINE
  5
1113
  8
0
 10
395.25
 20
102.0999999999999943
 30
0.0
 11
395.75
 21
102.5999999999999943
 31
0.0
  0
LINE
  5
1114
  8
0
 10
395.75
 20
102.5999999999999943
 30
0.0
 11
415.2499999999998863
 21
102.5999999999999943
 31
0.0
  0
LINE
  5
1115
  8
0
 10
395.25
 20
87.1000000000000654
 30
0.0
 11
395.25
 21
102.0999999999999943
 31
0.0
  0
LINE
  5
1116
  8
0
 10
415.7499999999998863
 20
102.0999999999999943
 30
0.0
 11
415.7499999999998863
 21
98.1000000000000654
 31
0.0
  0
LINE
  5
1117
  8
0
 10
478.75
 20
86.6000000000000654
 30
0.0
 11
479.25
 21
87.1000000000000654
 31
0.0
  0
LINE
  5
1118
  8
0
 10
421.25
 20
76.6000000000000654
 30
0.0
 11
408.25
 21
76.6000000000000654
 31
0.0
  0
LINE
  5
1119
  8
0
 10
407.7499999999998863
 20
77.1000000000000654
 30
0.0
 11
408.25
 21
76.6000000000000654
 31
0.0
  0
LINE
  5
111A
  8
0
 10
421.25
 20
74.5000000000000711
 30
0.0
 11
421.25
 21
76.6000000000000654
 31
0.0
  0
ARC
  5
111B
  8
0
 10
437.25
 20
98.1000000000000654
 30
0.0
 40
21.5
 50
180.0
 51
0.0
  0
LINE
  5
111C
  8
0
 10
466.7500000000001137
 20
77.1000000000000654
 30
0.0
 11
466.2500000000001137
 21
76.6000000000000654
 31
0.0
  0
LINE
  5
111D
  8
0
 10
458.75
 20
98.1000000000000654
 30
0.0
 11
458.75
 21
102.0999999999999943
 31
0.0
  0
LINE
  5
111E
  8
0
 10
415.7499999999998863
 20
102.0999999999999943
 30
0.0
 11
415.2499999999998863
 21
102.5999999999999943
 31
0.0
  0
LINE
  5
111F
  8
0
 10
453.2499999999998863
 20
76.6000000000000654
 30
0.0
 11
453.2499999999998863
 21
74.5000000000000711
 31
0.0
  0
LINE
  5
1120
  8
0
 10
466.7500000000001137
 20
86.6000000000000654
 30
0.0
 11
466.7500000000001137
 21
77.1000000000000654
 31
0.0
  0
LINE
  5
1121
  8
0
 10
452.7499999999998863
 20
74.0000000000000711
 30
0.0
 11
421.75
 21
74.0000000000000711
 31
0.0
  0
LINE
  5
1122
  8
0
 10
421.75
 20
74.0000000000000711
 30
0.0
 11
421.25
 21
74.5000000000000711
 31
0.0
  0
LINE
  5
1123
  8
0
 10
453.2499999999998863
 20
74.5000000000000711
 30
0.0
 11
452.7499999999998863
 21
74.0000000000000711
 31
0.0
  0
LINE
  5
1124
  8
0
 10
479.25
 20
102.0999999999999943
 30
0.0
 11
479.25
 21
87.1000000000000654
 31
0.0
  0
LINE
  5
1125
  8
0
 10
407.7499999999998863
 20
77.1000000000000654
 30
0.0
 11
407.7499999999998863
 21
86.6000000000000654
 31
0.0
  0
LINE
  5
1126
  8
0
 10
452.2499999999998863
 20
115.2000000000000028
 30
0.0
 11
422.25
 21
115.2000000000000028
 31
0.0
  0
LINE
  5
1127
  8
0
 10
452.2499999999998863
 20
110.7000000000001023
 30
0.0
 11
452.2499999999998863
 21
115.2000000000000028
 31
0.0
  0
LINE
  5
1128
  8
0
 10
382.25
 20
131.6999999999999886
 30
0.0
 11
382.75
 21
132.1999999999999886
 31
0.0
  0
LINE
  5
1129
  8
0
 10
382.75
 20
132.1999999999999886
 30
0.0
 11
491.7500000000001137
 21
132.1999999999999886
 31
0.0
  0
LINE
  5
112A
  8
0
 10
471.7500000000001137
 20
110.2000000000000028
 30
0.0
 11
452.7499999999998863
 21
110.2000000000000028
 31
0.0
  0
LINE
  5
112B
  8
0
 10
452.7499999999998863
 20
110.2000000000000028
 30
0.0
 11
452.2499999999998863
 21
110.7000000000001023
 31
0.0
  0
LINE
  5
112C
  8
0
 10
472.2500000000001137
 20
110.7000000000001023
 30
0.0
 11
471.7500000000001137
 21
110.2000000000000028
 31
0.0
  0
LINE
  5
112D
  8
0
 10
402.2499999999998863
 20
118.5999999999999943
 30
0.0
 11
382.75
 21
118.5999999999999943
 31
0.0
  0
LINE
  5
112E
  8
0
 10
382.25
 20
119.0999999999999943
 30
0.0
 11
382.75
 21
118.5999999999999943
 31
0.0
  0
LINE
  5
112F
  8
0
 10
492.2500000000001137
 20
131.6999999999999886
 30
0.0
 11
492.2500000000001137
 21
119.0999999999999943
 31
0.0
  0
LINE
  5
1130
  8
0
 10
422.25
 20
110.7000000000001023
 30
0.0
 11
421.75
 21
110.2000000000000028
 31
0.0
  0
LINE
  5
1131
  8
0
 10
472.2500000000001137
 20
118.5999999999999943
 30
0.0
 11
472.2500000000001137
 21
110.7000000000001023
 31
0.0
  0
LINE
  5
1132
  8
0
 10
421.75
 20
110.2000000000000028
 30
0.0
 11
402.7499999999998863
 21
110.2000000000000028
 31
0.0
  0
LINE
  5
1133
  8
0
 10
402.7499999999998863
 20
110.2000000000000028
 30
0.0
 11
402.2499999999998863
 21
110.7000000000001023
 31
0.0
  0
LINE
  5
1134
  8
0
 10
491.7500000000001137
 20
132.1999999999999886
 30
0.0
 11
492.2500000000001137
 21
131.6999999999999886
 31
0.0
  0
LINE
  5
1135
  8
0
 10
491.7500000000001137
 20
118.5999999999999943
 30
0.0
 11
472.2500000000001137
 21
118.5999999999999943
 31
0.0
  0
LINE
  5
1136
  8
0
 10
491.7500000000001137
 20
118.5999999999999943
 30
0.0
 11
492.2500000000001137
 21
119.0999999999999943
 31
0.0
  0
LINE
  5
1137
  8
0
 10
402.2499999999998863
 20
110.7000000000001023
 30
0.0
 11
402.2499999999998863
 21
118.5999999999999943
 31
0.0
  0
LINE
  5
1138
  8
0
 10
422.25
 20
115.2000000000000028
 30
0.0
 11
422.25
 21
110.7000000000001023
 31
0.0
  0
LINE
  5
1139
  8
0
 10
382.25
 20
119.0999999999999943
 30
0.0
 11
382.25
 21
131.6999999999999886
 31
0.0
  0
LINE
  5
113A
  8
0
 10
463.1499999999999204
 20
181.9320508075689133
 30
0.0
 11
463.1499999999999204
 21
178.4679491924310923
 31
0.0
  0
LINE
  5
113B
  8
0
 10
463.1499999999999204
 20
178.4679491924310923
 30
0.0
 11
466.1499999999999773
 21
176.7358983848623097
 31
0.0
  0
LINE
  5
113C
  8
0
 10
469.1499999999999204
 20
178.4679491924310923
 30
0.0
 11
466.1499999999999773
 21
176.7358983848623097
 31
0.0
  0
LINE
  5
113D
  8
0
 10
469.1499999999999204
 20
181.9320508075689133
 30
0.0
 11
469.1499999999999204
 21
178.4679491924310923
 31
0.0
  0
LINE
  5
113E
  8
0
 10
469.1499999999999204
 20
181.9320508075689133
 30
0.0
 11
466.1499999999999773
 21
183.6641016151378096
 31
0.0
  0
LINE
  5
113F
  8
0
 10
463.1499999999999204
 20
181.9320508075689133
 30
0.0
 11
466.1499999999999773
 21
183.6641016151378096
 31
0.0
  0
LINE
  5
1140
  8
0
 10
492.2500000000001137
 20
187.6999999999999886
 30
0.0
 11
492.2500000000001137
 21
172.6999999999999886
 31
0.0
  0
LINE
  5
1141
  8
0
 10
382.75
 20
188.1999999999999886
 30
0.0
 11
491.7500000000001137
 21
188.1999999999999886
 31
0.0
  0
LINE
  5
1142
  8
0
 10
382.25
 20
187.6999999999999886
 30
0.0
 11
382.75
 21
188.1999999999999886
 31
0.0
  0
LINE
  5
1143
  8
0
 10
382.25
 20
172.6999999999999886
 30
0.0
 11
382.25
 21
187.6999999999999886
 31
0.0
  0
LINE
  5
1144
  8
0
 10
491.7500000000001137
 20
188.1999999999999886
 30
0.0
 11
492.2500000000001137
 21
187.6999999999999886
 31
0.0
  0
LINE
  5
1145
  8
0
 10
492.2500000000001137
 20
172.6999999999999886
 30
0.0
 11
491.7500000000001137
 21
172.1999999999999886
 31
0.0
  0
LINE
  5
1146
  8
0
 10
382.75
 20
172.1999999999999886
 30
0.0
 11
382.25
 21
172.6999999999999886
 31
0.0
  0
LINE
  5
1147
  8
0
 10
491.7500000000001137
 20
172.1999999999999886
 30
0.0
 11
382.75
 21
172.1999999999999886
 31
0.0
  0
LINE
  5
1148
  8
0
 10
547.2500000000001137
 20
86.6000000000000654
 30
0.0
 11
547.75
 21
87.1000000000000654
 31
0.0
  0
LINE
  5
1149
  8
0
 10
547.75
 20
102.0999999999999943
 30
0.0
 11
547.2500000000001137
 21
102.5999999999999943
 31
0.0
  0
LINE
  5
114A
  8
0
 10
532.7500000000001137
 20
87.1000000000000654
 30
0.0
 11
533.2500000000001137
 21
86.6000000000000654
 31
0.0
  0
LINE
  5
114B
  8
0
 10
547.2500000000001137
 20
86.6000000000000654
 30
0.0
 11
533.2500000000001137
 21
86.6000000000000654
 31
0.0
  0
LINE
  5
114C
  8
0
 10
533.2500000000001137
 20
102.5999999999999943
 30
0.0
 11
532.7500000000001137
 21
102.0999999999999943
 31
0.0
  0
LINE
  5
114D
  8
0
 10
533.2500000000001137
 20
102.5999999999999943
 30
0.0
 11
547.2500000000001137
 21
102.5999999999999943
 31
0.0
  0
LINE
  5
114E
  8
0
 10
547.75
 20
77.1000000000000654
 30
0.0
 11
547.2500000000001137
 21
76.6000000000000654
 31
0.0
  0
LINE
  5
114F
  8
0
 10
547.2500000000001137
 20
76.6000000000000654
 30
0.0
 11
533.2500000000001137
 21
76.6000000000000654
 31
0.0
  0
LINE
  5
1150
  8
0
 10
532.7500000000001137
 20
77.1000000000000654
 30
0.0
 11
533.2500000000001137
 21
76.6000000000000654
 31
0.0
  0
LINE
  5
1151
  8
0
 10
547.75
 20
102.0999999999999943
 30
0.0
 11
547.75
 21
74.5000000000000711
 31
0.0
  0
LINE
  5
1152
  8
0
 10
547.75
 20
74.5000000000000711
 30
0.0
 11
547.2500000000001137
 21
74.0000000000000711
 31
0.0
  0
LINE
  5
1153
  8
0
 10
547.2500000000001137
 20
74.0000000000000711
 30
0.0
 11
533.2500000000001137
 21
74.0000000000000711
 31
0.0
  0
LINE
  5
1154
  8
0
 10
533.2500000000001137
 20
74.0000000000000711
 30
0.0
 11
532.7500000000001137
 21
74.5000000000000711
 31
0.0
  0
LINE
  5
1155
  8
0
 10
532.7500000000001137
 20
74.5000000000000711
 30
0.0
 11
532.7500000000001137
 21
102.0999999999999943
 31
0.0
  0
LINE
  5
1156
  8
0
 10
547.75
 20
132.1999999999999886
 30
0.0
 11
548.25
 21
131.6999999999999886
 31
0.0
  0
LINE
  5
1157
  8
0
 10
547.75
 20
118.5999999999999943
 30
0.0
 11
548.25
 21
119.0999999999999943
 31
0.0
  0
LINE
  5
1158
  8
0
 10
547.75
 20
118.5999999999999943
 30
0.0
 11
532.7500000000001137
 21
118.5999999999999943
 31
0.0
  0
LINE
  5
1159
  8
0
 10
532.7500000000001137
 20
118.5999999999999943
 30
0.0
 11
532.2500000000001137
 21
119.0999999999999943
 31
0.0
  0
LINE
  5
115A
  8
0
 10
532.7500000000001137
 20
132.1999999999999886
 30
0.0
 11
547.75
 21
132.1999999999999886
 31
0.0
  0
LINE
  5
115B
  8
0
 10
532.2500000000001137
 20
131.6999999999999886
 30
0.0
 11
532.7500000000001137
 21
132.1999999999999886
 31
0.0
  0
LINE
  5
115C
  8
0
 10
548.25
 20
131.6999999999999886
 30
0.0
 11
548.25
 21
110.7000000000001023
 31
0.0
  0
LINE
  5
115D
  8
0
 10
548.25
 20
110.7000000000001023
 30
0.0
 11
547.75
 21
110.2000000000000028
 31
0.0
  0
LINE
  5
115E
  8
0
 10
547.75
 20
110.2000000000000028
 30
0.0
 11
532.7500000000001137
 21
110.2000000000000028
 31
0.0
  0
LINE
  5
115F
  8
0
 10
532.7500000000001137
 20
110.2000000000000028
 30
0.0
 11
532.2500000000001137
 21
110.7000000000001023
 31
0.0
  0
LINE
  5
1160
  8
0
 10
532.2500000000001137
 20
110.7000000000001023
 30
0.0
 11
532.2500000000001137
 21
131.6999999999999886
 31
0.0
  0
CIRCLE
  5
1161
  8
0
 10
408.3499999999999091
 20
180.1999999999999886
 30
0.0
 40
6.4999999999999831
  0
CIRCLE
  5
1162
  8
0
 10
466.1499999999999773
 20
180.1999999999999886
 30
0.0
 40
6.5
  0
CIRCLE
  5
1163
  8
0
 10
408.3499999999999091
 20
180.1999999999999886
 30
0.0
 40
6.9000000000000048
  0
CIRCLE
  5
1164
  8
0
 10
466.1499999999999773
 20
180.1999999999999886
 30
0.0
 40
6.9000000000000048
  0
LINE
  5
1165
  8
0
 10
405.3500000000000227
 20
181.9320508075689133
 30
0.0
 11
405.3500000000000227
 21
178.4679491924310923
 31
0.0
  0
LINE
  5
1166
  8
0
 10
405.3500000000000227
 20
178.4679491924310923
 30
0.0
 11
408.3499999999999091
 21
176.7358983848623097
 31
0.0
  0
LINE
  5
1167
  8
0
 10
411.3500000000000227
 20
178.4679491924310923
 30
0.0
 11
408.3499999999999091
 21
176.7358983848623097
 31
0.0
  0
LINE
  5
1168
  8
0
 10
411.3500000000000227
 20
181.9320508075689133
 30
0.0
 11
411.3500000000000227
 21
178.4679491924310923
 31
0.0
  0
LINE
  5
1169
  8
0
 10
411.3500000000000227
 20
181.9320508075689133
 30
0.0
 11
408.3499999999999091
 21
183.6641016151378096
 31
0.0
  0
LINE
  5
116A
  8
0
 10
405.3500000000000227
 20
181.9320508075689133
 30
0.0
 11
408.3499999999999091
 21
183.6641016151378096
 31
0.0
  0
LINE
  5
116B
  8
1
 10
377.25
 20
180.1999999999995907
 30
0.0
 11
497.2500000000002274
 21
180.1999999999999034
 31
0.0
  0
LINE
  5
116C
  8
1
 10
437.2500000000001137
 20
193.1999999999999886
 30
0.0
 11
437.2500000000001137
 21
167.1999999999999886
 31
0.0
  0
LINE
  5
116D
  8
1
 10
408.3499999999999091
 20
190.100000000000108
 30
0.0
 11
408.3499999999999091
 21
170.3000000000000966
 31
0.0
  0
LINE
  5
116E
  8
1
 10
466.1499999999999773
 20
190.1000000000003922
 30
0.0
 11
466.1499999999999773
 21
170.3000000000004093
 31
0.0
  0
LINE
  5
116F
  8
1
 10
437.2500000000001137
 20
137.1999999999999886
 30
0.0
 11
437.25
 21
69.0000000000000568
 31
0.0
  0
LINE
  5
1170
  8
1
 10
408.3500000000000796
 20
135.1999999999999886
 30
0.0
 11
408.3499999999999091
 21
84.6000000000000654
 31
0.0
  0
LINE
  5
1171
  8
1
 10
466.1500000000000909
 20
135.1999999999999886
 30
0.0
 11
466.1499999999999773
 21
84.6000000000000654
 31
0.0
  0
LINE
  5
1172
  8
0
 10
412.3500000000000796
 20
110.2000000000000028
 30
0.0
 11
412.3500000000000796
 21
102.5999999999999943
 31
0.0
  0
LINE
  5
1173
  8
3
 10
411.6735000000002174
 20
110.2000000000000028
 30
0.0
 11
411.6735000000001037
 21
102.5999999999999943
 31
0.0
  0
LINE
  5
1174
  8
3
 10
405.0264999999999986
 20
110.2000000000000028
 30
0.0
 11
405.0264999999999986
 21
102.5999999999999943
 31
0.0
  0
LINE
  5
1175
  8
0
 10
404.3500000000000796
 20
110.2000000000000028
 30
0.0
 11
404.3500000000000796
 21
102.5999999999999943
 31
0.0
  0
LINE
  5
1176
  8
0
 10
470.1500000000000909
 20
110.2000000000000028
 30
0.0
 11
470.1500000000000909
 21
102.5999999999999943
 31
0.0
  0
LINE
  5
1177
  8
3
 10
469.4735000000001151
 20
110.2000000000000028
 30
0.0
 11
469.4735000000000014
 21
102.5999999999999943
 31
0.0
  0
LINE
  5
1178
  8
3
 10
462.8264999999998963
 20
110.2000000000000028
 30
0.0
 11
462.8264999999998963
 21
102.5999999999999943
 31
0.0
  0
LINE
  5
1179
  8
0
 10
462.1500000000000909
 20
110.2000000000000028
 30
0.0
 11
462.1500000000000909
 21
102.5999999999999943
 31
0.0
  0
LINE
  5
117A
  8
1
 10
540.2500000000001137
 20
137.1999999999999886
 30
0.0
 11
540.2499999999997726
 21
69.0000000000000568
 31
0.0
  0
LINE
  5
117B
  8
0
 10
544.2500000000001137
 20
110.2000000000000028
 30
0.0
 11
544.2500000000001137
 21
102.5999999999999943
 31
0.0
  0
LINE
  5
117C
  8
3
 10
543.5735000000000809
 20
110.2000000000000028
 30
0.0
 11
543.5735000000000809
 21
102.5999999999999943
 31
0.0
  0
LINE
  5
117D
  8
3
 10
536.9265000000000327
 20
110.2000000000000028
 30
0.0
 11
536.9265000000000327
 21
102.5999999999999943
 31
0.0
  0
LINE
  5
117E
  8
0
 10
536.2500000000001137
 20
110.2000000000000028
 30
0.0
 11
536.2500000000001137
 21
102.5999999999999943
 31
0.0
  0
ENDSEC
  0
EOF
