  0
SECTION
  2
HEADER
  9
$ACADVER
  1
AC1009
  9
$INSBASE
 10
0.0
 20
0.0
 30
0.0
  9
$EXTMIN
 10
0.0
 20
-2.960436562073669
 30
0.0
  9
$EXTMAX
 10
783.300000000000864
 20
292.0000000000002842
 30
0.0
  9
$LIMMIN
 10
0.0
 20
0.0
  9
$LIMMAX
 10
187.5
 20
135.0
  9
$ORTHOMODE
 70
     1
  9
$REGENMODE
 70
     1
  9
$FILLMODE
 70
     1
  9
$QTEXTMODE
 70
     0
  9
$MIRRTEXT
 70
     0
  9
$DRAGMODE
 70
     2
  9
$LTSCALE
 40
10.0
  9
$OSMODE
 70
    37
  9
$ATTMODE
 70
     1
  9
$TEXTSIZE
 40
0.2
  9
$TRACEWID
 40
0.05
  9
$TEXTSTYLE
  7
STANDARD
  9
$CLAYER
  8
0
  9
$CELTYPE
  6
BYLAYER
  9
$CECOLOR
 62
   256
  9
$DIMSCALE
 40
1.0
  9
$DIMASZ
 40
3.0
  9
$DIMEXO
 40
2.0
  9
$DIMDLI
 40
0.38
  9
$DIMRND
 40
0.0
  9
$DIMDLE
 40
0.0
  9
$DIMEXE
 40
2.0
  9
$DIMTP
 40
0.0
  9
$DIMTM
 40
0.0
  9
$DIMTXT
 40
3.2000000000000002
  9
$DIMCEN
 40
0.0
  9
$DIMTSZ
 40
0.0
  9
$DIMTOL
 70
     0
  9
$DIMLIM
 70
     0
  9
$DIMTIH
 70
     0
  9
$DIMTOH
 70
     0
  9
$DIMSE1
 70
     0
  9
$DIMSE2
 70
     0
  9
$DIMTAD
 70
     1
  9
$DIMZIN
 70
     0
  9
$DIMBLK
  1

  9
$DIMASO
 70
     0
  9
$DIMSHO
 70
     0
  9
$DIMPOST
  1

  9
$DIMAPOST
  1

  9
$DIMALT
 70
     0
  9
$DIMALTD
 70
     2
  9
$DIMALTF
 40
25.3999999999999986
  9
$DIMLFAC
 40
1.0
  9
$DIMTOFL
 70
     1
  9
$DIMTVP
 40
1.6000000000000001
  9
$DIMTIX
 70
     1
  9
$DIMSOXD
 70
     0
  9
$DIMSAH
 70
     0
  9
$DIMBLK1
  1

  9
$DIMBLK2
  1

  9
$DIMSTYLE
  2
STANDARD
  9
$DIMCLRD
 70
     0
  9
$DIMCLRE
 70
     0
  9
$DIMCLRT
 70
     0
  9
$DIMTFAC
 40
1.0
  9
$DIMGAP
 40
0.09
  9
$LUNITS
 70
     2
  9
$LUPREC
 70
     1
  9
$SKETCHINC
 40
0.1
  9
$FILLETRAD
 40
0.0
  9
$AUNITS
 70
     0
  9
$AUPREC
 70
     1
  9
$MENU
  1
E:\r13\win\SUPPORT\ACAD
  9
$ELEVATION
 40
0.0
  9
$PELEVATION
 40
0.0
  9
$THICKNESS
 40
0.0
  9
$LIMCHECK
 70
     0
  9
$BLIPMODE
 70
     0
  9
$CHAMFERA
 40
0.0
  9
$CHAMFERB
 40
0.0
  9
$SKPOLY
 70
     0
  9
$TDCREATE
 40
2449839.773298610933125
  9
$TDUPDATE
 40
2460692.4007638888433576
  9
$TDINDWG
 40
0.1914599653
  9
$TDUSRTIMER
 40
0.1914599653
  9
$USRTIMER
 70
     1
  9
$ANGBASE
 50
0.0
  9
$ANGDIR
 70
     0
  9
$PDMODE
 70
     0
  9
$PDSIZE
 40
0.0
  9
$PLINEWID
 40
0.0
  9
$COORDS
 70
     1
  9
$SPLFRAME
 70
     0
  9
$SPLINETYPE
 70
     6
  9
$SPLINESEGS
 70
     8
  9
$ATTDIA
 70
     1
  9
$ATTREQ
 70
     1
  9
$HANDLING
 70
     1
  9
$HANDSEED
  5
1656
  9
$SURFTAB1
 70
     6
  9
$SURFTAB2
 70
     6
  9
$SURFTYPE
 70
     6
  9
$SURFU
 70
     6
  9
$SURFV
 70
     6
  9
$UCSNAME
  2

  9
$UCSORG
 10
0.0
 20
0.0
 30
0.0
  9
$UCSXDIR
 10
1.0
 20
0.0
 30
0.0
  9
$UCSYDIR
 10
0.0
 20
1.0
 30
0.0
  9
$PUCSNAME
  2

  9
$PUCSORG
 10
0.0
 20
0.0
 30
0.0
  9
$PUCSXDIR
 10
1.0
 20
0.0
 30
0.0
  9
$PUCSYDIR
 10
0.0
 20
1.0
 30
0.0
  9
$USERI1
 70
     0
  9
$USERI2
 70
     1
  9
$USERI3
 70
     0
  9
$USERI4
 70
     0
  9
$USERI5
 70
     0
  9
$USERR1
 40
0.0
  9
$USERR2
 40
0.0
  9
$USERR3
 40
0.0
  9
$USERR4
 40
0.0
  9
$USERR5
 40
0.0
  9
$WORLDVIEW
 70
     1
  9
$SHADEDGE
 70
     3
  9
$SHADEDIF
 70
    70
  9
$TILEMODE
 70
     1
  9
$MAXACTVP
 70
    16
  9
$PLIMCHECK
 70
     0
  9
$PEXTMIN
 10
1.0000000000000000E+20
 20
1.0000000000000000E+20
 30
1.0000000000000000E+20
  9
$PEXTMAX
 10
-1.0000000000000000E+20
 20
-1.0000000000000000E+20
 30
-1.0000000000000000E+20
  9
$PLIMMIN
 10
0.0
 20
0.0
  9
$PLIMMAX
 10
12.0
 20
9.0
  9
$UNITMODE
 70
     0
  9
$VISRETAIN
 70
     0
  9
$PLINEGEN
 70
     0
  9
$PSLTSCALE
 70
     0
  0
ENDSEC
  0
SECTION
  2
TABLES
  0
TABLE
  2
VPORT
 70
     1
  0
VPORT
  2
*ACTIVE
 70
     0
 10
0.0
 20
0.0
 11
1.0
 21
1.0
 12
526.872246696035063
 22
224.3420368731937913
 13
0.0
 23
0.0
 14
5.0
 24
5.0
 15
5.0
 25
5.0
 16
0.0
 26
0.0
 36
1.0
 17
0.0
 27
0.0
 37
0.0
 40
448.6840737463875826
 41
2.3485221674876842
 42
50.0
 43
0.0
 44
0.0
 50
0.0
 51
0.0
 71
     0
 72
   500
 73
     1
 74
     0
 75
     0
 76
     0
 77
     0
 78
     2
  0
ENDTAB
  0
TABLE
  2
LTYPE
 70
     3
  0
LTYPE
  2
CONTINUOUS
 70
     0
  3
Solid Line
 72
    65
 73
     0
 40
0.0
  0
LTYPE
  2
CENTER
 70
     0
  3
____ _ ____ _ ____ _ ____ _ ____ _ ____ _ ____
 72
    65
 73
     4
 40
2.0
 49
1.25
 49
-0.25
 49
0.25
 49
-0.25
  0
LTYPE
  2
HIDDEN
 70
     0
  3
_ _ _ _ _ _ _ _ _ _ _ _ _ _ _ _ _ _ _ _ _ _ _
 72
    65
 73
     2
 40
0.375
 49
0.25
 49
-0.125
  0
ENDTAB
  0
TABLE
  2
LAYER
 70
     3
  0
LAYER
  2
0
 70
     0
 62
     7
  6
CONTINUOUS
  0
LAYER
  2
1
 70
     0
 62
     1
  6
CENTER
  0
LAYER
  2
3
 70
     0
 62
     3
  6
CONTINUOUS
  0
ENDTAB
  0
TABLE
  2
STYLE
 70
     2
  0
STYLE
  2
STANDARD
 70
     0
 40
0.0
 41
1.0
 50
0.0
 71
     0
 42
0.2
  3
TXT
  4
BIGFONT
  0
STYLE
  2
STANDARD1
 70
     0
 40
0.0
 41
1.0
 50
0.0
 71
     0
 42
3.0
  3
txt
  4

  0
ENDTAB
  0
TABLE
  2
VIEW
 70
     1
  0
VIEW
  2
ALL
 70
     0
 40
270.0
 10
220.9915966386554942
 20
135.0
 41
0.0
 11
0.0
 21
0.0
 31
1.0
 12
0.0
 22
0.0
 32
0.0
 42
0.0
 43
0.0
 44
0.0
 50
0.0
 71
     0
  0
ENDTAB
  0
TABLE
  2
UCS
 70
     0
  0
ENDTAB
  0
TABLE
  2
APPID
 70
     6
  0
APPID
  2
ACAD
 70
     0
  0
APPID
  2
ACAD_DSTYLE_DIMJAG
 70
     0
  0
APPID
  2
ACAD_DSTYLE_DIMTALN
 70
     0
  0
APPID
  2
ACAD_EXEMPT_FROM_CAD_STANDARDS
 70
     0
  0
APPID
  2
ACAD_MLEADERVER
 70
     0
  0
APPID
  2
ACAD_NAV_VCDISPLAY
 70
     0
  0
ENDTAB
  0
TABLE
  2
DIMSTYLE
 70
     1
  0
DIMSTYLE
  2
STANDARD
 70
     0
  3

  4

  5

  6

  7

 40
1.0
 41
0.18
 42
0.0625
 43
0.38
 44
0.18
 45
0.0
 46
0.0
 47
0.0
 48
0.0
140
0.18
141
0.09
142
0.0
143
25.3999999999999986
144
1.0
145
0.0
146
1.0
147
0.09
 71
     0
 72
     0
 73
     1
 74
     1
 75
     0
 76
     0
 77
     0
 78
     0
170
     0
171
     2
172
     0
173
     0
174
     0
175
     0
176
     0
177
     0
178
     0
  0
ENDTAB
  0
ENDSEC
  0
SECTION
  2
BLOCKS
  0
BLOCK
  8
0
  2
$MODEL_SPACE
 70
     0
 10
0.0
 20
0.0
 30
0.0
  3
$MODEL_SPACE
  1

  0
ENDBLK
  5
1D4
  8
0
  0
BLOCK
 67
     1
  8
0
  2
$PAPER_SPACE
 70
     0
 10
0.0
 20
0.0
 30
0.0
  3
$PAPER_SPACE
  1

  0
ENDBLK
  5
1D2
 67
     1
  8
0
  0
ENDSEC
  0
SECTION
  2
ENTITIES
  0
TEXT
  5
678
  8
0
 62
     3
 10
0.0
 20
0.0
 30
0.0
 40
10.0
  1
IMG160-F-SS
  7
STANDARD1
  0
LINE
  5
106F
  8
0
 10
628.199999999999136
 20
230.2500000000003126
 30
0.0
 11
623.2000000000000455
 21
230.2500000000003126
 31
0.0
  0
LINE
  5
1070
  8
0
 10
628.199999999999136
 20
195.250000000000199
 30
0.0
 11
628.199999999999136
 21
230.2500000000003126
 31
0.0
  0
LINE
  5
1071
  8
0
 10
628.199999999999136
 20
195.250000000000199
 30
0.0
 11
623.2000000000000455
 21
195.250000000000199
 31
0.0
  0
LINE
  5
1072
  8
0
 10
628.199999999999136
 20
178.2500000000003126
 30
0.0
 11
623.2000000000000455
 21
178.2500000000003126
 31
0.0
  0
LINE
  5
1073
  8
0
 10
628.199999999999136
 20
133.5000000000003126
 30
0.0
 11
628.199999999999136
 21
178.2500000000003126
 31
0.0
  0
LINE
  5
1074
  8
0
 10
603.199999999999136
 20
292.0000000000002842
 30
0.0
 11
603.199999999999136
 21
133.5000000000003126
 31
0.0
  0
LINE
  5
1075
  8
0
 10
664.199999999999136
 20
292.0000000000002842
 30
0.0
 11
603.199999999999136
 21
292.0000000000002842
 31
0.0
  0
LINE
  5
1076
  8
0
 10
628.199999999999136
 20
247.2500000000003126
 30
0.0
 11
628.199999999999136
 21
292.0000000000002842
 31
0.0
  0
LINE
  5
1077
  8
0
 10
628.199999999999136
 20
247.2500000000003126
 30
0.0
 11
623.2000000000000455
 21
247.2500000000003126
 31
0.0
  0
LINE
  5
1078
  8
0
 10
664.199999999999136
 20
133.5000000000003126
 30
0.0
 11
603.199999999999136
 21
133.5000000000003126
 31
0.0
  0
LINE
  5
1079
  8
0
 10
627.4928932188123554
 20
230.2500000000003126
 30
0.0
 11
627.4928932188123554
 21
231.4137156671881996
 31
0.0
  0
LINE
  5
107A
  8
0
 10
628.5535533905924694
 20
193.3522319024760918
 30
0.0
 11
628.5535533905933789
 21
232.147768097524505
 31
0.0
  0
LINE
  5
107B
  8
0
 10
627.4928932188123554
 20
195.250000000000199
 30
0.0
 11
627.4928932188123554
 21
194.0862843328125109
 31
0.0
  0
LINE
  5
107C
  8
0
 10
628.5535533905933789
 20
292.0000000000002842
 30
0.0
 11
628.5535533905933789
 21
245.3522319024762055
 31
0.0
  0
LINE
  5
107D
  8
0
 10
627.4928932188123554
 20
247.2500000000003126
 30
0.0
 11
627.4928932188123554
 21
246.0862843328125962
 31
0.0
  0
LINE
  5
107E
  8
0
 10
628.5535533905924694
 20
180.147768097524505
 30
0.0
 11
628.5535533905924694
 21
133.5000000000003126
 31
0.0
  0
LINE
  5
107F
  8
0
 10
627.4928932188123554
 20
179.4137156671880859
 30
0.0
 11
627.4928932188123554
 21
178.2500000000003126
 31
0.0
  0
LINE
  5
1080
  8
0
 10
629.6142135623724698
 20
133.5000000000003126
 30
0.0
 11
629.6142135623724698
 21
181.1725575416440961
 31
0.0
  0
LINE
  5
1081
  8
0
 10
629.6142135623724698
 20
192.327442458356586
 30
0.0
 11
629.6142135623724698
 21
233.1725575416440108
 31
0.0
  0
LINE
  5
1082
  8
0
 10
629.6142135623724698
 20
244.327442458356586
 30
0.0
 11
629.6142135623724698
 21
292.0000000000002842
 31
0.0
  0
LINE
  5
1083
  8
0
 10
633.199999999999136
 20
133.5000000000003126
 30
0.0
 11
633.199999999999136
 21
292.0000000000002842
 31
0.0
  0
LINE
  5
1086
  8
0
 10
676.2000000000000455
 20
271.2153903091735856
 30
0.0
 11
664.199999999999136
 21
292.0000000000002842
 31
0.0
  0
LINE
  5
1087
  8
0
 10
676.2000000000000455
 20
271.2153903091735856
 30
0.0
 11
676.2000000000000455
 21
154.2846096908266986
 31
0.0
  0
LINE
  5
1088
  8
0
 10
676.2000000000000455
 20
154.2846096908266986
 30
0.0
 11
664.199999999999136
 21
133.5000000000003126
 31
0.0
  0
LINE
  5
1089
  8
0
 10
655.4153903091729489
 20
133.5000000000003126
 30
0.0
 11
655.4153903091729489
 21
292.0000000000002842
 31
0.0
  0
LINE
  5
108C
  8
0
 10
270.0
 20
195.250000000000199
 30
0.0
 11
275.0
 21
195.250000000000199
 31
0.0
  0
LINE
  5
108D
  8
0
 10
270.0
 20
247.2500000000003126
 30
0.0
 11
275.0
 21
247.2500000000003126
 31
0.0
  0
LINE
  5
108E
  8
0
 10
270.0
 20
292.0000000000002842
 30
0.0
 11
270.0
 21
247.2500000000003126
 31
0.0
  0
LINE
  5
108F
  8
0
 10
234.0
 20
292.0000000000002842
 30
0.0
 11
294.9999999999990905
 21
292.0000000000002842
 31
0.0
  0
LINE
  5
1090
  8
0
 10
294.9999999999990905
 20
133.5000000000003126
 30
0.0
 11
294.9999999999990905
 21
292.0000000000002842
 31
0.0
  0
LINE
  5
1091
  8
0
 10
233.9999999999990905
 20
133.5000000000003126
 30
0.0
 11
294.9999999999990905
 21
133.5000000000003126
 31
0.0
  0
LINE
  5
1092
  8
0
 10
270.0
 20
178.2500000000003126
 30
0.0
 11
269.9999999999990905
 21
133.5000000000003126
 31
0.0
  0
LINE
  5
1093
  8
0
 10
270.0
 20
178.2500000000003126
 30
0.0
 11
275.0
 21
178.2500000000003126
 31
0.0
  0
LINE
  5
1094
  8
0
 10
270.0
 20
230.2500000000003126
 30
0.0
 11
275.0
 21
230.2500000000003126
 31
0.0
  0
LINE
  5
1095
  8
0
 10
270.0
 20
230.2500000000003126
 30
0.0
 11
270.0
 21
195.250000000000199
 31
0.0
  0
LINE
  5
1096
  8
0
 10
270.7071067811857006
 20
195.250000000000199
 30
0.0
 11
270.7071067811857006
 21
194.0862843328123972
 31
0.0
  0
LINE
  5
1097
  8
0
 10
269.6464466094067234
 20
232.147768097524505
 30
0.0
 11
269.6464466094067234
 21
193.3522319024760918
 31
0.0
  0
LINE
  5
1098
  8
0
 10
270.7071067811867238
 20
230.2500000000003126
 30
0.0
 11
270.7071067811867238
 21
231.4137156671880007
 31
0.0
  0
LINE
  5
1099
  8
0
 10
269.6464466094067234
 20
133.5000000000003126
 30
0.0
 11
269.6464466094067234
 21
180.1477680975243914
 31
0.0
  0
LINE
  5
109A
  8
0
 10
270.7071067811857006
 20
178.2500000000003126
 30
0.0
 11
270.7071067811857006
 21
179.4137156671880007
 31
0.0
  0
LINE
  5
109B
  8
0
 10
269.6464466094067234
 20
245.3522319024760918
 30
0.0
 11
269.646446609407576
 21
292.0000000000002842
 31
0.0
  0
LINE
  5
109C
  8
0
 10
270.7071067811867238
 20
246.0862843328123972
 30
0.0
 11
270.7071067811867238
 21
247.2500000000003126
 31
0.0
  0
LINE
  5
109D
  8
0
 10
268.5857864376266093
 20
181.1725575416440108
 30
0.0
 11
268.5857864376266093
 21
133.5000000000003126
 31
0.0
  0
LINE
  5
109E
  8
0
 10
268.5857864376266093
 20
292.0000000000002842
 30
0.0
 11
268.5857864376266093
 21
244.3274424583565008
 31
0.0
  0
LINE
  5
109F
  8
0
 10
268.5857864376266093
 20
233.1725575416440108
 30
0.0
 11
268.5857864376266093
 21
192.3274424583563871
 31
0.0
  0
LINE
  5
10A0
  8
0
 10
265.0
 20
292.0000000000002842
 30
0.0
 11
264.9999999999990905
 21
133.5000000000003126
 31
0.0
  0
LINE
  5
10A3
  8
0
 10
242.7846096908261018
 20
292.0000000000002842
 30
0.0
 11
242.7846096908251923
 21
133.5000000000003126
 31
0.0
  0
LINE
  5
10A4
  8
0
 10
222.0
 20
154.2846096908268976
 30
0.0
 11
233.9999999999990905
 21
133.5000000000003126
 31
0.0
  0
LINE
  5
10A5
  8
0
 10
222.0
 20
154.2846096908268976
 30
0.0
 11
222.0
 21
271.215390309173813
 31
0.0
  0
LINE
  5
10A6
  8
0
 10
222.0
 20
271.215390309173813
 30
0.0
 11
234.0
 21
292.0000000000002842
 31
0.0
  0
LINE
  5
10A9
  8
0
 10
633.199999999999136
 20
85.0000000000009663
 30
0.0
 11
633.199999999999136
 21
77.0000000000009521
 31
0.0
  0
ARC
  5
10AA
  8
0
 10
640.199999999999136
 20
77.0000000000009805
 30
0.0
 40
7.0
 50
180.0000000000015064
 51
270.0
  0
LINE
  5
10AB
  8
0
 10
655.4153903091729489
 20
70.0000000000011227
 30
0.0
 11
640.199999999999136
 21
70.000000000001009
 31
0.0
  0
LINE
  5
10AC
  8
0
 10
676.2000000000000455
 20
58.0000000000001492
 30
0.0
 11
655.4153903091729489
 21
70.0000000000011227
 31
0.0
  0
LINE
  5
10AD
  8
0
 10
664.199999999999136
 20
50.0000000000011013
 30
0.0
 11
664.199999999999136
 21
64.9282032302765941
 31
0.0
  0
LINE
  5
10AE
  8
0
 10
676.2000000000000455
 20
50.0000000000011511
 30
0.0
 11
609.7000000000000455
 21
50.0000000000008882
 31
0.0
  0
LINE
  5
10AF
  8
0
 10
609.7000000000000455
 20
50.0000000000008882
 30
0.0
 11
609.7000000000000455
 21
56.3000000000008711
 31
0.0
  0
LINE
  5
10B0
  8
0
 10
603.2299999999997908
 20
56.3000000000008498
 30
0.0
 11
609.7000000000000455
 21
56.3000000000008711
 31
0.0
  0
LINE
  5
10B1
  8
0
 10
603.199999999999136
 20
93.5000000000007532
 30
0.0
 11
603.2299999999997908
 21
56.3000000000008498
 31
0.0
  0
LINE
  5
10B2
  8
0
 10
628.199999999999136
 20
93.5000000000009237
 30
0.0
 11
603.199999999999136
 21
93.5000000000007532
 31
0.0
  0
LINE
  5
10B3
  8
0
 10
628.199999999999136
 20
86.414213562374087
 30
0.0
 11
628.199999999999136
 21
93.5000000000009237
 31
0.0
  0
LINE
  5
10B4
  8
0
 10
627.1393398282191356
 20
85.3535533905942856
 30
0.0
 11
628.199999999999136
 21
86.414213562374087
 31
0.0
  0
LINE
  5
10B5
  8
0
 10
628.5535533905924694
 20
83.9393398282213781
 30
0.0
 11
627.1393398282191356
 21
85.3535533905942856
 31
0.0
  0
LINE
  5
10B6
  8
0
 10
629.6142135623724698
 20
85.0000000000009521
 30
0.0
 11
628.5535533905924694
 21
83.9393398282213781
 31
0.0
  0
LINE
  5
10B7
  8
0
 10
629.6142135623724698
 20
85.0000000000009521
 30
0.0
 11
633.199999999999136
 21
85.0000000000009663
 31
0.0
  0
CIRCLE
  5
10B8
  8
3
 10
614.7000000000000455
 20
72.50000000000081
 30
0.0
 40
3.9999999999990901
  0
LINE
  5
10B9
  8
0
 10
676.2000000000000455
 20
58.0000000000001492
 30
0.0
 11
676.2000000000000455
 21
50.0000000000011511
 31
0.0
  0
LINE
  5
10BA
  8
0
 10
655.2000000000000455
 20
50.0000000000010587
 30
0.0
 11
655.2000000000000455
 21
46.0000000000010871
 31
0.0
  0
LINE
  5
10BB
  8
0
 10
637.2000000000000455
 20
46.0000000000009805
 30
0.0
 11
655.2000000000000455
 21
46.0000000000010871
 31
0.0
  0
LINE
  5
10BC
  8
0
 10
637.2000000000000455
 20
50.000000000001009
 30
0.0
 11
637.2000000000000455
 21
46.0000000000009805
 31
0.0
  0
LINE
  5
10BD
  8
0
 10
242.7846096908251923
 20
70.0000000000002984
 30
0.0
 11
257.9999999999990905
 21
70.0000000000002984
 31
0.0
  0
ARC
  5
10BE
  8
0
 10
257.9999999999990905
 20
77.0000000000002984
 30
0.0
 40
7.0
 50
270.0
 51
0.0
  0
LINE
  5
10BF
  8
0
 10
264.9999999999990905
 20
85.0000000000002984
 30
0.0
 11
264.9999999999990905
 21
77.0000000000002984
 31
0.0
  0
LINE
  5
10C0
  8
0
 10
268.5857864376266093
 20
85.0000000000002984
 30
0.0
 11
264.9999999999990905
 21
85.0000000000002984
 31
0.0
  0
LINE
  5
10C1
  8
0
 10
269.6464466094067234
 20
83.9393398282207812
 30
0.0
 11
268.5857864376266093
 21
85.0000000000002984
 31
0.0
  0
LINE
  5
10C2
  8
0
 10
271.0606601717790909
 20
85.3535533905936603
 30
0.0
 11
269.6464466094067234
 21
83.9393398282207812
 31
0.0
  0
LINE
  5
10C3
  8
0
 10
269.9999999999990905
 20
86.4142135623734617
 30
0.0
 11
271.0606601717790909
 21
85.3535533905936603
 31
0.0
  0
LINE
  5
10C4
  8
0
 10
269.9999999999990905
 20
86.4142135623734617
 30
0.0
 11
269.9999999999990905
 21
93.5000000000002842
 31
0.0
  0
LINE
  5
10C5
  8
0
 10
269.9999999999990905
 20
93.5000000000002842
 30
0.0
 11
294.9999999999990905
 21
93.5000000000002842
 31
0.0
  0
LINE
  5
10C6
  8
0
 10
294.9999999999990905
 20
93.5000000000002842
 30
0.0
 11
294.9699999999992883
 21
56.3000000000004235
 31
0.0
  0
LINE
  5
10C7
  8
0
 10
288.4999999999990905
 20
56.3000000000004235
 30
0.0
 11
294.9699999999992883
 21
56.3000000000004235
 31
0.0
  0
LINE
  5
10C8
  8
0
 10
288.4999999999990905
 20
50.0000000000004121
 30
0.0
 11
288.4999999999990905
 21
56.3000000000004235
 31
0.0
  0
LINE
  5
10C9
  8
0
 10
222.0
 20
50.0000000000001492
 30
0.0
 11
288.4999999999990905
 21
50.0000000000004121
 31
0.0
  0
LINE
  5
10CA
  8
0
 10
233.9999999999990905
 20
64.9282032302757131
 30
0.0
 11
233.9999999999990905
 21
50.0000000000002132
 31
0.0
  0
LINE
  5
10CB
  8
0
 10
222.0
 20
58.0000000000002416
 30
0.0
 11
242.7846096908251923
 21
70.0000000000002984
 31
0.0
  0
CIRCLE
  5
10CC
  8
3
 10
283.4999999999990905
 20
72.5000000000002984
 30
0.0
 40
4.0
  0
LINE
  5
10CD
  8
0
 10
222.0
 20
50.0000000000001492
 30
0.0
 11
222.0
 21
58.0000000000002416
 31
0.0
  0
LINE
  5
10CE
  8
0
 10
243.0
 20
46.0000000000002913
 30
0.0
 11
260.9999999999990905
 21
46.0000000000002913
 31
0.0
  0
LINE
  5
10CF
  8
0
 10
243.0
 20
50.00000000000027
 30
0.0
 11
243.0
 21
46.0000000000002913
 31
0.0
  0
LINE
  5
10D0
  8
0
 10
260.9999999999990905
 20
50.0000000000003197
 30
0.0
 11
260.9999999999990905
 21
46.0000000000002913
 31
0.0
  0
LINE
  5
10D1
  8
0
 10
146.4999999999998863
 20
271.2153903091733014
 30
0.0
 11
138.4999999999998863
 21
271.2153903091733014
 31
0.0
  0
LINE
  5
10D2
  8
0
 10
138.4999999999998863
 20
291.9999999999993747
 30
0.0
 11
182.0
 21
291.9999999999993747
 31
0.0
  0
LINE
  5
10D3
  8
0
 10
146.4999999999998863
 20
271.2153903091733014
 30
0.0
 11
153.4282032302753862
 21
291.9999999999993747
 31
0.0
  0
LINE
  5
10D4
  8
0
 10
138.4999999999998863
 20
291.9999999999993747
 30
0.0
 11
138.4999999999994884
 21
133.500000000000199
 31
0.0
  0
LINE
  5
10D5
  8
0
 10
146.499999999999801
 20
154.2846096908263007
 30
0.0
 11
153.4282032302753862
 21
133.500000000000199
 31
0.0
  0
LINE
  5
10D6
  8
0
 10
146.499999999999801
 20
154.2846096908263007
 30
0.0
 11
146.4999999999998863
 21
271.2153903091733014
 31
0.0
  0
LINE
  5
10D7
  8
0
 10
158.5
 20
291.9999999999993747
 30
0.0
 11
158.5
 21
133.500000000000199
 31
0.0
  0
LINE
  5
10D8
  8
0
 10
138.4999999999998863
 20
154.2846096908263007
 30
0.0
 11
146.499999999999801
 21
154.2846096908263007
 31
0.0
  0
LINE
  5
10D9
  8
0
 10
182.0
 20
133.500000000000199
 30
0.0
 11
138.4999999999994884
 21
133.500000000000199
 31
0.0
  0
LINE
  5
10DA
  8
0
 10
138.5
 20
177.9499999999991076
 30
0.0
 11
134.5
 21
177.9499999999991076
 31
0.0
  0
LINE
  5
10DB
  8
0
 10
138.4999999999998863
 20
247.5499999999996135
 30
0.0
 11
134.5
 21
247.5499999999996135
 31
0.0
  0
LINE
  5
10DC
  8
0
 10
134.5
 20
247.5499999999996135
 30
0.0
 11
134.5
 21
177.9499999999991076
 31
0.0
  0
LINE
  5
10DF
  8
0
 10
173.5
 20
291.9999999999993747
 30
0.0
 11
173.5
 21
133.500000000000199
 31
0.0
  0
LINE
  5
10E0
  8
0
 10
173.853553390593305
 20
178.2499999999992895
 30
0.0
 11
173.853553390593305
 21
133.500000000000199
 31
0.0
  0
LINE
  5
10E1
  8
0
 10
173.8535533905933903
 20
291.9999999999993747
 30
0.0
 11
173.8535533905933903
 21
247.2499999999992895
 31
0.0
  0
LINE
  5
10E2
  8
0
 10
173.8535533905933903
 20
230.2499999999992895
 30
0.0
 11
173.853553390593305
 21
195.250000000000199
 31
0.0
  0
LINE
  5
10E3
  8
0
 10
173.5
 20
247.2500000000003126
 30
0.0
 11
182.0
 21
247.2499999999992895
 31
0.0
  0
LINE
  5
10E4
  8
0
 10
174.9142135623731065
 20
247.2499999999992895
 30
0.0
 11
174.9142135623731917
 21
291.9999999999993747
 31
0.0
  0
LINE
  5
10E5
  8
0
 10
182.0
 20
291.9999999999993747
 30
0.0
 11
182.0
 21
133.500000000000199
 31
0.0
  0
LINE
  5
10E6
  8
0
 10
174.9142135623731065
 20
195.250000000000199
 30
0.0
 11
174.9142135623731065
 21
230.2499999999992895
 31
0.0
  0
LINE
  5
10E7
  8
0
 10
173.5
 20
230.250000000000199
 30
0.0
 11
182.0
 21
230.2499999999992895
 31
0.0
  0
LINE
  5
10E8
  8
0
 10
173.4999999999998863
 20
195.2500000000011084
 30
0.0
 11
182.0
 21
195.250000000000199
 31
0.0
  0
LINE
  5
10E9
  8
0
 10
174.9142135623731065
 20
178.2499999999992895
 30
0.0
 11
174.9142135623731065
 21
133.500000000000199
 31
0.0
  0
LINE
  5
10EA
  8
0
 10
173.4999999999998863
 20
178.2499999999992895
 30
0.0
 11
182.0
 21
178.2499999999992895
 31
0.0
  0
LINE
  5
10EB
  8
0
 10
751.6999999999999318
 20
271.2153903091742109
 30
0.0
 11
744.7717967697243466
 21
292.0000000000002274
 31
0.0
  0
LINE
  5
10EC
  8
0
 10
751.6999999999999318
 20
271.2153903091742109
 30
0.0
 11
751.6999999999998181
 21
154.2846096908272102
 31
0.0
  0
LINE
  5
10ED
  8
0
 10
751.6999999999999318
 20
154.2846096908272102
 30
0.0
 11
744.7717967697243466
 21
133.500000000000199
 31
0.0
  0
LINE
  5
10EE
  8
0
 10
739.6999999999998181
 20
133.500000000000199
 30
0.0
 11
739.6999999999999318
 21
292.0000000000002274
 31
0.0
  0
LINE
  5
10EF
  8
0
 10
759.6999999999999318
 20
271.2153903091742109
 30
0.0
 11
751.6999999999999318
 21
271.2153903091742109
 31
0.0
  0
LINE
  5
10F0
  8
0
 10
751.6999999999998181
 20
154.2846096908272102
 30
0.0
 11
759.6999999999998181
 21
154.2846096908272102
 31
0.0
  0
LINE
  5
10F1
  8
0
 10
759.6999999999999318
 20
133.500000000000199
 30
0.0
 11
716.2000000000000455
 21
133.500000000000199
 31
0.0
  0
LINE
  5
10F2
  8
0
 10
759.6999999999999318
 20
133.500000000000199
 30
0.0
 11
759.6999999999995907
 21
292.0000000000002274
 31
0.0
  0
LINE
  5
10F3
  8
0
 10
716.2000000000000455
 20
292.0000000000002274
 30
0.0
 11
759.6999999999995907
 21
292.0000000000002274
 31
0.0
  0
LINE
  5
10F4
  8
0
 10
759.6999999999999318
 20
177.9500000000008981
 30
0.0
 11
763.6999999999999318
 21
177.9500000000008981
 31
0.0
  0
LINE
  5
10F5
  8
0
 10
763.6999999999999318
 20
177.9500000000008981
 30
0.0
 11
763.6999999999999318
 21
247.5500000000012903
 31
0.0
  0
LINE
  5
10F6
  8
0
 10
759.6999999999999318
 20
247.5500000000012903
 30
0.0
 11
763.6999999999999318
 21
247.5500000000012903
 31
0.0
  0
LINE
  5
10F9
  8
0
 10
724.7000000000000455
 20
133.500000000000199
 30
0.0
 11
724.7000000000000455
 21
292.0000000000002274
 31
0.0
  0
LINE
  5
10FA
  8
0
 10
724.346446609406712
 20
247.2500000000011084
 30
0.0
 11
724.346446609406712
 21
292.0000000000002274
 31
0.0
  0
LINE
  5
10FB
  8
0
 10
724.346446609406712
 20
133.500000000000199
 30
0.0
 11
724.346446609406712
 21
178.2500000000011084
 31
0.0
  0
LINE
  5
10FC
  8
0
 10
724.346446609406712
 20
195.250000000000199
 30
0.0
 11
724.346446609406712
 21
230.250000000000199
 31
0.0
  0
LINE
  5
10FD
  8
0
 10
723.285786437626939
 20
247.2500000000011084
 30
0.0
 11
723.285786437626939
 21
292.0000000000002274
 31
0.0
  0
LINE
  5
10FE
  8
0
 10
724.7000000000000455
 20
247.2500000000011084
 30
0.0
 11
716.2000000000000455
 21
247.2500000000011084
 31
0.0
  0
LINE
  5
10FF
  8
0
 10
724.7000000000000455
 20
195.250000000000199
 30
0.0
 11
716.2000000000000455
 21
195.250000000000199
 31
0.0
  0
LINE
  5
1100
  8
0
 10
724.7000000000000455
 20
230.2499999999992895
 30
0.0
 11
716.2000000000000455
 21
230.250000000000199
 31
0.0
  0
LINE
  5
1101
  8
0
 10
723.285786437626939
 20
230.250000000000199
 30
0.0
 11
723.285786437626939
 21
195.250000000000199
 31
0.0
  0
LINE
  5
1102
  8
0
 10
723.285786437626939
 20
178.2500000000011084
 30
0.0
 11
723.285786437626939
 21
133.500000000000199
 31
0.0
  0
LINE
  5
1103
  8
0
 10
724.7000000000000455
 20
178.2500000000011084
 30
0.0
 11
716.2000000000000455
 21
178.2500000000011084
 31
0.0
  0
LINE
  5
1104
  8
0
 10
716.2000000000000455
 20
133.500000000000199
 30
0.0
 11
716.2000000000000455
 21
292.0000000000002274
 31
0.0
  0
LINE
  5
1105
  8
1
 10
185.0
 20
238.7499999999992895
 30
0.0
 11
114.8999999999999062
 21
238.7499999999994031
 31
0.0
  0
LINE
  5
1106
  8
1
 10
187.0
 20
212.7499999999992895
 30
0.0
 11
129.5
 21
212.7499999999994031
 31
0.0
  0
LINE
  5
1107
  8
1
 10
185.0
 20
186.7499999999992895
 30
0.0
 11
114.8999999999998067
 21
186.7499999999994031
 31
0.0
  0
CIRCLE
  5
1108
  8
0
 10
623.2000000000000455
 20
238.7500000000003126
 30
0.0
 40
8.4999999999998028
  0
CIRCLE
  5
1109
  8
0
 10
646.199999999999136
 20
238.7500000000003126
 30
0.0
 40
8.5000000000000142
  0
CIRCLE
  5
110A
  8
0
 10
623.2000000000000455
 20
186.7500000000003126
 30
0.0
 40
8.4999999999999538
  0
CIRCLE
  5
110B
  8
0
 10
646.199999999999136
 20
186.7500000000003126
 30
0.0
 40
8.5000000000000568
  0
CIRCLE
  5
110C
  8
0
 10
275.0
 20
238.7500000000003126
 30
0.0
 40
8.5000000000004512
  0
CIRCLE
  5
110D
  8
0
 10
252.0
 20
238.7500000000003126
 30
0.0
 40
8.4999999999990905
  0
CIRCLE
  5
110E
  8
0
 10
275.0
 20
186.7500000000001137
 30
0.0
 40
8.5000000000005649
  0
CIRCLE
  5
110F
  8
0
 10
252.0
 20
186.7500000000003126
 30
0.0
 40
8.4999999999990905
  0
LINE
  5
1110
  8
1
 10
240.5000000000009095
 20
238.7500000000003126
 30
0.0
 11
286.5
 21
238.7500000000003126
 31
0.0
  0
LINE
  5
1111
  8
1
 10
252.0
 20
250.2499999999994031
 30
0.0
 11
252.0
 21
227.2500000000011937
 31
0.0
  0
LINE
  5
1112
  8
1
 10
275.0
 20
250.2500000000007105
 30
0.0
 11
275.0
 21
227.249999999999801
 31
0.0
  0
LINE
  5
1113
  8
1
 10
240.5000000000009095
 20
186.7500000000003979
 30
0.0
 11
286.5
 21
186.7500000000003126
 31
0.0
  0
LINE
  5
1114
  8
1
 10
252.0
 20
175.2500000000013074
 30
0.0
 11
252.0
 21
198.2499999999994031
 31
0.0
  0
LINE
  5
1115
  8
1
 10
275.0
 20
175.249999999999801
 30
0.0
 11
275.0
 21
198.2500000000007105
 31
0.0
  0
LINE
  5
1116
  8
1
 10
657.699999999997317
 20
238.7500000000003126
 30
0.0
 11
611.6999999999982265
 21
238.7500000000003126
 31
0.0
  0
LINE
  5
1117
  8
1
 10
646.1999999999981128
 20
250.2499999999994031
 30
0.0
 11
646.1999999999981128
 21
227.2500000000011937
 31
0.0
  0
LINE
  5
1118
  8
1
 10
623.1999999999982265
 20
250.2500000000007105
 30
0.0
 11
623.1999999999982265
 21
227.249999999999801
 31
0.0
  0
LINE
  5
1119
  8
1
 10
657.699999999997317
 20
186.7500000000003979
 30
0.0
 11
611.6999999999982265
 21
186.7500000000003126
 31
0.0
  0
LINE
  5
111A
  8
1
 10
646.1999999999981128
 20
175.2500000000013074
 30
0.0
 11
646.1999999999981128
 21
198.2499999999994031
 31
0.0
  0
LINE
  5
111B
  8
1
 10
623.1999999999982265
 20
175.249999999999801
 30
0.0
 11
623.1999999999982265
 21
198.2500000000007105
 31
0.0
  0
LINE
  5
111C
  8
1
 10
713.2000000000007276
 20
238.750000000000199
 30
0.0
 11
783.300000000000864
 21
238.750000000000199
 31
0.0
  0
LINE
  5
111D
  8
1
 10
711.2000000000007276
 20
215.4999999999982947
 30
0.0
 11
768.7000000000007276
 21
215.4999999999982947
 31
0.0
  0
LINE
  5
111E
  8
1
 10
713.2000000000007276
 20
186.750000000000199
 30
0.0
 11
783.300000000000864
 21
186.750000000000199
 31
0.0
  0
LINE
  5
111F
  8
1
 10
275.0
 20
96.5000000000002984
 30
0.0
 11
275.0000000000002274
 21
31.00000000000027
 31
0.0
  0
LINE
  5
1120
  8
1
 10
252.0
 20
72.7500000000002984
 30
0.0
 11
252.0
 21
26.4000000000001585
 31
0.0
  0
CIRCLE
  5
1121
  8
0
 10
283.4999999999990905
 20
72.5000000000002984
 30
0.0
 40
3.3235000000000001
  0
LINE
  5
1122
  8
1
 10
276.4999999999990905
 20
72.5000000000002984
 30
0.0
 11
290.4999999999990905
 21
72.5000000000002984
 31
0.0
  0
LINE
  5
1123
  8
1
 10
283.4999999999990905
 20
79.5000000000002984
 30
0.0
 11
283.4999999999990905
 21
65.5000000000002984
 31
0.0
  0
LINE
  5
1124
  8
1
 10
623.1999999999982265
 20
96.5000000000002984
 30
0.0
 11
623.1999999999978854
 21
31.0000000000001315
 31
0.0
  0
LINE
  5
1125
  8
1
 10
646.1999999999981128
 20
72.7500000000002984
 30
0.0
 11
646.1999999999981128
 21
26.4000000000001585
 31
0.0
  0
CIRCLE
  5
1126
  8
0
 10
614.699999999999136
 20
72.5000000000002984
 30
0.0
 40
3.3235000000000001
  0
LINE
  5
1127
  8
1
 10
621.699999999999136
 20
72.5000000000002984
 30
0.0
 11
607.699999999999136
 21
72.5000000000002984
 31
0.0
  0
LINE
  5
1128
  8
1
 10
614.699999999999136
 20
79.5000000000002984
 30
0.0
 11
614.699999999999136
 21
65.5000000000002984
 31
0.0
  0
LINE
  5
1136
  8
1
 10
299.9999999999990905
 20
212.7500000000003126
 30
0.0
 11
217.0
 21
212.7500000000003126
 31
0.0
  0
LINE
  5
1137
  8
1
 10
598.199999999999136
 20
212.7500000000003126
 30
0.0
 11
681.2000000000000455
 21
212.7500000000003126
 31
0.0
  0
LINE
  5
1317
  8
0
 10
270.3811978464827916
 20
238.750000000000199
 30
0.0
 11
272.6905989232413958
 21
234.750000000000199
 31
0.0
  0
LINE
  5
1318
  8
0
 10
272.6905989232413958
 20
234.750000000000199
 30
0.0
 11
277.3094010767586042
 21
234.750000000000199
 31
0.0
  0
LINE
  5
1319
  8
0
 10
277.3094010767586042
 20
234.750000000000199
 30
0.0
 11
279.6188021535170947
 21
238.750000000000199
 31
0.0
  0
LINE
  5
131A
  8
0
 10
279.6188021535170947
 20
238.750000000000199
 30
0.0
 11
277.3094010767586042
 21
242.7500000000001137
 31
0.0
  0
LINE
  5
131B
  8
0
 10
277.3094010767586042
 20
242.7500000000001137
 30
0.0
 11
272.6905989232413958
 21
242.7500000000001137
 31
0.0
  0
LINE
  5
131C
  8
0
 10
272.6905989232413958
 20
242.7500000000001137
 30
0.0
 11
270.3811978464827916
 21
238.750000000000199
 31
0.0
  0
CIRCLE
  5
131D
  8
0
 10
275.0
 20
238.750000000000199
 30
0.0
 40
8.0000000000002274
  0
LINE
  5
131E
  8
0
 10
270.3811978464827916
 20
186.75
 30
0.0
 11
272.6905989232413958
 21
182.75
 31
0.0
  0
LINE
  5
131F
  8
0
 10
272.6905989232413958
 20
182.75
 30
0.0
 11
277.3094010767586042
 21
182.75
 31
0.0
  0
LINE
  5
1320
  8
0
 10
277.3094010767586042
 20
182.75
 30
0.0
 11
279.6188021535170947
 21
186.7500000000001137
 31
0.0
  0
LINE
  5
1321
  8
0
 10
279.6188021535170947
 20
186.7500000000001137
 30
0.0
 11
277.3094010767586042
 21
190.750000000000199
 31
0.0
  0
LINE
  5
1322
  8
0
 10
277.3094010767586042
 20
190.750000000000199
 30
0.0
 11
272.6905989232413958
 21
190.750000000000199
 31
0.0
  0
LINE
  5
1323
  8
0
 10
272.6905989232413958
 20
190.750000000000199
 30
0.0
 11
270.3811978464827916
 21
186.75
 31
0.0
  0
CIRCLE
  5
1324
  8
0
 10
275.0
 20
186.7500000000001137
 30
0.0
 40
8.0000000000002274
  0
LINE
  5
1325
  8
0
 10
256.618802153516981
 20
238.7500000000003979
 30
0.0
 11
254.3094010767584052
 21
242.7500000000005116
 31
0.0
  0
LINE
  5
1326
  8
0
 10
254.3094010767584052
 20
242.7500000000005116
 30
0.0
 11
249.6905989232415095
 21
242.7500000000005116
 31
0.0
  0
LINE
  5
1327
  8
0
 10
249.6905989232415095
 20
242.7500000000005116
 30
0.0
 11
247.3811978464827916
 21
238.7500000000003979
 31
0.0
  0
LINE
  5
1328
  8
0
 10
247.3811978464827916
 20
238.7500000000003979
 30
0.0
 11
249.6905989232413958
 21
234.7500000000003979
 31
0.0
  0
LINE
  5
1329
  8
0
 10
249.6905989232413958
 20
234.7500000000003979
 30
0.0
 11
254.3094010767586894
 21
234.7500000000003979
 31
0.0
  0
LINE
  5
132A
  8
0
 10
254.3094010767586894
 20
234.7500000000003979
 30
0.0
 11
256.618802153516981
 21
238.7500000000003979
 31
0.0
  0
CIRCLE
  5
132B
  8
0
 10
251.999999999999801
 20
238.7500000000003126
 30
0.0
 40
8.0000000000001705
  0
LINE
  5
132C
  8
0
 10
256.618802153516981
 20
186.7500000000003979
 30
0.0
 11
254.3094010767584052
 21
190.7500000000003979
 31
0.0
  0
LINE
  5
132D
  8
0
 10
254.3094010767584052
 20
190.7500000000003979
 30
0.0
 11
249.6905989232415095
 21
190.7500000000005116
 31
0.0
  0
LINE
  5
132E
  8
0
 10
249.6905989232415095
 20
190.7500000000005116
 30
0.0
 11
247.3811978464827916
 21
186.7500000000003979
 31
0.0
  0
LINE
  5
132F
  8
0
 10
247.3811978464827916
 20
186.7500000000003979
 30
0.0
 11
249.6905989232413958
 21
182.7500000000003126
 31
0.0
  0
LINE
  5
1330
  8
0
 10
249.6905989232413958
 20
182.7500000000003126
 30
0.0
 11
254.3094010767586894
 21
182.7500000000003979
 31
0.0
  0
LINE
  5
1331
  8
0
 10
254.3094010767586894
 20
182.7500000000003979
 30
0.0
 11
256.618802153516981
 21
186.7500000000003979
 31
0.0
  0
CIRCLE
  5
1332
  8
0
 10
251.999999999999801
 20
186.7500000000001137
 30
0.0
 40
8.0000000000001705
  0
LINE
  5
1333
  8
0
 10
641.5811978464810181
 20
238.750000000000199
 30
0.0
 11
643.8905989232396223
 21
234.750000000000199
 31
0.0
  0
LINE
  5
1334
  8
0
 10
643.8905989232396223
 20
234.750000000000199
 30
0.0
 11
648.5094010767568307
 21
234.750000000000199
 31
0.0
  0
LINE
  5
1335
  8
0
 10
648.5094010767568307
 20
234.750000000000199
 30
0.0
 11
650.8188021535153212
 21
238.750000000000199
 31
0.0
  0
LINE
  5
1336
  8
0
 10
650.8188021535153212
 20
238.750000000000199
 30
0.0
 11
648.5094010767568307
 21
242.7500000000001137
 31
0.0
  0
LINE
  5
1337
  8
0
 10
648.5094010767568307
 20
242.7500000000001137
 30
0.0
 11
643.8905989232396223
 21
242.7500000000001137
 31
0.0
  0
LINE
  5
1338
  8
0
 10
643.8905989232396223
 20
242.7500000000001137
 30
0.0
 11
641.5811978464810181
 21
238.750000000000199
 31
0.0
  0
CIRCLE
  5
1339
  8
0
 10
646.1999999999981128
 20
238.750000000000199
 30
0.0
 40
8.0000000000002274
  0
LINE
  5
133A
  8
0
 10
641.5811978464810181
 20
186.75
 30
0.0
 11
643.8905989232396223
 21
182.75
 31
0.0
  0
LINE
  5
133B
  8
0
 10
643.8905989232396223
 20
182.75
 30
0.0
 11
648.5094010767568307
 21
182.75
 31
0.0
  0
LINE
  5
133C
  8
0
 10
648.5094010767568307
 20
182.75
 30
0.0
 11
650.8188021535153212
 21
186.7500000000001137
 31
0.0
  0
LINE
  5
133D
  8
0
 10
650.8188021535153212
 20
186.7500000000001137
 30
0.0
 11
648.5094010767568307
 21
190.750000000000199
 31
0.0
  0
LINE
  5
133E
  8
0
 10
648.5094010767568307
 20
190.750000000000199
 30
0.0
 11
643.8905989232396223
 21
190.750000000000199
 31
0.0
  0
LINE
  5
133F
  8
0
 10
643.8905989232396223
 20
190.750000000000199
 30
0.0
 11
641.5811978464810181
 21
186.75
 31
0.0
  0
CIRCLE
  5
1340
  8
0
 10
646.1999999999981128
 20
186.7500000000001137
 30
0.0
 40
8.0000000000002274
  0
LINE
  5
1341
  8
0
 10
627.8188021535152075
 20
238.7500000000003979
 30
0.0
 11
625.5094010767566033
 21
242.7500000000005116
 31
0.0
  0
LINE
  5
1342
  8
0
 10
625.5094010767566033
 20
242.7500000000005116
 30
0.0
 11
620.890598923239736
 21
242.7500000000005116
 31
0.0
  0
LINE
  5
1343
  8
0
 10
620.890598923239736
 20
242.7500000000005116
 30
0.0
 11
618.5811978464810181
 21
238.7500000000003979
 31
0.0
  0
LINE
  5
1344
  8
0
 10
618.5811978464810181
 20
238.7500000000003979
 30
0.0
 11
620.8905989232396223
 21
234.7500000000003979
 31
0.0
  0
LINE
  5
1345
  8
0
 10
620.8905989232396223
 20
234.7500000000003979
 30
0.0
 11
625.5094010767569443
 21
234.7500000000003979
 31
0.0
  0
LINE
  5
1346
  8
0
 10
625.5094010767569443
 20
234.7500000000003979
 30
0.0
 11
627.8188021535152075
 21
238.7500000000003979
 31
0.0
  0
CIRCLE
  5
1347
  8
0
 10
623.1999999999978854
 20
238.7500000000003126
 30
0.0
 40
8.0000000000001705
  0
LINE
  5
1348
  8
0
 10
627.8188021535152075
 20
186.7500000000003979
 30
0.0
 11
625.5094010767566033
 21
190.7500000000003979
 31
0.0
  0
LINE
  5
1349
  8
0
 10
625.5094010767566033
 20
190.7500000000003979
 30
0.0
 11
620.890598923239736
 21
190.7500000000005116
 31
0.0
  0
LINE
  5
134A
  8
0
 10
620.890598923239736
 20
190.7500000000005116
 30
0.0
 11
618.5811978464810181
 21
186.7500000000003979
 31
0.0
  0
LINE
  5
134B
  8
0
 10
618.5811978464810181
 20
186.7500000000003979
 30
0.0
 11
620.8905989232396223
 21
182.7500000000003126
 31
0.0
  0
LINE
  5
134C
  8
0
 10
620.8905989232396223
 20
182.7500000000003126
 30
0.0
 11
625.5094010767569443
 21
182.7500000000003979
 31
0.0
  0
LINE
  5
134D
  8
0
 10
625.5094010767569443
 20
182.7500000000003979
 30
0.0
 11
627.8188021535152075
 21
186.7500000000003979
 31
0.0
  0
CIRCLE
  5
134E
  8
0
 10
623.1999999999978854
 20
186.7500000000001137
 30
0.0
 40
8.0000000000001705
  0
LINE
  5
1414
  8
0
 10
778.8000000000000682
 20
191.750000000000199
 30
0.0
 11
778.8000000000000682
 21
181.750000000000199
 31
0.0
  0
LINE
  5
1415
  8
0
 10
780.2999999999999545
 20
183.250000000000199
 30
0.0
 11
778.8000000000000682
 21
181.750000000000199
 31
0.0
  0
LINE
  5
1416
  8
0
 10
778.8000000000000682
 20
191.750000000000199
 30
0.0
 11
780.2999999999999545
 21
190.250000000000199
 31
0.0
  0
LINE
  5
1417
  8
0
 10
763.6999999999999318
 20
191.7500000000003126
 30
0.0
 11
778.8000000000000682
 21
191.750000000000199
 31
0.0
  0
LINE
  5
1418
  8
3
 10
763.6999999999999318
 20
190.9380000000003008
 30
0.0
 11
779.6119999999999663
 21
190.9380000000003008
 31
0.0
  0
LINE
  5
1419
  8
3
 10
763.6999999999999318
 20
182.5620000000000118
 30
0.0
 11
779.6119999999999663
 21
182.5620000000000971
 31
0.0
  0
LINE
  5
141A
  8
0
 10
763.6999999999999318
 20
181.750000000000199
 30
0.0
 11
778.8000000000000682
 21
181.750000000000199
 31
0.0
  0
LINE
  5
141B
  8
0
 10
780.2999999999999545
 20
190.250000000000199
 30
0.0
 11
780.2999999999999545
 21
183.250000000000199
 31
0.0
  0
LINE
  5
141E
  8
0
 10
778.8000000000000682
 20
243.750000000000199
 30
0.0
 11
778.8000000000000682
 21
233.750000000000199
 31
0.0
  0
LINE
  5
141F
  8
0
 10
780.2999999999999545
 20
235.250000000000199
 30
0.0
 11
778.8000000000000682
 21
233.750000000000199
 31
0.0
  0
LINE
  5
1420
  8
0
 10
778.8000000000000682
 20
243.750000000000199
 30
0.0
 11
780.2999999999999545
 21
242.250000000000199
 31
0.0
  0
LINE
  5
1421
  8
0
 10
763.6999999999999318
 20
243.7500000000003126
 30
0.0
 11
778.8000000000000682
 21
243.750000000000199
 31
0.0
  0
LINE
  5
1422
  8
3
 10
763.6999999999999318
 20
242.9380000000003008
 30
0.0
 11
779.6119999999999663
 21
242.9380000000003008
 31
0.0
  0
LINE
  5
1423
  8
3
 10
763.6999999999999318
 20
234.5620000000000118
 30
0.0
 11
779.6119999999999663
 21
234.5620000000000971
 31
0.0
  0
LINE
  5
1424
  8
0
 10
763.6999999999999318
 20
233.750000000000199
 30
0.0
 11
778.8000000000000682
 21
233.750000000000199
 31
0.0
  0
LINE
  5
1425
  8
0
 10
780.2999999999999545
 20
242.250000000000199
 30
0.0
 11
780.2999999999999545
 21
235.250000000000199
 31
0.0
  0
LINE
  5
1426
  8
0
 10
651.1999999999982265
 20
30.9000000000009791
 30
0.0
 11
641.1999999999982265
 21
30.9000000000009791
 31
0.0
  0
LINE
  5
1427
  8
0
 10
642.6999999999982265
 20
29.4000000000009685
 30
0.0
 11
641.1999999999982265
 21
30.9000000000009791
 31
0.0
  0
LINE
  5
1428
  8
0
 10
651.1999999999982265
 20
30.9000000000009791
 30
0.0
 11
649.6999999999982265
 21
29.4000000000009685
 31
0.0
  0
LINE
  5
1429
  8
0
 10
651.1999999999983402
 20
46.0000000000011013
 30
0.0
 11
651.1999999999982265
 21
30.9000000000009791
 31
0.0
  0
LINE
  5
142A
  8
3
 10
650.3879999999983283
 20
46.0000000000011013
 30
0.0
 11
650.3879999999983283
 21
30.0880000000010703
 31
0.0
  0
LINE
  5
142B
  8
3
 10
642.0119999999980109
 20
46.0000000000011013
 30
0.0
 11
642.0119999999981246
 21
30.0880000000010703
 31
0.0
  0
LINE
  5
142C
  8
0
 10
641.1999999999982265
 20
46.0000000000011013
 30
0.0
 11
641.1999999999982265
 21
30.9000000000009791
 31
0.0
  0
LINE
  5
142D
  8
0
 10
649.6999999999982265
 20
29.4000000000009685
 30
0.0
 11
642.6999999999982265
 21
29.4000000000009685
 31
0.0
  0
LINE
  5
142E
  8
0
 10
628.1999999999979991
 20
35.5000000000002984
 30
0.0
 11
618.1999999999978854
 21
35.5000000000002984
 31
0.0
  0
LINE
  5
142F
  8
0
 10
619.6999999999979991
 20
34.0000000000002984
 30
0.0
 11
618.1999999999978854
 21
35.5000000000002984
 31
0.0
  0
LINE
  5
1430
  8
0
 10
628.1999999999979991
 20
35.5000000000002984
 30
0.0
 11
626.6999999999978854
 21
34.0000000000002984
 31
0.0
  0
LINE
  5
1431
  8
0
 10
628.1999999999979991
 20
50.0000000000009592
 30
0.0
 11
628.1999999999979991
 21
35.5000000000002984
 31
0.0
  0
LINE
  5
1432
  8
3
 10
627.387999999998101
 20
50.0000000000009521
 30
0.0
 11
627.387999999998101
 21
34.6880000000004003
 31
0.0
  0
LINE
  5
1433
  8
3
 10
619.0119999999976699
 20
50.0000000000009166
 30
0.0
 11
619.0119999999977836
 21
34.6880000000004003
 31
0.0
  0
LINE
  5
1434
  8
0
 10
618.1999999999978854
 20
50.0000000000009308
 30
0.0
 11
618.1999999999978854
 21
35.5000000000002984
 31
0.0
  0
LINE
  5
1435
  8
0
 10
626.6999999999978854
 20
34.0000000000002984
 30
0.0
 11
619.6999999999979991
 21
34.0000000000002984
 31
0.0
  0
LINE
  5
1436
  8
0
 10
257.0
 20
30.9000000000009685
 30
0.0
 11
247.0
 21
30.9000000000009685
 31
0.0
  0
LINE
  5
1437
  8
0
 10
248.5
 20
29.4000000000009685
 30
0.0
 11
247.0
 21
30.9000000000009685
 31
0.0
  0
LINE
  5
1438
  8
0
 10
257.0
 20
30.9000000000009685
 30
0.0
 11
255.5
 21
29.4000000000009685
 31
0.0
  0
LINE
  5
1439
  8
0
 10
257.0000000000001137
 20
46.0000000000011013
 30
0.0
 11
257.0
 21
30.9000000000009685
 31
0.0
  0
LINE
  5
143A
  8
3
 10
256.1880000000001019
 20
46.0000000000011013
 30
0.0
 11
256.1880000000001019
 21
30.0880000000010703
 31
0.0
  0
LINE
  5
143B
  8
3
 10
247.8119999999998129
 20
46.0000000000011013
 30
0.0
 11
247.8119999999998981
 21
30.0880000000010703
 31
0.0
  0
LINE
  5
143C
  8
0
 10
247.0
 20
46.0000000000011013
 30
0.0
 11
247.0
 21
30.9000000000009685
 31
0.0
  0
LINE
  5
143D
  8
0
 10
255.5
 20
29.4000000000009685
 30
0.0
 11
248.5
 21
29.4000000000009685
 31
0.0
  0
LINE
  5
143E
  8
0
 10
280.0000000000002274
 20
35.5000000000002984
 30
0.0
 11
270.0000000000002274
 21
35.5000000000002984
 31
0.0
  0
LINE
  5
143F
  8
0
 10
271.5000000000002274
 20
34.0000000000002984
 30
0.0
 11
270.0000000000002274
 21
35.5000000000002984
 31
0.0
  0
LINE
  5
1440
  8
0
 10
280.0000000000002274
 20
35.5000000000002984
 30
0.0
 11
278.5000000000002274
 21
34.0000000000002984
 31
0.0
  0
LINE
  5
1441
  8
0
 10
280.0000000000002842
 20
50.0000000000009592
 30
0.0
 11
280.0000000000002274
 21
35.5000000000002984
 31
0.0
  0
LINE
  5
1442
  8
3
 10
279.1880000000002724
 20
50.0000000000009521
 30
0.0
 11
279.1880000000002724
 21
34.6880000000004003
 31
0.0
  0
LINE
  5
1443
  8
3
 10
270.8120000000000118
 20
50.0000000000009166
 30
0.0
 11
270.8120000000001255
 21
34.6880000000004003
 31
0.0
  0
LINE
  5
1444
  8
0
 10
270.0000000000002274
 20
50.0000000000009308
 30
0.0
 11
270.0000000000002274
 21
35.5000000000002984
 31
0.0
  0
LINE
  5
1445
  8
0
 10
278.5000000000002274
 20
34.0000000000002984
 30
0.0
 11
271.5000000000002274
 21
34.0000000000002984
 31
0.0
  0
LINE
  5
1446
  8
0
 10
119.400000000000702
 20
233.7499999999994031
 30
0.0
 11
119.400000000000702
 21
243.7499999999994031
 31
0.0
  0
LINE
  5
1447
  8
0
 10
117.900000000000702
 20
242.2499999999994031
 30
0.0
 11
119.400000000000702
 21
243.7499999999994031
 31
0.0
  0
LINE
  5
1448
  8
0
 10
119.400000000000702
 20
233.7499999999994031
 30
0.0
 11
117.900000000000702
 21
235.2499999999994031
 31
0.0
  0
LINE
  5
1449
  8
0
 10
134.5000000000007958
 20
233.7499999999992895
 30
0.0
 11
119.400000000000702
 21
233.7499999999994031
 31
0.0
  0
LINE
  5
144A
  8
3
 10
134.5000000000007958
 20
234.5619999999993013
 30
0.0
 11
118.5880000000008039
 21
234.5619999999993013
 31
0.0
  0
LINE
  5
144B
  8
3
 10
134.5000000000007958
 20
242.9379999999995903
 30
0.0
 11
118.5880000000008039
 21
242.937999999999505
 31
0.0
  0
LINE
  5
144C
  8
0
 10
134.5000000000007958
 20
243.7499999999994031
 30
0.0
 11
119.400000000000702
 21
243.7499999999994031
 31
0.0
  0
LINE
  5
144D
  8
0
 10
117.900000000000702
 20
235.2499999999994031
 30
0.0
 11
117.900000000000702
 21
242.2499999999994031
 31
0.0
  0
LINE
  5
144E
  8
0
 10
119.400000000000702
 20
181.7499999999992895
 30
0.0
 11
119.400000000000702
 21
191.7499999999994031
 31
0.0
  0
LINE
  5
144F
  8
0
 10
117.9000000000006025
 20
190.2499999999994031
 30
0.0
 11
119.400000000000702
 21
191.7499999999994031
 31
0.0
  0
LINE
  5
1450
  8
0
 10
119.400000000000702
 20
181.7499999999992895
 30
0.0
 11
117.9000000000006025
 21
183.2499999999994031
 31
0.0
  0
LINE
  5
1451
  8
0
 10
134.5000000000007958
 20
181.7499999999992042
 30
0.0
 11
119.400000000000702
 21
181.7499999999992895
 31
0.0
  0
LINE
  5
1452
  8
3
 10
134.5000000000007958
 20
182.5619999999991876
 30
0.0
 11
118.5880000000008039
 21
182.5619999999991876
 31
0.0
  0
LINE
  5
1453
  8
3
 10
134.5000000000007958
 20
190.9379999999995903
 30
0.0
 11
118.5880000000008039
 21
190.937999999999505
 31
0.0
  0
LINE
  5
1454
  8
0
 10
134.5000000000007958
 20
191.7499999999994031
 30
0.0
 11
119.400000000000702
 21
191.7499999999994031
 31
0.0
  0
LINE
  5
1455
  8
0
 10
117.9000000000006025
 20
183.2499999999994031
 30
0.0
 11
117.9000000000006025
 21
190.2499999999994031
 31
0.0
  0
LINE
  5
1494
  8
0
 10
378.4999999999989768
 20
133.5000000000003126
 30
0.0
 11
334.9999999999990905
 21
133.5000000000003126
 31
0.0
  0
LINE
  5
1495
  8
0
 10
378.4999999999989768
 20
133.5000000000003126
 30
0.0
 11
378.4999999999988063
 21
292.0000000000002842
 31
0.0
  0
LINE
  5
1496
  8
0
 10
334.9999999999990905
 20
292.0000000000002842
 30
0.0
 11
378.4999999999988063
 21
292.0000000000002842
 31
0.0
  0
LINE
  5
1497
  8
0
 10
378.4999999999989768
 20
177.9500000000010118
 30
0.0
 11
382.4999999999989768
 21
177.9500000000010118
 31
0.0
  0
LINE
  5
1498
  8
0
 10
382.4999999999989768
 20
177.9500000000010118
 30
0.0
 11
382.4999999999989768
 21
181.750000000000199
 31
0.0
  0
LINE
  5
1499
  8
0
 10
378.4999999999989768
 20
247.550000000001404
 30
0.0
 11
382.4999999999989768
 21
247.550000000001404
 31
0.0
  0
LINE
  5
14A7
  8
0
 10
334.9999999999990905
 20
133.5000000000003126
 30
0.0
 11
334.9999999999990905
 21
292.0000000000002842
 31
0.0
  0
LINE
  5
14A8
  8
1
 10
331.9999999999997726
 20
238.7500000000003126
 30
0.0
 11
402.0999999999999091
 21
238.7500000000003126
 31
0.0
  0
LINE
  5
14A9
  8
1
 10
329.9999999999997726
 20
215.4999999999982947
 30
0.0
 11
387.4999999999997726
 21
215.4999999999982947
 31
0.0
  0
LINE
  5
14AA
  8
1
 10
331.9999999999997726
 20
186.7500000000003126
 30
0.0
 11
402.0999999999999091
 21
186.7500000000003126
 31
0.0
  0
LINE
  5
14AB
  8
0
 10
397.5999999999991132
 20
191.7500000000003126
 30
0.0
 11
397.5999999999991132
 21
181.750000000000199
 31
0.0
  0
LINE
  5
14AC
  8
0
 10
399.0999999999991132
 20
183.2500000000003126
 30
0.0
 11
397.5999999999991132
 21
181.750000000000199
 31
0.0
  0
LINE
  5
14AD
  8
0
 10
397.5999999999991132
 20
191.7500000000003126
 30
0.0
 11
399.0999999999991132
 21
190.2500000000003126
 31
0.0
  0
LINE
  5
14AE
  8
0
 10
378.49999999999892
 20
191.7500000000003979
 30
0.0
 11
397.5999999999991132
 21
191.7500000000003126
 31
0.0
  0
LINE
  5
14AF
  8
3
 10
378.49999999999892
 20
190.9380000000003861
 30
0.0
 11
398.4119999999990114
 21
190.9380000000003861
 31
0.0
  0
LINE
  5
14B0
  8
3
 10
378.49999999999892
 20
182.5620000000000118
 30
0.0
 11
398.4119999999990114
 21
182.5620000000002108
 31
0.0
  0
LINE
  5
14B1
  8
0
 10
378.49999999999892
 20
181.750000000000199
 30
0.0
 11
397.5999999999991132
 21
181.750000000000199
 31
0.0
  0
LINE
  5
14B2
  8
0
 10
399.0999999999991132
 20
190.2500000000003126
 30
0.0
 11
399.0999999999991132
 21
183.2500000000003126
 31
0.0
  0
LINE
  5
14B3
  8
0
 10
397.5999999999991132
 20
243.7500000000003126
 30
0.0
 11
397.5999999999991132
 21
233.7500000000003126
 31
0.0
  0
LINE
  5
14B4
  8
0
 10
399.0999999999991132
 20
235.2500000000003126
 30
0.0
 11
397.5999999999991132
 21
233.7500000000003126
 31
0.0
  0
LINE
  5
14B5
  8
0
 10
397.5999999999991132
 20
243.7500000000003126
 30
0.0
 11
399.0999999999991132
 21
242.2500000000003126
 31
0.0
  0
LINE
  5
14B6
  8
0
 10
378.49999999999892
 20
243.7500000000003979
 30
0.0
 11
397.5999999999991132
 21
243.7500000000003126
 31
0.0
  0
LINE
  5
14B7
  8
3
 10
378.4999999999988063
 20
242.9380000000003861
 30
0.0
 11
398.4119999999990114
 21
242.9380000000003861
 31
0.0
  0
LINE
  5
14B8
  8
3
 10
378.49999999999892
 20
234.5620000000000118
 30
0.0
 11
398.4119999999990114
 21
234.5620000000002108
 31
0.0
  0
LINE
  5
14B9
  8
0
 10
378.49999999999892
 20
233.7500000000003126
 30
0.0
 11
397.5999999999991132
 21
233.7500000000003126
 31
0.0
  0
LINE
  5
14BA
  8
0
 10
399.0999999999991132
 20
242.2500000000003126
 30
0.0
 11
399.0999999999991132
 21
235.2500000000003126
 31
0.0
  0
LINE
  5
1517
  8
0
 10
392.9999999999990905
 20
243.7500000000003126
 30
0.0
 11
392.9999999999990905
 21
233.7500000000003126
 31
0.0
  0
LINE
  5
1518
  8
0
 10
394.4999999999990905
 20
235.2500000000003126
 30
0.0
 11
392.9999999999990905
 21
233.7500000000003126
 31
0.0
  0
LINE
  5
1519
  8
0
 10
392.9999999999990905
 20
243.7500000000003126
 30
0.0
 11
394.4999999999990905
 21
242.2500000000003126
 31
0.0
  0
LINE
  5
151A
  8
0
 10
394.4999999999990905
 20
242.2500000000003126
 30
0.0
 11
394.4999999999990905
 21
235.2500000000003126
 31
0.0
  0
LINE
  5
151B
  8
0
 10
392.9999999999990905
 20
191.7500000000003126
 30
0.0
 11
392.9999999999990905
 21
181.750000000000199
 31
0.0
  0
LINE
  5
151C
  8
0
 10
394.4999999999990905
 20
183.2500000000003126
 30
0.0
 11
392.9999999999990905
 21
181.750000000000199
 31
0.0
  0
LINE
  5
151D
  8
0
 10
392.9999999999990905
 20
191.7500000000003126
 30
0.0
 11
394.4999999999990905
 21
190.2500000000003126
 31
0.0
  0
LINE
  5
151E
  8
0
 10
394.4999999999990905
 20
190.2500000000003126
 30
0.0
 11
394.4999999999990905
 21
183.2500000000003126
 31
0.0
  0
LINE
  5
151F
  8
0
 10
382.4999999999988063
 20
191.7500000000003126
 30
0.0
 11
382.49999999999892
 21
233.7500000000003126
 31
0.0
  0
LINE
  5
1520
  8
0
 10
382.4999999999988063
 20
243.7500000000003126
 30
0.0
 11
382.4999999999989768
 21
247.550000000001404
 31
0.0
  0
LINE
  5
1521
  8
0
 10
372.1999999999990223
 20
133.5000000000003126
 30
0.0
 11
372.1999999999990223
 21
292.0000000000002842
 31
0.0
  0
POLYLINE
  5
1526
  8
0
 66
     1
 10
0.0
 20
0.0
 30
0.0
  0
VERTEX
  5
1606
  8
0
 10
158.5
 20
244.7707972893952899
 30
0.0
  0
VERTEX
  5
1607
  8
0
 10
158.5135332297006983
 20
244.3014439663114103
 30
0.0
  0
VERTEX
  5
1608
  8
0
 10
158.549741362737592
 20
243.8050758791027022
 30
0.0
  0
VERTEX
  5
1609
  8
0
 10
158.6020776779072889
 20
243.2819189277724092
 30
0.0
  0
VERTEX
  5
160A
  8
0
 10
158.6647501845309023
 20
242.7316544556753968
 30
0.0
  0
VERTEX
  5
160B
  8
0
 10
158.7320879484352076
 20
242.1564356722020932
 30
0.0
  0
VERTEX
  5
160C
  8
0
 10
158.7977597577020106
 20
241.565860315020501
 30
0.0
  0
VERTEX
  5
160D
  8
0
 10
158.8571094457836068
 20
240.9609809037571893
 30
0.0
  0
VERTEX
  5
160E
  8
0
 10
158.906152299755604
 20
240.3412594938245945
 30
0.0
  0
VERTEX
  5
160F
  8
0
 10
158.9412370747018031
 20
239.707000187462711
 30
0.0
  0
VERTEX
  5
1610
  8
0
 10
158.9593434168739066
 20
239.070083447770287
 30
0.0
  0
VERTEX
  5
1611
  8
0
 10
158.9593801847138081
 20
238.4349449591011876
 30
0.0
  0
VERTEX
  5
1612
  8
0
 10
158.9414989413646992
 20
237.8015746514261934
 30
0.0
  0
VERTEX
  5
1613
  8
0
 10
158.9069117866820022
 20
237.1699773518645884
 30
0.0
  0
VERTEX
  5
1614
  8
0
 10
158.8577430049024883
 20
236.5460523034304003
 30
0.0
  0
VERTEX
  5
1615
  8
0
 10
158.7983010627175133
 20
235.9392106369874114
 30
0.0
  0
VERTEX
  5
1616
  8
0
 10
158.7327859459207957
 20
235.3496037952980089
 30
0.0
  0
VERTEX
  5
1617
  8
0
 10
158.6657486740755871
 20
234.7768702839379955
 30
0.0
  0
VERTEX
  5
1618
  8
0
 10
158.6026399130201128
 20
234.223225739907889
 30
0.0
  0
VERTEX
  5
1619
  8
0
 10
158.5499208052237066
 20
233.6968797456401035
 30
0.0
  0
VERTEX
  5
161A
  8
0
 10
158.513562464909711
 20
233.1989053507122946
 30
0.0
  0
VERTEX
  5
161B
  8
0
 10
158.4999999999998863
 20
232.729202710603488
 30
0.0
  0
SEQEND
  5
161C
  8
0
  0
POLYLINE
  5
1527
  8
0
 66
     1
 10
0.0
 20
0.0
 30
0.0
  0
VERTEX
  5
161D
  8
0
 10
158.5
 20
192.7707972893961141
 30
0.0
  0
VERTEX
  5
161E
  8
0
 10
158.5135332297006983
 20
192.3014439663110977
 30
0.0
  0
VERTEX
  5
161F
  8
0
 10
158.549741362737592
 20
191.8050758791023043
 30
0.0
  0
VERTEX
  5
1620
  8
0
 10
158.6020776779072889
 20
191.2819189277720113
 30
0.0
  0
VERTEX
  5
1621
  8
0
 10
158.6647501845309023
 20
190.7316544556757094
 30
0.0
  0
VERTEX
  5
1622
  8
0
 10
158.7320879484352076
 20
190.1564356722014111
 30
0.0
  0
VERTEX
  5
1623
  8
0
 10
158.7977597577020106
 20
189.5658603150201884
 30
0.0
  0
VERTEX
  5
1624
  8
0
 10
158.8571094457836068
 20
188.9609809037569903
 30
0.0
  0
VERTEX
  5
1625
  8
0
 10
158.906152299755604
 20
188.3412594938239124
 30
0.0
  0
VERTEX
  5
1626
  8
0
 10
158.9412370747018031
 20
187.7070001874629952
 30
0.0
  0
VERTEX
  5
1627
  8
0
 10
158.9593434168739066
 20
187.0700834477700027
 30
0.0
  0
VERTEX
  5
1628
  8
0
 10
158.9593801847138081
 20
186.4349449591013013
 30
0.0
  0
VERTEX
  5
1629
  8
0
 10
158.9414989413646992
 20
185.8015746514263924
 30
0.0
  0
VERTEX
  5
162A
  8
0
 10
158.9069117866820022
 20
185.1699773518645884
 30
0.0
  0
VERTEX
  5
162B
  8
0
 10
158.8577430049024883
 20
184.5460523034302867
 30
0.0
  0
VERTEX
  5
162C
  8
0
 10
158.7983010627175133
 20
183.9392106369872977
 30
0.0
  0
VERTEX
  5
162D
  8
0
 10
158.7327859459207957
 20
183.3496037952978952
 30
0.0
  0
VERTEX
  5
162E
  8
0
 10
158.6657486740755871
 20
182.7768702839379102
 30
0.0
  0
VERTEX
  5
162F
  8
0
 10
158.6026399130201128
 20
182.2232257399070932
 30
0.0
  0
VERTEX
  5
1630
  8
0
 10
158.5499208052237066
 20
181.6968797456397908
 30
0.0
  0
VERTEX
  5
1631
  8
0
 10
158.513562464909711
 20
181.1989053507124936
 30
0.0
  0
VERTEX
  5
1632
  8
0
 10
158.5
 20
180.7292027106034027
 30
0.0
  0
SEQEND
  5
1633
  8
0
  0
POLYLINE
  5
1528
  8
0
 66
     1
 10
0.0
 20
0.0
 30
0.0
  0
VERTEX
  5
1634
  8
0
 10
739.7000000000000455
 20
180.7292027106051933
 30
0.0
  0
VERTEX
  5
1635
  8
0
 10
739.6719696420325363
 20
181.3557741572334976
 30
0.0
  0
VERTEX
  5
1636
  8
0
 10
739.6203766397005666
 20
182.0187727807548015
 30
0.0
  0
VERTEX
  5
1637
  8
0
 10
739.5397389957015548
 20
182.7344170936160879
 30
0.0
  0
VERTEX
  5
1638
  8
0
 10
739.4512720354418889
 20
183.4887837058730042
 30
0.0
  0
VERTEX
  5
1639
  8
0
 10
739.3685054449296103
 20
184.2731518372941082
 30
0.0
  0
VERTEX
  5
163A
  8
0
 10
739.299392769928204
 20
185.0829081532027942
 30
0.0
  0
VERTEX
  5
163B
  8
0
 10
739.2543583479791778
 20
185.9105365942660057
 30
0.0
  0
VERTEX
  5
163C
  8
0
 10
739.2397818628560344
 20
186.7475008224544979
 30
0.0
  0
VERTEX
  5
163D
  8
0
 10
739.2552583914199431
 20
187.5847487608359074
 30
0.0
  0
VERTEX
  5
163E
  8
0
 10
739.2988195900493338
 20
188.4125180240349096
 30
0.0
  0
VERTEX
  5
163F
  8
0
 10
739.3669633796318976
 20
189.2217294724094927
 30
0.0
  0
VERTEX
  5
1640
  8
0
 10
739.4522655650697516
 20
190.0081476404425018
 30
0.0
  0
VERTEX
  5
1641
  8
0
 10
739.5401897515065457
 20
190.7620328681524882
 30
0.0
  0
VERTEX
  5
1642
  8
0
 10
739.6097017681405532
 20
191.4664694771821871
 30
0.0
  0
VERTEX
  5
1643
  8
0
 10
739.7000000000001592
 20
192.7707972893969952
 30
0.0
  0
SEQEND
  5
1644
  8
0
  0
POLYLINE
  5
1529
  8
0
 66
     1
 10
0.0
 20
0.0
 30
0.0
  0
VERTEX
  5
1645
  8
0
 10
739.7000000000000455
 20
232.7292027106043122
 30
0.0
  0
VERTEX
  5
1646
  8
0
 10
739.6719696420325363
 20
233.3557741572330997
 30
0.0
  0
VERTEX
  5
1647
  8
0
 10
739.6203766397005666
 20
234.0187727807546025
 30
0.0
  0
VERTEX
  5
1648
  8
0
 10
739.5397389957015548
 20
234.7344170936164005
 30
0.0
  0
VERTEX
  5
1649
  8
0
 10
739.4512720354418889
 20
235.4887837058730895
 30
0.0
  0
VERTEX
  5
164A
  8
0
 10
739.3685054449296103
 20
236.2731518372937103
 30
0.0
  0
VERTEX
  5
164B
  8
0
 10
739.2993927699279766
 20
237.08290815320251
 30
0.0
  0
VERTEX
  5
164C
  8
0
 10
739.2543583479789504
 20
237.9105365942658921
 30
0.0
  0
VERTEX
  5
164D
  8
0
 10
739.2397818628559207
 20
238.7475008224544126
 30
0.0
  0
VERTEX
  5
164E
  8
0
 10
739.2552583914199431
 20
239.5847487608359074
 30
0.0
  0
VERTEX
  5
164F
  8
0
 10
739.2988195900493338
 20
240.4125180240349948
 30
0.0
  0
VERTEX
  5
1650
  8
0
 10
739.3669633796318976
 20
241.2217294724094927
 30
0.0
  0
VERTEX
  5
1651
  8
0
 10
739.4522655650697516
 20
242.0081476404423881
 30
0.0
  0
VERTEX
  5
1652
  8
0
 10
739.5401897515065457
 20
242.762032868152005
 30
0.0
  0
VERTEX
  5
1653
  8
0
 10
739.6097017681405532
 20
243.466469477181505
 30
0.0
  0
VERTEX
  5
1654
  8
0
 10
739.7000000000001592
 20
244.7707972893969952
 30
0.0
  0
SEQEND
  5
1655
  8
0
  0
CIRCLE
  5
1535
  8
3
 10
358.7499999999997726
 20
165.4999999999988063
 30
0.0
 40
5.0
  0
CIRCLE
  5
1536
  8
0
 10
358.7499999999997726
 20
165.4999999999988063
 30
0.0
 40
4.1880000000000868
  0
LINE
  5
1537
  8
1
 10
366.7499999999997726
 20
165.4999999999982947
 30
0.0
 11
350.7499999999997726
 21
165.4999999999982947
 31
0.0
  0
LINE
  5
1538
  8
1
 10
358.74999999999892
 20
173.4999999999988063
 30
0.0
 11
358.74999999999892
 21
157.4999999999988063
 31
0.0
  0
CIRCLE
  5
1539
  8
3
 10
358.7499999999997726
 20
265.49999999999892
 30
0.0
 40
5.0
  0
CIRCLE
  5
153A
  8
0
 10
358.7499999999997726
 20
265.49999999999892
 30
0.0
 40
4.1880000000000868
  0
LINE
  5
153B
  8
1
 10
366.7499999999997726
 20
265.4999999999982947
 30
0.0
 11
350.7499999999997726
 21
265.4999999999982947
 31
0.0
  0
LINE
  5
153C
  8
1
 10
358.74999999999892
 20
273.49999999999892
 30
0.0
 11
358.74999999999892
 21
257.49999999999892
 31
0.0
  0
LINE
  5
1570
  8
0
 10
519.699999999999136
 20
292.0000000000002842
 30
0.0
 11
563.199999999999136
 21
292.0000000000002842
 31
0.0
  0
LINE
  5
1571
  8
0
 10
519.699999999999136
 20
292.0000000000002842
 30
0.0
 11
519.6999999999992497
 21
133.5000000000003979
 31
0.0
  0
LINE
  5
1572
  8
0
 10
563.199999999999136
 20
133.5000000000003126
 30
0.0
 11
519.6999999999992497
 21
133.5000000000003979
 31
0.0
  0
LINE
  5
1573
  8
0
 10
519.699999999999136
 20
247.5499999999996135
 30
0.0
 11
515.699999999999136
 21
247.5499999999996135
 31
0.0
  0
LINE
  5
1574
  8
0
 10
515.699999999999136
 20
247.5499999999996135
 30
0.0
 11
515.699999999999136
 21
243.7500000000003126
 31
0.0
  0
LINE
  5
1575
  8
0
 10
515.6999999999992497
 20
233.750000000000199
 30
0.0
 11
515.6999999999992497
 21
191.7500000000003126
 31
0.0
  0
LINE
  5
1576
  8
0
 10
515.6999999999992497
 20
181.750000000000199
 30
0.0
 11
515.699999999999136
 21
177.9499999999991928
 31
0.0
  0
LINE
  5
1577
  8
0
 10
519.699999999999136
 20
177.9499999999991928
 30
0.0
 11
515.699999999999136
 21
177.9499999999991928
 31
0.0
  0
LINE
  5
1578
  8
0
 10
563.199999999999136
 20
292.0000000000002842
 30
0.0
 11
563.199999999999136
 21
133.5000000000003126
 31
0.0
  0
LINE
  5
1579
  8
1
 10
566.1999999999984539
 20
186.7500000000003126
 30
0.0
 11
496.0999999999982037
 21
186.7500000000003126
 31
0.0
  0
LINE
  5
157A
  8
1
 10
568.1999999999984539
 20
210.0000000000023022
 30
0.0
 11
510.699999999998397
 21
210.0000000000023022
 31
0.0
  0
LINE
  5
157B
  8
1
 10
566.1999999999984539
 20
238.7500000000003126
 30
0.0
 11
496.0999999999983174
 21
238.7500000000003126
 31
0.0
  0
LINE
  5
157C
  8
0
 10
500.5999999999989996
 20
233.7500000000003126
 30
0.0
 11
500.5999999999989996
 21
243.7500000000003126
 31
0.0
  0
LINE
  5
157D
  8
0
 10
499.0999999999991132
 20
242.2500000000003126
 30
0.0
 11
500.5999999999989996
 21
243.7500000000003126
 31
0.0
  0
LINE
  5
157E
  8
0
 10
500.5999999999989996
 20
233.7500000000003126
 30
0.0
 11
499.0999999999991132
 21
235.2500000000003979
 31
0.0
  0
LINE
  5
157F
  8
0
 10
519.6999999999992497
 20
233.750000000000199
 30
0.0
 11
500.5999999999989996
 21
233.7500000000003126
 31
0.0
  0
LINE
  5
1580
  8
3
 10
519.6999999999992497
 20
234.5620000000002108
 30
0.0
 11
499.7879999999992151
 21
234.5620000000002108
 31
0.0
  0
LINE
  5
1581
  8
3
 10
519.6999999999992497
 20
242.9380000000006135
 30
0.0
 11
499.7879999999992151
 21
242.9380000000003861
 31
0.0
  0
LINE
  5
1582
  8
0
 10
519.6999999999992497
 20
243.7500000000003126
 30
0.0
 11
500.5999999999989996
 21
243.7500000000003126
 31
0.0
  0
LINE
  5
1583
  8
0
 10
499.0999999999991132
 20
235.2500000000003979
 30
0.0
 11
499.0999999999991132
 21
242.2500000000003126
 31
0.0
  0
LINE
  5
1584
  8
0
 10
500.5999999999989996
 20
181.7500000000003126
 30
0.0
 11
500.5999999999989996
 21
191.7500000000003126
 31
0.0
  0
LINE
  5
1585
  8
0
 10
499.0999999999988859
 20
190.2500000000003126
 30
0.0
 11
500.5999999999989996
 21
191.7500000000003126
 31
0.0
  0
LINE
  5
1586
  8
0
 10
500.5999999999989996
 20
181.7500000000003126
 30
0.0
 11
499.0999999999988859
 21
183.2500000000003126
 31
0.0
  0
LINE
  5
1587
  8
0
 10
519.6999999999992497
 20
181.750000000000199
 30
0.0
 11
500.5999999999989996
 21
181.7500000000003126
 31
0.0
  0
LINE
  5
1588
  8
3
 10
519.6999999999992497
 20
182.5620000000002108
 30
0.0
 11
499.7879999999991014
 21
182.5620000000002108
 31
0.0
  0
LINE
  5
1589
  8
3
 10
519.6999999999992497
 20
190.9380000000006135
 30
0.0
 11
499.7879999999991014
 21
190.9380000000003861
 31
0.0
  0
LINE
  5
158A
  8
0
 10
519.6999999999992497
 20
191.7500000000003126
 30
0.0
 11
500.5999999999989996
 21
191.7500000000003126
 31
0.0
  0
LINE
  5
158B
  8
0
 10
499.0999999999988859
 20
183.2500000000003126
 30
0.0
 11
499.0999999999988859
 21
190.2500000000003126
 31
0.0
  0
LINE
  5
158C
  8
0
 10
525.9999999999989768
 20
292.0000000000002842
 30
0.0
 11
525.9999999999989768
 21
133.5000000000003979
 31
0.0
  0
LINE
  5
158D
  8
0
 10
505.1999999999990223
 20
181.7500000000003126
 30
0.0
 11
505.1999999999990223
 21
191.7500000000003126
 31
0.0
  0
LINE
  5
158E
  8
0
 10
503.6999999999990791
 20
190.2500000000003126
 30
0.0
 11
505.1999999999990223
 21
191.7500000000003126
 31
0.0
  0
LINE
  5
158F
  8
0
 10
505.1999999999990223
 20
181.7500000000003126
 30
0.0
 11
503.6999999999990791
 21
183.2500000000003126
 31
0.0
  0
LINE
  5
1590
  8
0
 10
503.6999999999990791
 20
183.2500000000003126
 30
0.0
 11
503.6999999999990791
 21
190.2500000000003126
 31
0.0
  0
LINE
  5
1591
  8
0
 10
505.1999999999990223
 20
233.7500000000003126
 30
0.0
 11
505.1999999999990223
 21
243.7500000000003126
 31
0.0
  0
LINE
  5
1592
  8
0
 10
503.6999999999990791
 20
242.2500000000003126
 30
0.0
 11
505.1999999999990223
 21
243.7500000000003126
 31
0.0
  0
LINE
  5
1593
  8
0
 10
505.1999999999990223
 20
233.7500000000003126
 30
0.0
 11
503.6999999999990791
 21
235.2500000000003979
 31
0.0
  0
LINE
  5
1594
  8
0
 10
503.6999999999990791
 20
235.2500000000003979
 30
0.0
 11
503.6999999999990791
 21
242.2500000000003126
 31
0.0
  0
CIRCLE
  5
1595
  8
3
 10
539.4499999999984539
 20
260.000000000001819
 30
0.0
 40
5.0
  0
CIRCLE
  5
1596
  8
0
 10
539.4499999999984539
 20
260.000000000001819
 30
0.0
 40
4.1880000000000868
  0
LINE
  5
1597
  8
1
 10
531.4499999999984539
 20
260.0000000000022737
 30
0.0
 11
547.4499999999984539
 21
260.0000000000022737
 31
0.0
  0
LINE
  5
1598
  8
1
 10
539.4499999999992497
 20
252.0000000000017906
 30
0.0
 11
539.4499999999992497
 21
268.0000000000017053
 31
0.0
  0
CIRCLE
  5
1599
  8
3
 10
539.4499999999984539
 20
160.0000000000017053
 30
0.0
 40
5.0
  0
CIRCLE
  5
159A
  8
0
 10
539.4499999999984539
 20
160.0000000000017053
 30
0.0
 40
4.1880000000000868
  0
LINE
  5
159B
  8
1
 10
531.4499999999984539
 20
160.0000000000021885
 30
0.0
 11
547.4499999999984539
 21
160.0000000000021885
 31
0.0
  0
LINE
  5
159C
  8
1
 10
539.4499999999992497
 20
152.0000000000017053
 30
0.0
 11
539.4499999999992497
 21
168.0000000000017053
 31
0.0
  0
ENDSEC
  0
EOF
