  0
SECTION
  2
HEADER
  9
$ACADVER
  1
AC1009
  9
$INSBASE
 10
0.0
 20
0.0
 30
0.0
  9
$EXTMIN
 10
0.0
 20
-2.960436562073669
 30
0.0
  9
$EXTMAX
 10
548.2500000000010232
 20
210.2000000000003865
 30
0.0
  9
$LIMMIN
 10
0.0
 20
0.0
  9
$LIMMAX
 10
187.5
 20
135.0
  9
$ORTHOMODE
 70
     1
  9
$REGENMODE
 70
     1
  9
$FILLMODE
 70
     1
  9
$QTEXTMODE
 70
     0
  9
$MIRRTEXT
 70
     0
  9
$DRAGMODE
 70
     2
  9
$LTSCALE
 40
10.0
  9
$OSMODE
 70
    37
  9
$ATTMODE
 70
     1
  9
$TEXTSIZE
 40
0.2
  9
$TRACEWID
 40
0.05
  9
$TEXTSTYLE
  7
STANDARD
  9
$CLAYER
  8
0
  9
$CELTYPE
  6
BYLAYER
  9
$CECOLOR
 62
   256
  9
$DIMSCALE
 40
1.0
  9
$DIMASZ
 40
3.0
  9
$DIMEXO
 40
2.0
  9
$DIMDLI
 40
0.38
  9
$DIMRND
 40
0.0
  9
$DIMDLE
 40
0.0
  9
$DIMEXE
 40
2.0
  9
$DIMTP
 40
0.0
  9
$DIMTM
 40
0.0
  9
$DIMTXT
 40
3.2000000000000002
  9
$DIMCEN
 40
0.0
  9
$DIMTSZ
 40
0.0
  9
$DIMTOL
 70
     0
  9
$DIMLIM
 70
     0
  9
$DIMTIH
 70
     0
  9
$DIMTOH
 70
     0
  9
$DIMSE1
 70
     0
  9
$DIMSE2
 70
     0
  9
$DIMTAD
 70
     1
  9
$DIMZIN
 70
     0
  9
$DIMBLK
  1

  9
$DIMASO
 70
     0
  9
$DIMSHO
 70
     0
  9
$DIMPOST
  1

  9
$DIMAPOST
  1

  9
$DIMALT
 70
     0
  9
$DIMALTD
 70
     2
  9
$DIMALTF
 40
25.3999999999999986
  9
$DIMLFAC
 40
1.0
  9
$DIMTOFL
 70
     1
  9
$DIMTVP
 40
1.6000000000000001
  9
$DIMTIX
 70
     1
  9
$DIMSOXD
 70
     0
  9
$DIMSAH
 70
     0
  9
$DIMBLK1
  1

  9
$DIMBLK2
  1

  9
$DIMSTYLE
  2
STANDARD
  9
$DIMCLRD
 70
     0
  9
$DIMCLRE
 70
     0
  9
$DIMCLRT
 70
     0
  9
$DIMTFAC
 40
1.0
  9
$DIMGAP
 40
0.09
  9
$LUNITS
 70
     2
  9
$LUPREC
 70
     1
  9
$SKETCHINC
 40
0.1
  9
$FILLETRAD
 40
0.0
  9
$AUNITS
 70
     0
  9
$AUPREC
 70
     1
  9
$MENU
  1
E:\r13\win\SUPPORT\ACAD
  9
$ELEVATION
 40
0.0
  9
$PELEVATION
 40
0.0
  9
$THICKNESS
 40
0.0
  9
$LIMCHECK
 70
     0
  9
$BLIPMODE
 70
     0
  9
$CHAMFERA
 40
0.0
  9
$CHAMFERB
 40
0.0
  9
$SKPOLY
 70
     0
  9
$TDCREATE
 40
2449839.773298610933125
  9
$TDUPDATE
 40
2460696.46011574100703
  9
$TDINDWG
 40
0.2039715394
  9
$TDUSRTIMER
 40
0.2039715394
  9
$USRTIMER
 70
     1
  9
$ANGBASE
 50
0.0
  9
$ANGDIR
 70
     0
  9
$PDMODE
 70
     0
  9
$PDSIZE
 40
0.0
  9
$PLINEWID
 40
0.0
  9
$COORDS
 70
     1
  9
$SPLFRAME
 70
     0
  9
$SPLINETYPE
 70
     6
  9
$SPLINESEGS
 70
     8
  9
$ATTDIA
 70
     1
  9
$ATTREQ
 70
     1
  9
$HANDLING
 70
     1
  9
$HANDSEED
  5
21BC
  9
$SURFTAB1
 70
     6
  9
$SURFTAB2
 70
     6
  9
$SURFTYPE
 70
     6
  9
$SURFU
 70
     6
  9
$SURFV
 70
     6
  9
$UCSNAME
  2

  9
$UCSORG
 10
0.0
 20
0.0
 30
0.0
  9
$UCSXDIR
 10
1.0
 20
0.0
 30
0.0
  9
$UCSYDIR
 10
0.0
 20
1.0
 30
0.0
  9
$PUCSNAME
  2

  9
$PUCSORG
 10
0.0
 20
0.0
 30
0.0
  9
$PUCSXDIR
 10
1.0
 20
0.0
 30
0.0
  9
$PUCSYDIR
 10
0.0
 20
1.0
 30
0.0
  9
$USERI1
 70
     0
  9
$USERI2
 70
     1
  9
$USERI3
 70
     0
  9
$USERI4
 70
     0
  9
$USERI5
 70
     0
  9
$USERR1
 40
0.0
  9
$USERR2
 40
0.0
  9
$USERR3
 40
0.0
  9
$USERR4
 40
0.0
  9
$USERR5
 40
0.0
  9
$WORLDVIEW
 70
     1
  9
$SHADEDGE
 70
     3
  9
$SHADEDIF
 70
    70
  9
$TILEMODE
 70
     1
  9
$MAXACTVP
 70
    16
  9
$PLIMCHECK
 70
     0
  9
$PEXTMIN
 10
1.0000000000000000E+20
 20
1.0000000000000000E+20
 30
1.0000000000000000E+20
  9
$PEXTMAX
 10
-1.0000000000000000E+20
 20
-1.0000000000000000E+20
 30
-1.0000000000000000E+20
  9
$PLIMMIN
 10
0.0
 20
0.0
  9
$PLIMMAX
 10
12.0
 20
9.0
  9
$UNITMODE
 70
     0
  9
$VISRETAIN
 70
     0
  9
$PLINEGEN
 70
     0
  9
$PSLTSCALE
 70
     0
  0
ENDSEC
  0
SECTION
  2
TABLES
  0
TABLE
  2
VPORT
 70
     1
  0
VPORT
  2
*ACTIVE
 70
     0
 10
0.0
 20
0.0
 11
1.0
 21
1.0
 12
556.6528066528064755
 22
237.0225899329203116
 13
0.0
 23
0.0
 14
5.0
 24
5.0
 15
5.0
 25
5.0
 16
0.0
 26
0.0
 36
1.0
 17
0.0
 27
0.0
 37
0.0
 40
474.0451798658405096
 41
2.3485221674876842
 42
50.0
 43
0.0
 44
0.0
 50
0.0
 51
0.0
 71
     0
 72
   500
 73
     1
 74
     0
 75
     0
 76
     0
 77
     0
 78
     2
  0
ENDTAB
  0
TABLE
  2
LTYPE
 70
     2
  0
LTYPE
  2
CONTINUOUS
 70
     0
  3
Solid Line
 72
    65
 73
     0
 40
0.0
  0
LTYPE
  2
CENTER
 70
     0
  3
____ _ ____ _ ____ _ ____ _ ____ _ ____ _ ____
 72
    65
 73
     4
 40
2.0
 49
1.25
 49
-0.25
 49
0.25
 49
-0.25
  0
ENDTAB
  0
TABLE
  2
LAYER
 70
     4
  0
LAYER
  2
0
 70
     0
 62
     7
  6
CONTINUOUS
  0
LAYER
  2
1
 70
     0
 62
     1
  6
CENTER
  0
LAYER
  2
3
 70
     0
 62
     3
  6
CONTINUOUS
  0
LAYER
  2
DEFPOINTS
 70
     0
 62
     7
  6
CONTINUOUS
  0
ENDTAB
  0
TABLE
  2
STYLE
 70
     2
  0
STYLE
  2
STANDARD
 70
     0
 40
0.0
 41
1.0
 50
0.0
 71
     0
 42
0.2
  3
TXT
  4
BIGFONT
  0
STYLE
  2
STANDARD1
 70
     0
 40
0.0
 41
1.0
 50
0.0
 71
     0
 42
3.0
  3
txt
  4

  0
ENDTAB
  0
TABLE
  2
VIEW
 70
     1
  0
VIEW
  2
ALL
 70
     0
 40
270.0
 10
220.9915966386554942
 20
135.0
 41
0.0
 11
0.0
 21
0.0
 31
1.0
 12
0.0
 22
0.0
 32
0.0
 42
0.0
 43
0.0
 44
0.0
 50
0.0
 71
     0
  0
ENDTAB
  0
TABLE
  2
UCS
 70
     0
  0
ENDTAB
  0
TABLE
  2
APPID
 70
     6
  0
APPID
  2
ACAD
 70
     0
  0
APPID
  2
ACAD_DSTYLE_DIMJAG
 70
     0
  0
APPID
  2
ACAD_DSTYLE_DIMTALN
 70
     0
  0
APPID
  2
ACAD_EXEMPT_FROM_CAD_STANDARDS
 70
     0
  0
APPID
  2
ACAD_MLEADERVER
 70
     0
  0
APPID
  2
ACAD_NAV_VCDISPLAY
 70
     0
  0
ENDTAB
  0
TABLE
  2
DIMSTYLE
 70
     1
  0
DIMSTYLE
  2
STANDARD
 70
     0
  3

  4

  5

  6

  7

 40
1.0
 41
0.18
 42
0.0625
 43
0.38
 44
0.18
 45
0.0
 46
0.0
 47
0.0
 48
0.0
140
0.18
141
0.09
142
0.0
143
25.3999999999999986
144
1.0
145
0.0
146
1.0
147
0.09
 71
     0
 72
     0
 73
     1
 74
     1
 75
     0
 76
     0
 77
     0
 78
     0
170
     0
171
     2
172
     0
173
     0
174
     0
175
     0
176
     0
177
     0
178
     0
  0
ENDTAB
  0
ENDSEC
  0
SECTION
  2
BLOCKS
  0
BLOCK
  8
0
  2
$MODEL_SPACE
 70
     0
 10
0.0
 20
0.0
 30
0.0
  3
$MODEL_SPACE
  1

  0
ENDBLK
  5
1D4
  8
0
  0
BLOCK
 67
     1
  8
0
  2
$PAPER_SPACE
 70
     0
 10
0.0
 20
0.0
 30
0.0
  3
$PAPER_SPACE
  1

  0
ENDBLK
  5
1D2
 67
     1
  8
0
  0
ENDSEC
  0
SECTION
  2
ENTITIES
  0
TEXT
  5
678
  8
0
 62
     3
 10
0.0
 20
0.0
 30
0.0
 40
10.0
  1
IMG160-F-DS
  7
STANDARD1
  0
LINE
  5
CB8
  8
0
 10
179.25
 20
205.2000000000006992
 30
0.0
 11
20.75
 21
205.2000000000001023
 31
0.0
  0
LINE
  5
CB9
  8
0
 10
179.25
 20
205.2000000000006992
 30
0.0
 11
179.25
 21
172.2000000000006139
 31
0.0
  0
LINE
  5
CBA
  8
0
 10
20.75
 20
172.2000000000001023
 30
0.0
 11
179.25
 21
172.2000000000006139
 31
0.0
  0
LINE
  5
CBB
  8
0
 10
20.75
 20
172.2000000000001023
 30
0.0
 11
20.75
 21
205.2000000000001023
 31
0.0
  0
CIRCLE
  5
CBC
  8
0
 10
56.0
 20
188.7000000000001876
 30
0.0
 40
8.5
  0
CIRCLE
  5
CBD
  8
0
 10
143.9999999999990905
 20
188.7000000000005002
 30
0.0
 40
8.5000000000009095
  0
LINE
  5
CBE
  8
0
 10
53.6905989232409411
 20
184.7000000000003013
 30
0.0
 11
58.3094010767581423
 21
184.7000000000003013
 31
0.0
  0
LINE
  5
CBF
  8
0
 10
58.3094010767581423
 20
184.7000000000003013
 30
0.0
 11
60.6188021535162989
 21
188.7000000000001876
 31
0.0
  0
LINE
  5
CC0
  8
0
 10
60.6188021535162989
 20
188.7000000000001876
 30
0.0
 11
58.3094010767581423
 21
192.7000000000001876
 31
0.0
  0
LINE
  5
CC1
  8
0
 10
58.3094010767581423
 20
192.7000000000001876
 30
0.0
 11
53.6905989232409411
 21
192.7000000000001876
 31
0.0
  0
LINE
  5
CC2
  8
0
 10
53.6905989232409411
 20
192.7000000000001876
 30
0.0
 11
51.3811978464827916
 21
188.7000000000001876
 31
0.0
  0
LINE
  5
CC3
  8
0
 10
51.3811978464827916
 20
188.7000000000001876
 30
0.0
 11
53.6905989232409411
 21
184.7000000000003013
 31
0.0
  0
CIRCLE
  5
CC4
  8
0
 10
56.0
 20
188.7000000000001876
 30
0.0
 40
8.0000000000000657
  0
LINE
  5
CC5
  8
0
 10
141.6905989232409127
 20
184.7000000000005002
 30
0.0
 11
146.3094010767580926
 21
184.7000000000005002
 31
0.0
  0
LINE
  5
CC6
  8
0
 10
146.3094010767580926
 20
184.7000000000005002
 30
0.0
 11
148.6188021535172084
 21
188.7000000000005002
 31
0.0
  0
LINE
  5
CC7
  8
0
 10
148.6188021535172084
 20
188.7000000000005002
 30
0.0
 11
146.3094010767580926
 21
192.7000000000006139
 31
0.0
  0
LINE
  5
CC8
  8
0
 10
146.3094010767580926
 20
192.7000000000006139
 30
0.0
 11
141.6905989232409127
 21
192.7000000000006139
 31
0.0
  0
LINE
  5
CC9
  8
0
 10
141.6905989232409127
 20
192.7000000000006139
 30
0.0
 11
139.3811978464827916
 21
188.7000000000005002
 31
0.0
  0
LINE
  5
CCA
  8
0
 10
139.3811978464827916
 20
188.7000000000005002
 30
0.0
 11
141.6905989232409127
 21
184.7000000000005002
 31
0.0
  0
CIRCLE
  5
CCB
  8
0
 10
143.9999999999990905
 20
188.7000000000005002
 30
0.0
 40
7.9999999999995612
  0
LINE
  5
CD0
  8
0
 10
179.25
 20
88.7000000000000455
 30
0.0
 11
179.25
 21
132.2000000000001023
 31
0.0
  0
LINE
  5
CD1
  8
0
 10
179.25
 20
95.0
 30
0.0
 11
20.75
 21
95.0
 31
0.0
  0
LINE
  5
CD2
  8
0
 10
20.75
 20
132.2000000000001023
 30
0.0
 11
20.75
 21
88.7000000000000455
 31
0.0
  0
LINE
  5
CD3
  8
0
 10
20.75
 20
132.2000000000001023
 30
0.0
 11
179.25
 21
132.2000000000001023
 31
0.0
  0
LINE
  5
CD4
  8
0
 10
68.7776388834627141
 20
88.7000000000000455
 30
0.0
 11
131.2223611165364048
 21
88.7000000000000455
 31
0.0
  0
LINE
  5
CD5
  8
0
 10
68.7776388834627141
 20
88.7000000000000455
 30
0.0
 11
68.7776388834627141
 21
56.9000000000000909
 31
0.0
  0
LINE
  5
CD6
  8
0
 10
48.9723611165363693
 20
56.9000000000000909
 30
0.0
 11
48.9723611165363693
 21
88.7000000000000455
 31
0.0
  0
LINE
  5
CD7
  8
0
 10
20.75
 20
88.7000000000000455
 30
0.0
 11
48.9723611165363693
 21
88.7000000000000455
 31
0.0
  0
LINE
  5
CD8
  8
0
 10
179.25
 20
88.7000000000000455
 30
0.0
 11
151.0276388834627141
 21
88.7000000000000455
 31
0.0
  0
LINE
  5
CD9
  8
0
 10
151.0276388834627141
 20
88.7000000000000455
 30
0.0
 11
151.0276388834627141
 21
56.9000000000000909
 31
0.0
  0
LINE
  5
CDA
  8
0
 10
131.2223611165364048
 20
56.9000000000000909
 30
0.0
 11
131.2223611165364048
 21
88.7000000000000455
 31
0.0
  0
LINE
  5
CDB
  8
0
 10
157.2499999999990905
 20
56.9000000000000909
 30
0.0
 11
157.2499999999990905
 21
88.7000000000000881
 31
0.0
  0
LINE
  5
CDC
  8
0
 10
157.2499999999990905
 20
56.9000000000000909
 30
0.0
 11
125.0
 21
56.9000000000000909
 31
0.0
  0
LINE
  5
CDD
  8
0
 10
42.75
 20
56.9000000000000909
 30
0.0
 11
74.9999999999990905
 21
56.9000000000000909
 31
0.0
  0
LINE
  5
CDE
  8
0
 10
42.75
 20
88.7000000000000881
 30
0.0
 11
42.75
 21
56.9000000000000909
 31
0.0
  0
LINE
  5
CDF
  8
0
 10
125.0
 20
88.7000000000000881
 30
0.0
 11
125.0
 21
56.9000000000000909
 31
0.0
  0
LINE
  5
CE0
  8
0
 10
74.9999999999990905
 20
56.9000000000000909
 30
0.0
 11
74.9999999999990905
 21
88.7000000000000881
 31
0.0
  0
LINE
  5
CE5
  8
0
 10
225.75
 20
88.7000000000000455
 30
0.0
 11
245.7500000000009095
 21
88.7000000000001734
 31
0.0
  0
LINE
  5
CE6
  8
0
 10
225.75
 20
95.0000000000000284
 30
0.0
 11
219.25
 21
95.0
 31
0.0
  0
LINE
  5
CE7
  8
0
 10
219.25
 20
95.0
 30
0.0
 11
219.25
 21
132.2000000000001023
 31
0.0
  0
CIRCLE
  5
CE8
  8
3
 10
235.75
 20
110.4500000000001023
 30
0.0
 40
4.0000000000009086
  0
LINE
  5
CE9
  8
0
 10
245.7500000000009095
 20
95.0000000000001705
 30
0.0
 11
252.2500000000009095
 21
95.0000000000002274
 31
0.0
  0
LINE
  5
CEA
  8
0
 10
252.2500000000009095
 20
95.0000000000002274
 30
0.0
 11
252.2500000000009095
 21
132.2000000000001023
 31
0.0
  0
LINE
  5
CEB
  8
0
 10
252.2500000000009095
 20
132.2000000000001023
 30
0.0
 11
219.25
 21
132.2000000000001023
 31
0.0
  0
LINE
  5
CEC
  8
0
 10
245.7500000000009095
 20
56.9000000000000909
 30
0.0
 11
245.7500000000009095
 21
95.0000000000001705
 31
0.0
  0
LINE
  5
CED
  8
0
 10
245.7500000000009095
 20
56.9000000000000909
 30
0.0
 11
225.75
 21
56.9000000000000909
 31
0.0
  0
LINE
  5
CEE
  8
0
 10
225.75
 20
95.0000000000000284
 30
0.0
 11
225.75
 21
56.9000000000000909
 31
0.0
  0
LINE
  5
CF0
  8
1
 10
15.75
 20
188.7000000000001023
 30
0.0
 11
184.25
 21
188.7000000000006992
 31
0.0
  0
LINE
  5
CF1
  8
1
 10
100.0
 20
210.2000000000003865
 30
0.0
 11
100.0
 21
167.2000000000003865
 31
0.0
  0
LINE
  5
CF2
  8
1
 10
56.0
 20
200.2000000000003013
 30
0.0
 11
56.0
 21
177.2000000000001876
 31
0.0
  0
LINE
  5
CF3
  8
1
 10
143.9999999999990905
 20
177.1999999999995907
 30
0.0
 11
143.9999999999990905
 21
200.2000000000014097
 31
0.0
  0
LINE
  5
CF4
  8
1
 10
56.0
 20
37.7000000000001023
 30
0.0
 11
56.0
 21
135.2000000000001023
 31
0.0
  0
LINE
  5
CF7
  8
1
 10
144.0
 20
37.7000000000001023
 30
0.0
 11
144.0
 21
135.2000000000001023
 31
0.0
  0
LINE
  5
CFA
  8
1
 10
100.0
 20
137.2000000000001023
 30
0.0
 11
100.0
 21
83.7000000000000455
 31
0.0
  0
LINE
  5
CFB
  8
1
 10
235.7500000000009095
 20
37.7000000000001023
 30
0.0
 11
235.7500000000009095
 21
135.2000000000001023
 31
0.0
  0
CIRCLE
  5
CFE
  8
0
 10
235.75
 20
110.4500000000001023
 30
0.0
 40
3.3235000000000001
  0
LINE
  5
CFF
  8
1
 10
242.7500000000009095
 20
110.4500000000001023
 30
0.0
 11
228.7499999999990905
 21
110.4500000000001023
 31
0.0
  0
LINE
  5
DA7
  8
0
 10
240.7500000000009095
 20
42.2000000000000171
 30
0.0
 11
230.7500000000009095
 21
42.2000000000001307
 31
0.0
  0
LINE
  5
DA8
  8
0
 10
232.2500000000009095
 20
40.7000000000001307
 30
0.0
 11
230.7500000000009095
 21
42.2000000000001307
 31
0.0
  0
LINE
  5
DA9
  8
0
 10
240.7500000000009095
 20
42.2000000000000171
 30
0.0
 11
239.2500000000009095
 21
40.700000000000081
 31
0.0
  0
LINE
  5
DAA
  8
0
 10
240.7500000000009095
 20
56.9000000000000909
 30
0.0
 11
240.7500000000009095
 21
42.2000000000000171
 31
0.0
  0
LINE
  5
DAB
  8
3
 10
239.9380000000010114
 20
56.9000000000000909
 30
0.0
 11
239.9380000000010114
 21
41.3880000000001331
 31
0.0
  0
LINE
  5
DAC
  8
3
 10
231.5620000000008076
 20
56.9000000000000909
 30
0.0
 11
231.5620000000008076
 21
41.3880000000001829
 31
0.0
  0
LINE
  5
DAD
  8
0
 10
230.7500000000009095
 20
56.9000000000000909
 30
0.0
 11
230.7500000000009095
 21
42.2000000000001307
 31
0.0
  0
LINE
  5
DAE
  8
0
 10
239.2500000000009095
 20
40.700000000000081
 30
0.0
 11
232.2500000000009095
 21
40.7000000000001307
 31
0.0
  0
LINE
  5
DB6
  8
0
 10
149.0
 20
42.2000000000000099
 30
0.0
 11
139.0
 21
42.2000000000001307
 31
0.0
  0
LINE
  5
DB7
  8
0
 10
140.5
 20
40.7000000000001307
 30
0.0
 11
139.0
 21
42.2000000000001307
 31
0.0
  0
LINE
  5
DB8
  8
0
 10
149.0
 20
42.2000000000000099
 30
0.0
 11
147.5
 21
40.7000000000000668
 31
0.0
  0
LINE
  5
DB9
  8
0
 10
149.0
 20
56.9000000000000909
 30
0.0
 11
149.0
 21
42.2000000000000099
 31
0.0
  0
LINE
  5
DBA
  8
3
 10
148.1880000000001019
 20
56.9000000000000909
 30
0.0
 11
148.1880000000001019
 21
41.3880000000001189
 31
0.0
  0
LINE
  5
DBB
  8
3
 10
139.8119999999998129
 20
56.9000000000000909
 30
0.0
 11
139.8119999999998981
 21
41.3880000000001687
 31
0.0
  0
LINE
  5
DBC
  8
0
 10
139.0
 20
56.9000000000000909
 30
0.0
 11
139.0
 21
42.2000000000001307
 31
0.0
  0
LINE
  5
DBD
  8
0
 10
147.5
 20
40.7000000000000668
 30
0.0
 11
140.5
 21
40.7000000000001307
 31
0.0
  0
LINE
  5
DBE
  8
0
 10
61.0
 20
42.2000000000000099
 30
0.0
 11
51.0
 21
42.2000000000001307
 31
0.0
  0
LINE
  5
DBF
  8
0
 10
52.5
 20
40.7000000000001307
 30
0.0
 11
51.0
 21
42.2000000000001307
 31
0.0
  0
LINE
  5
DC0
  8
0
 10
61.0
 20
42.2000000000000099
 30
0.0
 11
59.5
 21
40.7000000000000668
 31
0.0
  0
LINE
  5
DC1
  8
0
 10
60.9999999999999716
 20
56.9000000000000767
 30
0.0
 11
61.0
 21
42.2000000000000099
 31
0.0
  0
LINE
  5
DC2
  8
3
 10
60.1880000000001019
 20
56.9000000000000767
 30
0.0
 11
60.1880000000001019
 21
41.3880000000001189
 31
0.0
  0
LINE
  5
DC3
  8
3
 10
51.8119999999998697
 20
56.9000000000000767
 30
0.0
 11
51.8119999999999266
 21
41.3880000000001687
 31
0.0
  0
LINE
  5
DC4
  8
0
 10
51.0
 20
56.9000000000000767
 30
0.0
 11
51.0
 21
42.2000000000001307
 31
0.0
  0
LINE
  5
DC5
  8
0
 10
59.5
 20
40.7000000000000668
 30
0.0
 11
52.5
 21
40.7000000000001307
 31
0.0
  0
LINE
  5
129F
  8
0
 10
466.2500000000010232
 20
76.6000000000000938
 30
0.0
 11
453.2500000000009095
 21
76.6000000000000938
 31
0.0
  0
LINE
  5
12A2
  8
0
 10
407.7500000000009095
 20
86.6000000000000938
 30
0.0
 11
395.7500000000009095
 21
86.6000000000000938
 31
0.0
  0
LINE
  5
12A3
  8
0
 10
395.2500000000009095
 20
87.100000000000108
 30
0.0
 11
395.7500000000009095
 21
86.6000000000000938
 31
0.0
  0
LINE
  5
12A6
  8
0
 10
458.7500000000009095
 20
102.1000000000000938
 30
0.0
 11
459.2500000000009095
 21
102.6000000000000938
 31
0.0
  0
LINE
  5
12A7
  8
0
 10
459.2500000000009095
 20
102.6000000000000938
 30
0.0
 11
478.7500000000009095
 21
102.6000000000000938
 31
0.0
  0
LINE
  5
12A9
  8
0
 10
479.2500000000009095
 20
102.1000000000000938
 30
0.0
 11
478.7500000000009095
 21
102.6000000000000938
 31
0.0
  0
LINE
  5
12AF
  8
0
 10
478.7500000000009095
 20
86.6000000000000938
 30
0.0
 11
466.7500000000010232
 21
86.6000000000000938
 31
0.0
  0
LINE
  5
12B1
  8
0
 10
395.2500000000009095
 20
102.1000000000000938
 30
0.0
 11
395.7500000000009095
 21
102.6000000000000938
 31
0.0
  0
LINE
  5
12B2
  8
0
 10
395.7500000000009095
 20
102.6000000000000938
 30
0.0
 11
415.2500000000007958
 21
102.6000000000000938
 31
0.0
  0
LINE
  5
12B5
  8
0
 10
395.2500000000009095
 20
87.100000000000108
 30
0.0
 11
395.2500000000009095
 21
102.1000000000000938
 31
0.0
  0
LINE
  5
12B9
  8
0
 10
415.7500000000009095
 20
102.1000000000000938
 30
0.0
 11
415.7500000000009095
 21
98.100000000000108
 31
0.0
  0
LINE
  5
12BE
  8
0
 10
478.7500000000009095
 20
86.6000000000000938
 30
0.0
 11
479.2500000000009095
 21
87.100000000000108
 31
0.0
  0
LINE
  5
12C2
  8
0
 10
421.2500000000009095
 20
76.6000000000000938
 30
0.0
 11
408.2500000000009095
 21
76.6000000000000938
 31
0.0
  0
LINE
  5
12C3
  8
0
 10
407.7500000000009095
 20
77.100000000000108
 30
0.0
 11
408.2500000000009095
 21
76.6000000000000938
 31
0.0
  0
LINE
  5
12C7
  8
0
 10
421.2500000000009095
 20
74.5000000000001137
 30
0.0
 11
421.2500000000009095
 21
76.6000000000000938
 31
0.0
  0
ARC
  5
12D2
  8
0
 10
437.2500000000009095
 20
98.100000000000108
 30
0.0
 40
21.5
 50
180.0
 51
0.0
  0
LINE
  5
12D4
  8
0
 10
466.7500000000010232
 20
77.100000000000108
 30
0.0
 11
466.2500000000010232
 21
76.6000000000000938
 31
0.0
  0
LINE
  5
12D6
  8
0
 10
458.7500000000009095
 20
98.100000000000108
 30
0.0
 11
458.7500000000009095
 21
102.1000000000000938
 31
0.0
  0
LINE
  5
12DB
  8
0
 10
415.7500000000009095
 20
102.1000000000000938
 30
0.0
 11
415.2500000000007958
 21
102.6000000000000938
 31
0.0
  0
LINE
  5
12DC
  8
0
 10
453.2500000000009095
 20
76.6000000000000938
 30
0.0
 11
453.2500000000009095
 21
74.5000000000001137
 31
0.0
  0
LINE
  5
12DE
  8
0
 10
466.7500000000010232
 20
86.6000000000000938
 30
0.0
 11
466.7500000000010232
 21
77.100000000000108
 31
0.0
  0
LINE
  5
12DF
  8
0
 10
452.7500000000009095
 20
74.0000000000001137
 30
0.0
 11
421.7500000000009095
 21
74.0000000000001137
 31
0.0
  0
LINE
  5
12E0
  8
0
 10
421.7500000000009095
 20
74.0000000000001137
 30
0.0
 11
421.2500000000009095
 21
74.5000000000001137
 31
0.0
  0
LINE
  5
12E5
  8
0
 10
453.2500000000009095
 20
74.5000000000001137
 30
0.0
 11
452.7500000000009095
 21
74.0000000000001137
 31
0.0
  0
LINE
  5
12E6
  8
0
 10
479.2500000000009095
 20
102.1000000000000938
 30
0.0
 11
479.2500000000009095
 21
87.100000000000108
 31
0.0
  0
LINE
  5
12E7
  8
0
 10
407.7500000000009095
 20
77.100000000000108
 30
0.0
 11
407.7500000000009095
 21
86.6000000000000938
 31
0.0
  0
LINE
  5
12EB
  8
0
 10
452.2500000000007958
 20
115.2000000000001023
 30
0.0
 11
422.2500000000009095
 21
115.2000000000001023
 31
0.0
  0
LINE
  5
12EF
  8
0
 10
452.2500000000007958
 20
110.7000000000001023
 30
0.0
 11
452.2500000000007958
 21
115.2000000000001023
 31
0.0
  0
LINE
  5
12F1
  8
0
 10
382.2500000000009095
 20
131.7000000000001023
 30
0.0
 11
382.7500000000009095
 21
132.2000000000001023
 31
0.0
  0
LINE
  5
12F2
  8
0
 10
382.7500000000009095
 20
132.2000000000001023
 30
0.0
 11
491.7500000000010232
 21
132.2000000000001023
 31
0.0
  0
LINE
  5
12F4
  8
0
 10
471.7500000000010232
 20
110.2000000000001023
 30
0.0
 11
452.7500000000009095
 21
110.2000000000001023
 31
0.0
  0
LINE
  5
12F5
  8
0
 10
452.7500000000009095
 20
110.2000000000001023
 30
0.0
 11
452.2500000000007958
 21
110.7000000000001023
 31
0.0
  0
LINE
  5
12FC
  8
0
 10
472.2500000000009095
 20
110.7000000000001023
 30
0.0
 11
471.7500000000010232
 21
110.2000000000001023
 31
0.0
  0
LINE
  5
12FF
  8
0
 10
402.2500000000007958
 20
118.6000000000000938
 30
0.0
 11
382.7500000000009095
 21
118.6000000000000938
 31
0.0
  0
LINE
  5
1300
  8
0
 10
382.2500000000009095
 20
119.1000000000000938
 30
0.0
 11
382.7500000000009095
 21
118.6000000000000938
 31
0.0
  0
LINE
  5
1304
  8
0
 10
492.2500000000010232
 20
131.7000000000001023
 30
0.0
 11
492.2500000000010232
 21
119.1000000000000938
 31
0.0
  0
LINE
  5
1306
  8
0
 10
422.2500000000009095
 20
110.7000000000001023
 30
0.0
 11
421.7500000000009095
 21
110.2000000000001023
 31
0.0
  0
LINE
  5
130A
  8
0
 10
472.2500000000009095
 20
118.6000000000000938
 30
0.0
 11
472.2500000000009095
 21
110.7000000000001023
 31
0.0
  0
LINE
  5
130C
  8
0
 10
421.7500000000009095
 20
110.2000000000001023
 30
0.0
 11
402.7500000000007958
 21
110.2000000000001023
 31
0.0
  0
LINE
  5
130D
  8
0
 10
402.7500000000007958
 20
110.2000000000001023
 30
0.0
 11
402.2500000000007958
 21
110.7000000000001023
 31
0.0
  0
LINE
  5
1311
  8
0
 10
491.7500000000010232
 20
132.2000000000001023
 30
0.0
 11
492.2500000000010232
 21
131.7000000000001023
 31
0.0
  0
LINE
  5
1313
  8
0
 10
491.7500000000010232
 20
118.6000000000000938
 30
0.0
 11
472.2500000000009095
 21
118.6000000000000938
 31
0.0
  0
LINE
  5
1317
  8
0
 10
491.7500000000010232
 20
118.6000000000000938
 30
0.0
 11
492.2500000000010232
 21
119.1000000000000938
 31
0.0
  0
LINE
  5
131A
  8
0
 10
402.2500000000007958
 20
110.7000000000001023
 30
0.0
 11
402.2500000000007958
 21
118.6000000000000938
 31
0.0
  0
LINE
  5
131B
  8
0
 10
422.2500000000009095
 20
115.2000000000001023
 30
0.0
 11
422.2500000000009095
 21
110.7000000000001023
 31
0.0
  0
LINE
  5
131F
  8
0
 10
382.2500000000009095
 20
119.1000000000000938
 30
0.0
 11
382.2500000000009095
 21
131.7000000000001023
 31
0.0
  0
LINE
  5
133F
  8
0
 10
463.1500000000007731
 20
181.9320508075689986
 30
0.0
 11
463.1500000000007731
 21
178.467949192431206
 31
0.0
  0
LINE
  5
1340
  8
0
 10
463.1500000000007731
 20
178.467949192431206
 30
0.0
 11
466.1500000000008868
 21
176.7358983848623097
 31
0.0
  0
LINE
  5
1341
  8
0
 10
469.1500000000008868
 20
178.467949192431206
 30
0.0
 11
466.1500000000008868
 21
176.7358983848623097
 31
0.0
  0
LINE
  5
1342
  8
0
 10
469.1500000000008868
 20
181.9320508075689986
 30
0.0
 11
469.1500000000008868
 21
178.467949192431206
 31
0.0
  0
LINE
  5
1343
  8
0
 10
469.1500000000008868
 20
181.9320508075689986
 30
0.0
 11
466.1500000000008868
 21
183.6641016151378949
 31
0.0
  0
LINE
  5
1344
  8
0
 10
463.1500000000007731
 20
181.9320508075689986
 30
0.0
 11
466.1500000000008868
 21
183.6641016151378949
 31
0.0
  0
LINE
  5
135A
  8
0
 10
492.2500000000010232
 20
187.7000000000001023
 30
0.0
 11
492.2500000000010232
 21
172.7000000000001023
 31
0.0
  0
LINE
  5
135D
  8
0
 10
382.7500000000009095
 20
188.2000000000001023
 30
0.0
 11
491.7500000000010232
 21
188.2000000000001023
 31
0.0
  0
LINE
  5
1360
  8
0
 10
382.2500000000009095
 20
187.7000000000001023
 30
0.0
 11
382.7500000000009095
 21
188.2000000000001023
 31
0.0
  0
LINE
  5
1361
  8
0
 10
382.2500000000009095
 20
172.7000000000001023
 30
0.0
 11
382.2500000000009095
 21
187.7000000000001023
 31
0.0
  0
LINE
  5
1363
  8
0
 10
491.7500000000010232
 20
188.2000000000001023
 30
0.0
 11
492.2500000000010232
 21
187.7000000000001023
 31
0.0
  0
LINE
  5
1368
  8
0
 10
492.2500000000010232
 20
172.7000000000001023
 30
0.0
 11
491.7500000000010232
 21
172.2000000000001023
 31
0.0
  0
LINE
  5
136A
  8
0
 10
382.7500000000009095
 20
172.2000000000001023
 30
0.0
 11
382.2500000000009095
 21
172.7000000000001023
 31
0.0
  0
LINE
  5
136C
  8
0
 10
491.7500000000010232
 20
172.2000000000001023
 30
0.0
 11
382.7500000000009095
 21
172.2000000000001023
 31
0.0
  0
LINE
  5
137A
  8
0
 10
547.2500000000009095
 20
86.6000000000000938
 30
0.0
 11
547.7500000000010232
 21
87.100000000000108
 31
0.0
  0
LINE
  5
137E
  8
0
 10
547.7500000000010232
 20
102.1000000000000938
 30
0.0
 11
547.2500000000009095
 21
102.6000000000000938
 31
0.0
  0
LINE
  5
1381
  8
0
 10
532.7500000000010232
 20
87.100000000000108
 30
0.0
 11
533.2500000000010232
 21
86.6000000000000938
 31
0.0
  0
LINE
  5
1383
  8
0
 10
547.2500000000009095
 20
86.6000000000000938
 30
0.0
 11
533.2500000000010232
 21
86.6000000000000938
 31
0.0
  0
LINE
  5
1385
  8
0
 10
533.2500000000010232
 20
102.6000000000000938
 30
0.0
 11
532.7500000000010232
 21
102.1000000000000938
 31
0.0
  0
LINE
  5
1386
  8
0
 10
533.2500000000010232
 20
102.6000000000000938
 30
0.0
 11
547.2500000000009095
 21
102.6000000000000938
 31
0.0
  0
LINE
  5
138D
  8
0
 10
547.7500000000010232
 20
77.100000000000108
 30
0.0
 11
547.2500000000009095
 21
76.6000000000000938
 31
0.0
  0
LINE
  5
1394
  8
0
 10
547.2500000000009095
 20
76.6000000000000938
 30
0.0
 11
533.2500000000010232
 21
76.6000000000000938
 31
0.0
  0
LINE
  5
1395
  8
0
 10
532.7500000000010232
 20
77.100000000000108
 30
0.0
 11
533.2500000000010232
 21
76.6000000000000938
 31
0.0
  0
LINE
  5
1398
  8
0
 10
547.7500000000010232
 20
102.1000000000000938
 30
0.0
 11
547.7500000000010232
 21
74.5000000000001137
 31
0.0
  0
LINE
  5
1399
  8
0
 10
547.7500000000010232
 20
74.5000000000001137
 30
0.0
 11
547.2500000000009095
 21
74.0000000000001137
 31
0.0
  0
LINE
  5
13A0
  8
0
 10
547.2500000000009095
 20
74.0000000000001137
 30
0.0
 11
533.2500000000010232
 21
74.0000000000001137
 31
0.0
  0
LINE
  5
13A1
  8
0
 10
533.2500000000010232
 20
74.0000000000001137
 30
0.0
 11
532.7500000000010232
 21
74.5000000000001137
 31
0.0
  0
LINE
  5
13A3
  8
0
 10
532.7500000000010232
 20
74.5000000000001137
 30
0.0
 11
532.7500000000010232
 21
102.1000000000000938
 31
0.0
  0
LINE
  5
13AD
  8
0
 10
547.7500000000010232
 20
132.2000000000001023
 30
0.0
 11
548.2500000000010232
 21
131.7000000000001023
 31
0.0
  0
LINE
  5
13B0
  8
0
 10
547.7500000000010232
 20
118.6000000000000938
 30
0.0
 11
548.2500000000010232
 21
119.1000000000000938
 31
0.0
  0
LINE
  5
13B8
  8
0
 10
547.7500000000010232
 20
118.6000000000000938
 30
0.0
 11
532.7500000000010232
 21
118.6000000000000938
 31
0.0
  0
LINE
  5
13B9
  8
0
 10
532.7500000000010232
 20
118.6000000000000938
 30
0.0
 11
532.2500000000010232
 21
119.1000000000000938
 31
0.0
  0
LINE
  5
13BA
  8
0
 10
532.7500000000010232
 20
132.2000000000001023
 30
0.0
 11
547.7500000000010232
 21
132.2000000000001023
 31
0.0
  0
LINE
  5
13BB
  8
0
 10
532.2500000000010232
 20
131.7000000000001023
 30
0.0
 11
532.7500000000010232
 21
132.2000000000001023
 31
0.0
  0
LINE
  5
13C3
  8
0
 10
548.2500000000010232
 20
131.7000000000001023
 30
0.0
 11
548.2500000000010232
 21
110.7000000000001023
 31
0.0
  0
LINE
  5
13C4
  8
0
 10
548.2500000000010232
 20
110.7000000000001023
 30
0.0
 11
547.7500000000010232
 21
110.2000000000001023
 31
0.0
  0
LINE
  5
13C6
  8
0
 10
547.7500000000010232
 20
110.2000000000001023
 30
0.0
 11
532.7500000000010232
 21
110.2000000000001023
 31
0.0
  0
LINE
  5
13C7
  8
0
 10
532.7500000000010232
 20
110.2000000000001023
 30
0.0
 11
532.2500000000010232
 21
110.7000000000001023
 31
0.0
  0
LINE
  5
13C9
  8
0
 10
532.2500000000010232
 20
110.7000000000001023
 30
0.0
 11
532.2500000000010232
 21
131.7000000000001023
 31
0.0
  0
CIRCLE
  5
2124
  8
0
 10
408.3500000000008754
 20
180.2000000000001023
 30
0.0
 40
6.4999999999999831
  0
CIRCLE
  5
2125
  8
0
 10
466.1500000000008868
 20
180.2000000000001023
 30
0.0
 40
6.5
  0
CIRCLE
  5
2126
  8
0
 10
408.3500000000008754
 20
180.2000000000001023
 30
0.0
 40
6.9000000000000048
  0
CIRCLE
  5
2127
  8
0
 10
466.1500000000008868
 20
180.2000000000001023
 30
0.0
 40
6.9000000000000048
  0
LINE
  5
212A
  8
0
 10
405.3500000000008754
 20
181.9320508075689986
 30
0.0
 11
405.3500000000008754
 21
178.467949192431206
 31
0.0
  0
LINE
  5
212B
  8
0
 10
405.3500000000008754
 20
178.467949192431206
 30
0.0
 11
408.3500000000008754
 21
176.7358983848623097
 31
0.0
  0
LINE
  5
212C
  8
0
 10
411.3500000000008754
 20
178.467949192431206
 30
0.0
 11
408.3500000000008754
 21
176.7358983848623097
 31
0.0
  0
LINE
  5
212D
  8
0
 10
411.3500000000008754
 20
181.9320508075689986
 30
0.0
 11
411.3500000000008754
 21
178.467949192431206
 31
0.0
  0
LINE
  5
212E
  8
0
 10
411.3500000000008754
 20
181.9320508075689986
 30
0.0
 11
408.3500000000008754
 21
183.6641016151378949
 31
0.0
  0
LINE
  5
212F
  8
0
 10
405.3500000000008754
 20
181.9320508075689986
 30
0.0
 11
408.3500000000008754
 21
183.6641016151378949
 31
0.0
  0
LINE
  5
2130
  8
1
 10
377.2500000000009095
 20
180.1999999999995907
 30
0.0
 11
497.25000000000108
 21
180.1999999999999886
 31
0.0
  0
LINE
  5
2131
  8
1
 10
437.2500000000010232
 20
193.2000000000001023
 30
0.0
 11
437.2500000000010232
 21
167.2000000000001023
 31
0.0
  0
LINE
  5
2136
  8
1
 10
408.3500000000008754
 20
190.100000000000108
 30
0.0
 11
408.3500000000008754
 21
170.3000000000000966
 31
0.0
  0
LINE
  5
2138
  8
1
 10
466.1500000000008868
 20
190.1000000000005059
 30
0.0
 11
466.1500000000008868
 21
170.3000000000004093
 31
0.0
  0
LINE
  5
2139
  8
1
 10
437.2500000000010232
 20
137.1999999999999886
 30
0.0
 11
437.2500000000009095
 21
69.0000000000000995
 31
0.0
  0
LINE
  5
213A
  8
1
 10
408.3500000000009891
 20
135.2000000000001023
 30
0.0
 11
408.3500000000008754
 21
84.600000000000108
 31
0.0
  0
LINE
  5
2141
  8
1
 10
466.1500000000008868
 20
135.2000000000001023
 30
0.0
 11
466.1500000000008868
 21
84.600000000000108
 31
0.0
  0
LINE
  5
2143
  8
0
 10
412.3500000000009891
 20
110.2000000000001023
 30
0.0
 11
412.3500000000009891
 21
102.6000000000000938
 31
0.0
  0
LINE
  5
2144
  8
3
 10
411.6735000000010132
 20
110.2000000000001023
 30
0.0
 11
411.6735000000010132
 21
102.6000000000000938
 31
0.0
  0
LINE
  5
2145
  8
3
 10
405.0265000000009081
 20
110.2000000000001023
 30
0.0
 11
405.0265000000009081
 21
102.6000000000000938
 31
0.0
  0
LINE
  5
2146
  8
0
 10
404.3500000000009891
 20
110.2000000000001023
 30
0.0
 11
404.3500000000009891
 21
102.6000000000000938
 31
0.0
  0
LINE
  5
2147
  8
0
 10
470.1500000000010004
 20
110.2000000000001023
 30
0.0
 11
470.1500000000010004
 21
102.6000000000000938
 31
0.0
  0
LINE
  5
2148
  8
3
 10
469.4735000000010814
 20
110.2000000000001023
 30
0.0
 11
469.4735000000009109
 21
102.6000000000000938
 31
0.0
  0
LINE
  5
2149
  8
3
 10
462.8265000000009195
 20
110.2000000000001023
 30
0.0
 11
462.8265000000009195
 21
102.6000000000000938
 31
0.0
  0
LINE
  5
214A
  8
0
 10
462.1500000000008868
 20
110.2000000000001023
 30
0.0
 11
462.1500000000008868
 21
102.6000000000000938
 31
0.0
  0
LINE
  5
214B
  8
1
 10
540.2500000000010232
 20
137.1999999999999886
 30
0.0
 11
540.2500000000006821
 21
69.0000000000000995
 31
0.0
  0
LINE
  5
2151
  8
0
 10
544.2500000000010232
 20
110.2000000000001023
 30
0.0
 11
544.2500000000010232
 21
102.6000000000000938
 31
0.0
  0
LINE
  5
2152
  8
3
 10
543.5735000000009904
 20
110.2000000000001023
 30
0.0
 11
543.5735000000008768
 21
102.6000000000000938
 31
0.0
  0
LINE
  5
2153
  8
3
 10
536.9265000000009422
 20
110.2000000000001023
 30
0.0
 11
536.9265000000009422
 21
102.6000000000000938
 31
0.0
  0
LINE
  5
2154
  8
0
 10
536.2500000000010232
 20
110.2000000000001023
 30
0.0
 11
536.2500000000010232
 21
102.6000000000000938
 31
0.0
  0
ENDSEC
  0
EOF
