  0
SECTION
  2
HEADER
  9
$ACADVER
  1
AC1009
  9
$INSBASE
 10
0.0
 20
0.0
 30
0.0
  9
$EXTMIN
 10
0.0
 20
-2.960436562073669
 30
0.0
  9
$EXTMAX
 10
485.7499999999998863
 20
200.2000000000001876
 30
0.0
  9
$LIMMIN
 10
0.0
 20
0.0
  9
$LIMMAX
 10
187.5
 20
135.0
  9
$ORTHOMODE
 70
     1
  9
$REGENMODE
 70
     1
  9
$FILLMODE
 70
     1
  9
$QTEXTMODE
 70
     0
  9
$MIRRTEXT
 70
     0
  9
$DRAGMODE
 70
     2
  9
$LTSCALE
 40
10.0
  9
$OSMODE
 70
    37
  9
$ATTMODE
 70
     1
  9
$TEXTSIZE
 40
0.2
  9
$TRACEWID
 40
0.05
  9
$TEXTSTYLE
  7
STANDARD
  9
$CLAYER
  8
0
  9
$CELTYPE
  6
BYLAYER
  9
$CECOLOR
 62
   256
  9
$DIMSCALE
 40
1.0
  9
$DIMASZ
 40
3.0
  9
$DIMEXO
 40
2.0
  9
$DIMDLI
 40
0.38
  9
$DIMRND
 40
0.0
  9
$DIMDLE
 40
0.0
  9
$DIMEXE
 40
2.0
  9
$DIMTP
 40
0.0
  9
$DIMTM
 40
0.0
  9
$DIMTXT
 40
3.2000000000000002
  9
$DIMCEN
 40
0.0
  9
$DIMTSZ
 40
0.0
  9
$DIMTOL
 70
     0
  9
$DIMLIM
 70
     0
  9
$DIMTIH
 70
     0
  9
$DIMTOH
 70
     0
  9
$DIMSE1
 70
     0
  9
$DIMSE2
 70
     0
  9
$DIMTAD
 70
     1
  9
$DIMZIN
 70
     0
  9
$DIMBLK
  1

  9
$DIMASO
 70
     0
  9
$DIMSHO
 70
     0
  9
$DIMPOST
  1

  9
$DIMAPOST
  1

  9
$DIMALT
 70
     0
  9
$DIMALTD
 70
     2
  9
$DIMALTF
 40
25.3999999999999986
  9
$DIMLFAC
 40
1.0
  9
$DIMTOFL
 70
     1
  9
$DIMTVP
 40
1.6000000000000001
  9
$DIMTIX
 70
     1
  9
$DIMSOXD
 70
     0
  9
$DIMSAH
 70
     0
  9
$DIMBLK1
  1

  9
$DIMBLK2
  1

  9
$DIMSTYLE
  2
STANDARD
  9
$DIMCLRD
 70
     0
  9
$DIMCLRE
 70
     0
  9
$DIMCLRT
 70
     0
  9
$DIMTFAC
 40
1.0
  9
$DIMGAP
 40
0.09
  9
$LUNITS
 70
     2
  9
$LUPREC
 70
     1
  9
$SKETCHINC
 40
0.1
  9
$FILLETRAD
 40
0.0
  9
$AUNITS
 70
     0
  9
$AUPREC
 70
     1
  9
$MENU
  1
E:\r13\win\SUPPORT\ACAD
  9
$ELEVATION
 40
0.0
  9
$PELEVATION
 40
0.0
  9
$THICKNESS
 40
0.0
  9
$LIMCHECK
 70
     0
  9
$BLIPMODE
 70
     0
  9
$CHAMFERA
 40
0.0
  9
$CHAMFERB
 40
0.0
  9
$SKPOLY
 70
     0
  9
$TDCREATE
 40
2449839.773298610933125
  9
$TDUPDATE
 40
2460696.460104166995734
  9
$TDINDWG
 40
0.2085201505
  9
$TDUSRTIMER
 40
0.2085201505
  9
$USRTIMER
 70
     1
  9
$ANGBASE
 50
0.0
  9
$ANGDIR
 70
     0
  9
$PDMODE
 70
     0
  9
$PDSIZE
 40
0.0
  9
$PLINEWID
 40
0.0
  9
$COORDS
 70
     1
  9
$SPLFRAME
 70
     0
  9
$SPLINETYPE
 70
     6
  9
$SPLINESEGS
 70
     8
  9
$ATTDIA
 70
     1
  9
$ATTREQ
 70
     1
  9
$HANDLING
 70
     1
  9
$HANDSEED
  5
1DFE
  9
$SURFTAB1
 70
     6
  9
$SURFTAB2
 70
     6
  9
$SURFTYPE
 70
     6
  9
$SURFU
 70
     6
  9
$SURFV
 70
     6
  9
$UCSNAME
  2

  9
$UCSORG
 10
0.0
 20
0.0
 30
0.0
  9
$UCSXDIR
 10
1.0
 20
0.0
 30
0.0
  9
$UCSYDIR
 10
0.0
 20
1.0
 30
0.0
  9
$PUCSNAME
  2

  9
$PUCSORG
 10
0.0
 20
0.0
 30
0.0
  9
$PUCSXDIR
 10
1.0
 20
0.0
 30
0.0
  9
$PUCSYDIR
 10
0.0
 20
1.0
 30
0.0
  9
$USERI1
 70
     0
  9
$USERI2
 70
     1
  9
$USERI3
 70
     0
  9
$USERI4
 70
     0
  9
$USERI5
 70
     0
  9
$USERR1
 40
0.0
  9
$USERR2
 40
0.0
  9
$USERR3
 40
0.0
  9
$USERR4
 40
0.0
  9
$USERR5
 40
0.0
  9
$WORLDVIEW
 70
     1
  9
$SHADEDGE
 70
     3
  9
$SHADEDIF
 70
    70
  9
$TILEMODE
 70
     1
  9
$MAXACTVP
 70
    16
  9
$PLIMCHECK
 70
     0
  9
$PEXTMIN
 10
1.0000000000000000E+20
 20
1.0000000000000000E+20
 30
1.0000000000000000E+20
  9
$PEXTMAX
 10
-1.0000000000000000E+20
 20
-1.0000000000000000E+20
 30
-1.0000000000000000E+20
  9
$PLIMMIN
 10
0.0
 20
0.0
  9
$PLIMMAX
 10
12.0
 20
9.0
  9
$UNITMODE
 70
     0
  9
$VISRETAIN
 70
     0
  9
$PLINEGEN
 70
     0
  9
$PSLTSCALE
 70
     0
  0
ENDSEC
  0
SECTION
  2
TABLES
  0
TABLE
  2
VPORT
 70
     1
  0
VPORT
  2
*ACTIVE
 70
     0
 10
0.0
 20
0.0
 11
1.0
 21
1.0
 12
432.952182952182909
 22
184.350903281160214
 13
0.0
 23
0.0
 14
5.0
 24
5.0
 15
5.0
 25
5.0
 16
0.0
 26
0.0
 36
1.0
 17
0.0
 27
0.0
 37
0.0
 40
368.7018065623204279
 41
2.3485221674876842
 42
50.0
 43
0.0
 44
0.0
 50
0.0
 51
0.0
 71
     0
 72
   500
 73
     1
 74
     0
 75
     0
 76
     0
 77
     0
 78
     2
  0
ENDTAB
  0
TABLE
  2
LTYPE
 70
     2
  0
LTYPE
  2
CONTINUOUS
 70
     0
  3
Solid Line
 72
    65
 73
     0
 40
0.0
  0
LTYPE
  2
CENTER
 70
     0
  3
____ _ ____ _ ____ _ ____ _ ____ _ ____ _ ____
 72
    65
 73
     4
 40
2.0
 49
1.25
 49
-0.25
 49
0.25
 49
-0.25
  0
ENDTAB
  0
TABLE
  2
LAYER
 70
     4
  0
LAYER
  2
0
 70
     0
 62
     7
  6
CONTINUOUS
  0
LAYER
  2
1
 70
     0
 62
     1
  6
CENTER
  0
LAYER
  2
3
 70
     0
 62
     3
  6
CONTINUOUS
  0
LAYER
  2
DEFPOINTS
 70
     0
 62
     7
  6
CONTINUOUS
  0
ENDTAB
  0
TABLE
  2
STYLE
 70
     2
  0
STYLE
  2
STANDARD
 70
     0
 40
0.0
 41
1.0
 50
0.0
 71
     0
 42
0.2
  3
TXT
  4
BIGFONT
  0
STYLE
  2
STANDARD1
 70
     0
 40
0.0
 41
1.0
 50
0.0
 71
     0
 42
3.0
  3
txt
  4

  0
ENDTAB
  0
TABLE
  2
VIEW
 70
     1
  0
VIEW
  2
ALL
 70
     0
 40
270.0
 10
220.9915966386554942
 20
135.0
 41
0.0
 11
0.0
 21
0.0
 31
1.0
 12
0.0
 22
0.0
 32
0.0
 42
0.0
 43
0.0
 44
0.0
 50
0.0
 71
     0
  0
ENDTAB
  0
TABLE
  2
UCS
 70
     0
  0
ENDTAB
  0
TABLE
  2
APPID
 70
     6
  0
APPID
  2
ACAD
 70
     0
  0
APPID
  2
ACAD_DSTYLE_DIMJAG
 70
     0
  0
APPID
  2
ACAD_DSTYLE_DIMTALN
 70
     0
  0
APPID
  2
ACAD_EXEMPT_FROM_CAD_STANDARDS
 70
     0
  0
APPID
  2
ACAD_MLEADERVER
 70
     0
  0
APPID
  2
ACAD_NAV_VCDISPLAY
 70
     0
  0
ENDTAB
  0
TABLE
  2
DIMSTYLE
 70
     1
  0
DIMSTYLE
  2
STANDARD
 70
     0
  3

  4

  5

  6

  7

 40
1.0
 41
0.18
 42
0.0625
 43
0.38
 44
0.18
 45
0.0
 46
0.0
 47
0.0
 48
0.0
140
0.18
141
0.09
142
0.0
143
25.3999999999999986
144
1.0
145
0.0
146
1.0
147
0.09
 71
     0
 72
     0
 73
     1
 74
     1
 75
     0
 76
     0
 77
     0
 78
     0
170
     0
171
     2
172
     0
173
     0
174
     0
175
     0
176
     0
177
     0
178
     0
  0
ENDTAB
  0
ENDSEC
  0
SECTION
  2
BLOCKS
  0
BLOCK
  8
0
  2
$MODEL_SPACE
 70
     0
 10
0.0
 20
0.0
 30
0.0
  3
$MODEL_SPACE
  1

  0
ENDBLK
  5
1D4
  8
0
  0
BLOCK
 67
     1
  8
0
  2
$PAPER_SPACE
 70
     0
 10
0.0
 20
0.0
 30
0.0
  3
$PAPER_SPACE
  1

  0
ENDBLK
  5
1D2
 67
     1
  8
0
  0
ENDSEC
  0
SECTION
  2
ENTITIES
  0
TEXT
  5
678
  8
0
 62
     3
 10
0.0
 20
0.0
 30
0.0
 40
10.0
  1
IMG125-F-DS
  7
STANDARD1
  0
LINE
  5
BA6
  8
0
 10
136.75
 20
195.2000000000003865
 30
0.0
 11
13.25
 21
195.1999999999999886
 31
0.0
  0
LINE
  5
BA7
  8
0
 10
136.75
 20
195.2000000000003865
 30
0.0
 11
136.75
 21
162.2000000000003013
 31
0.0
  0
LINE
  5
BA8
  8
0
 10
13.25
 20
162.1999999999999886
 30
0.0
 11
136.75
 21
162.2000000000003013
 31
0.0
  0
LINE
  5
BA9
  8
0
 10
13.25
 20
162.1999999999999886
 30
0.0
 11
13.25
 21
195.1999999999999886
 31
0.0
  0
CIRCLE
  5
BAA
  8
0
 10
111.0
 20
178.7000000000003865
 30
0.0
 40
9.0
  0
CIRCLE
  5
BAC
  8
0
 10
39.0
 20
178.7000000000001023
 30
0.0
 40
9.0
  0
LINE
  5
BAE
  8
0
 10
34.381197846483019
 20
178.7000000000001023
 30
0.0
 11
36.6905989232416232
 21
174.7000000000001023
 31
0.0
  0
LINE
  5
BAF
  8
0
 10
36.6905989232416232
 20
174.7000000000001023
 30
0.0
 11
41.3094010767585971
 21
174.7000000000001023
 31
0.0
  0
LINE
  5
BB0
  8
0
 10
41.3094010767585971
 20
174.7000000000001023
 30
0.0
 11
43.618802153516981
 21
178.7000000000001023
 31
0.0
  0
LINE
  5
BB1
  8
0
 10
43.618802153516981
 20
178.7000000000001023
 30
0.0
 11
41.3094010767585971
 21
182.7000000000001023
 31
0.0
  0
LINE
  5
BB2
  8
0
 10
41.3094010767585971
 20
182.7000000000001023
 30
0.0
 11
36.6905989232414029
 21
182.7000000000001023
 31
0.0
  0
LINE
  5
BB3
  8
0
 10
36.6905989232414029
 20
182.7000000000001023
 30
0.0
 11
34.381197846483019
 21
178.7000000000001023
 31
0.0
  0
CIRCLE
  5
BB4
  8
0
 10
39.0
 20
178.7000000000001023
 30
0.0
 40
8.0
  0
LINE
  5
BB5
  8
0
 10
108.6905989232413958
 20
174.7000000000003865
 30
0.0
 11
113.3094010767583057
 21
174.7000000000003865
 31
0.0
  0
LINE
  5
BB6
  8
0
 10
115.6188021535169952
 20
178.7000000000003865
 30
0.0
 11
113.3094010767583057
 21
182.7000000000003865
 31
0.0
  0
LINE
  5
BB7
  8
0
 10
113.3094010767583057
 20
182.7000000000003865
 30
0.0
 11
108.6905989232413958
 21
182.7000000000003865
 31
0.0
  0
LINE
  5
BB8
  8
0
 10
108.6905989232413958
 20
182.7000000000003865
 30
0.0
 11
106.3811978464830048
 21
178.7000000000003865
 31
0.0
  0
LINE
  5
BB9
  8
0
 10
106.3811978464830048
 20
178.7000000000003865
 30
0.0
 11
108.6905989232413958
 21
174.7000000000003865
 31
0.0
  0
LINE
  5
BBA
  8
0
 10
113.3094010767583057
 20
174.7000000000003865
 30
0.0
 11
115.6188021535169952
 21
178.7000000000003865
 31
0.0
  0
CIRCLE
  5
BBB
  8
0
 10
111.0
 20
178.7000000000003865
 30
0.0
 40
8.0
  0
LINE
  5
BC0
  8
0
 10
13.25
 20
122.2000000000000028
 30
0.0
 11
136.75
 21
122.2000000000000028
 31
0.0
  0
LINE
  5
BC1
  8
0
 10
136.75
 20
122.2000000000000028
 30
0.0
 11
136.75
 21
88.699999999999946
 31
0.0
  0
LINE
  5
BC2
  8
0
 10
13.25
 20
95.0
 30
0.0
 11
136.75
 21
95.0
 31
0.0
  0
LINE
  5
BC3
  8
0
 10
13.25
 20
88.699999999999946
 30
0.0
 11
13.25
 21
122.2000000000000028
 31
0.0
  0
LINE
  5
BC4
  8
0
 10
46.7776388834631689
 20
88.699999999999946
 30
0.0
 11
103.2223611165368027
 21
88.699999999999946
 31
0.0
  0
LINE
  5
BC5
  8
0
 10
46.7776388834631689
 20
88.699999999999946
 30
0.0
 11
46.7776388834631689
 21
59.1999999999999886
 31
0.0
  0
LINE
  5
BC6
  8
0
 10
34.9723611165334205
 20
59.1999999999999886
 30
0.0
 11
34.9723611165368311
 21
88.699999999999946
 31
0.0
  0
LINE
  5
BC7
  8
0
 10
34.9723611165368311
 20
88.699999999999946
 30
0.0
 11
13.25
 21
88.699999999999946
 31
0.0
  0
LINE
  5
BC8
  8
0
 10
136.75
 20
88.699999999999946
 30
0.0
 11
115.0276388834630978
 21
88.699999999999946
 31
0.0
  0
LINE
  5
BC9
  8
0
 10
115.0276388834630978
 20
88.699999999999946
 30
0.0
 11
115.0276388834630978
 21
59.1999999999999886
 31
0.0
  0
LINE
  5
BCA
  8
0
 10
103.2223611165368027
 20
59.1999999999999886
 30
0.0
 11
103.2223611165368027
 21
88.699999999999946
 31
0.0
  0
LINE
  5
BCB
  8
0
 10
97.0
 20
88.6999999999999886
 30
0.0
 11
97.0
 21
59.1999999999999886
 31
0.0
  0
LINE
  5
BCC
  8
0
 10
121.25
 20
59.1999999999999886
 30
0.0
 11
121.25
 21
88.6999999999999886
 31
0.0
  0
LINE
  5
BCD
  8
0
 10
121.25
 20
59.1999999999999886
 30
0.0
 11
97.0
 21
59.1999999999999886
 31
0.0
  0
LINE
  5
BCE
  8
0
 10
28.75
 20
59.1999999999999886
 30
0.0
 11
53.0
 21
59.1999999999999886
 31
0.0
  0
LINE
  5
BCF
  8
0
 10
28.75
 20
88.6999999999999886
 30
0.0
 11
28.75
 21
59.1999999999999886
 31
0.0
  0
LINE
  5
BD0
  8
0
 10
53.0
 20
59.1999999999999886
 30
0.0
 11
53.0
 21
88.6999999999999886
 31
0.0
  0
LINE
  5
BD5
  8
0
 10
183.25
 20
88.6999999999999318
 30
0.0
 11
203.25
 21
88.6999999999999886
 31
0.0
  0
LINE
  5
BD6
  8
0
 10
176.75
 20
94.9999999999999858
 30
0.0
 11
183.25
 21
94.9999999999999858
 31
0.0
  0
LINE
  5
BD7
  8
0
 10
176.75
 20
122.1999999999999034
 30
0.0
 11
176.75
 21
94.9999999999999858
 31
0.0
  0
LINE
  5
BD8
  8
0
 10
209.75
 20
122.1999999999999034
 30
0.0
 11
176.75
 21
122.1999999999999034
 31
0.0
  0
CIRCLE
  5
BD9
  8
3
 10
193.250000000000199
 20
105.4500000000000028
 30
0.0
 40
4.0
  0
LINE
  5
BDA
  8
0
 10
209.75
 20
122.1999999999999034
 30
0.0
 11
209.75
 21
95.0000000000000284
 31
0.0
  0
LINE
  5
BDB
  8
0
 10
209.75
 20
95.0000000000000284
 30
0.0
 11
203.25
 21
94.9999999999999858
 31
0.0
  0
LINE
  5
BDC
  8
0
 10
203.25
 20
59.1999999999999602
 30
0.0
 11
203.25
 21
94.9999999999999858
 31
0.0
  0
LINE
  5
BDD
  8
0
 10
203.25
 20
59.1999999999999602
 30
0.0
 11
183.2500000000003979
 21
59.1999999999999602
 31
0.0
  0
LINE
  5
BDE
  8
0
 10
183.25
 20
94.9999999999999858
 30
0.0
 11
183.2500000000003979
 21
59.1999999999999602
 31
0.0
  0
LINE
  5
BE2
  8
1
 10
39.0
 20
38.5999999999999872
 30
0.0
 11
39.0
 21
125.2000000000000028
 31
0.0
  0
LINE
  5
BE5
  8
1
 10
111.0
 20
38.5999999999999872
 30
0.0
 11
111.0
 21
125.2000000000000028
 31
0.0
  0
LINE
  5
BE6
  8
1
 10
75.0
 20
83.699999999999946
 30
0.0
 11
75.0
 21
122.2000000000000028
 31
0.0
  0
LINE
  5
BE7
  8
1
 10
75.0
 20
122.2000000000000028
 30
0.0
 11
75.0
 21
127.2000000000000028
 31
0.0
  0
LINE
  5
BE8
  8
1
 10
8.25
 20
178.6999999999999886
 30
0.0
 11
141.75
 21
178.7000000000003865
 31
0.0
  0
LINE
  5
BE9
  8
1
 10
75.0
 20
200.2000000000001876
 30
0.0
 11
75.0
 21
157.2000000000001023
 31
0.0
  0
LINE
  5
BEA
  8
1
 10
111.0
 20
190.7000000000003013
 30
0.0
 11
111.0
 21
166.7000000000003865
 31
0.0
  0
LINE
  5
BEB
  8
1
 10
39.0
 20
190.7000000000001023
 30
0.0
 11
39.0
 21
166.7000000000001023
 31
0.0
  0
CIRCLE
  5
BEC
  8
0
 10
193.2499999999996874
 20
105.4500000000000028
 30
0.0
 40
3.3235000000000001
  0
LINE
  5
BED
  8
1
 10
200.250000000000199
 20
105.4500000000000028
 30
0.0
 11
186.250000000000199
 21
105.4500000000000028
 31
0.0
  0
LINE
  5
BF0
  8
1
 10
193.2500000000003979
 20
36.599999999999973
 30
0.0
 11
193.2500000000003979
 21
127.1999999999999034
 31
0.0
  0
LINE
  5
CBF
  8
0
 10
198.2500000000003979
 20
43.0999999999998735
 30
0.0
 11
188.2500000000003979
 21
43.099999999999973
 31
0.0
  0
LINE
  5
CC0
  8
0
 10
189.7500000000003979
 20
41.5999999999999801
 30
0.0
 11
188.2500000000003979
 21
43.099999999999973
 31
0.0
  0
LINE
  5
CC1
  8
0
 10
198.2500000000003979
 20
43.0999999999998735
 30
0.0
 11
196.7500000000003979
 21
41.5999999999999233
 31
0.0
  0
LINE
  5
CC2
  8
0
 10
198.2500000000003979
 20
59.1999999999999602
 30
0.0
 11
198.2500000000003979
 21
43.0999999999998735
 31
0.0
  0
LINE
  5
CC3
  8
3
 10
197.4380000000004998
 20
59.1999999999999531
 30
0.0
 11
197.4380000000004998
 21
42.2879999999999683
 31
0.0
  0
LINE
  5
CC4
  8
3
 10
189.062000000000296
 20
59.1999999999999602
 30
0.0
 11
189.062000000000296
 21
42.288000000000018
 31
0.0
  0
LINE
  5
CC5
  8
0
 10
188.2500000000003979
 20
59.1999999999999602
 30
0.0
 11
188.2500000000003979
 21
43.099999999999973
 31
0.0
  0
LINE
  5
CC6
  8
0
 10
196.7500000000003979
 20
41.5999999999999233
 30
0.0
 11
189.7500000000003979
 21
41.5999999999999801
 31
0.0
  0
LINE
  5
CC8
  8
0
 10
116.0
 20
43.0999999999998806
 30
0.0
 11
106.0
 21
43.1000000000000014
 31
0.0
  0
LINE
  5
CC9
  8
0
 10
107.5
 20
41.6000000000000014
 30
0.0
 11
106.0
 21
43.1000000000000014
 31
0.0
  0
LINE
  5
CCA
  8
0
 10
116.0
 20
43.0999999999998806
 30
0.0
 11
114.5
 21
41.5999999999999375
 31
0.0
  0
LINE
  5
CCB
  8
0
 10
116.0
 20
59.1999999999999815
 30
0.0
 11
116.0
 21
43.0999999999998806
 31
0.0
  0
LINE
  5
CCC
  8
3
 10
115.1880000000000024
 20
59.1999999999999815
 30
0.0
 11
115.1880000000001019
 21
42.2879999999999825
 31
0.0
  0
LINE
  5
CCD
  8
3
 10
106.8119999999998981
 20
59.1999999999999815
 30
0.0
 11
106.8119999999998981
 21
42.2880000000000393
 31
0.0
  0
LINE
  5
CCE
  8
0
 10
106.0
 20
59.1999999999999815
 30
0.0
 11
106.0
 21
43.1000000000000014
 31
0.0
  0
LINE
  5
CCF
  8
0
 10
114.5
 20
41.5999999999999375
 30
0.0
 11
107.5
 21
41.6000000000000014
 31
0.0
  0
LINE
  5
CD0
  8
0
 10
44.0
 20
43.0999999999999019
 30
0.0
 11
34.0
 21
43.1000000000000227
 31
0.0
  0
LINE
  5
CD1
  8
0
 10
35.5
 20
41.6000000000000227
 30
0.0
 11
34.0
 21
43.1000000000000227
 31
0.0
  0
LINE
  5
CD2
  8
0
 10
44.0
 20
43.0999999999999019
 30
0.0
 11
42.5
 21
41.5999999999999588
 31
0.0
  0
LINE
  5
CD3
  8
0
 10
44.0
 20
59.2000000000000028
 30
0.0
 11
44.0
 21
43.0999999999999019
 31
0.0
  0
LINE
  5
CD4
  8
3
 10
43.1880000000000734
 20
59.1999999999999886
 30
0.0
 11
43.1880000000001019
 21
42.2880000000000109
 31
0.0
  0
LINE
  5
CD5
  8
3
 10
34.8119999999998981
 20
59.2000000000000028
 30
0.0
 11
34.8119999999999266
 21
42.2880000000000607
 31
0.0
  0
LINE
  5
CD6
  8
0
 10
33.9999999999999716
 20
59.2000000000000028
 30
0.0
 11
34.0
 21
43.1000000000000227
 31
0.0
  0
LINE
  5
CD7
  8
0
 10
42.5
 20
41.5999999999999588
 30
0.0
 11
35.5
 21
41.6000000000000227
 31
0.0
  0
LINE
  5
119F
  8
0
 10
364.75
 20
104.1999999999999034
 30
0.0
 11
364.75
 21
105.1999999999999034
 31
0.0
  0
LINE
  5
11A0
  8
0
 10
358.75
 20
105.1999999999999034
 30
0.0
 11
358.75
 21
104.1999999999999034
 31
0.0
  0
LINE
  5
11A1
  8
0
 10
410.7499999999998863
 20
104.1999999999999034
 30
0.0
 11
410.7499999999998863
 21
105.1999999999999034
 31
0.0
  0
LINE
  5
11A2
  8
0
 10
404.75
 20
105.1999999999999034
 30
0.0
 11
404.75
 21
104.1999999999999034
 31
0.0
  0
LINE
  5
11A6
  8
0
 10
366.0
 20
79.6999999999999602
 30
0.0
 11
365.5
 21
79.1999999999999602
 31
0.0
  0
LINE
  5
11A7
  8
0
 10
356.5
 20
104.1999999999999034
 30
0.0
 11
369.0
 21
104.1999999999999034
 31
0.0
  0
LINE
  5
11AA
  8
0
 10
356.0
 20
103.6999999999999034
 30
0.0
 11
356.5
 21
104.1999999999999034
 31
0.0
  0
ARC
  5
11AB
  8
0
 10
385.0
 20
86.6999999999999602
 30
0.0
 40
19.0
 50
144.6654982081753928
 51
180.0
  0
LINE
  5
11B1
  8
0
 10
366.0
 20
86.6999999999999602
 30
0.0
 11
366.0
 21
79.6999999999999602
 31
0.0
  0
LINE
  5
11B7
  8
0
 10
356.0
 20
93.699999999999946
 30
0.0
 11
356.0
 21
103.6999999999999034
 31
0.0
  0
LINE
  5
11BA
  8
0
 10
348.5
 20
93.1999999999999602
 30
0.0
 11
349.0
 21
93.699999999999946
 31
0.0
  0
LINE
  5
11BB
  8
0
 10
349.0
 20
93.699999999999946
 30
0.0
 11
356.0
 21
93.699999999999946
 31
0.0
  0
LINE
  5
11BF
  8
0
 10
365.5
 20
79.1999999999999602
 30
0.0
 11
349.0
 21
79.1999999999999602
 31
0.0
  0
LINE
  5
11C0
  8
0
 10
349.0
 20
79.1999999999999602
 30
0.0
 11
348.5
 21
79.6999999999999602
 31
0.0
  0
LINE
  5
11C3
  8
0
 10
348.5
 20
79.6999999999999602
 30
0.0
 11
348.5
 21
93.1999999999999602
 31
0.0
  0
LINE
  5
11C6
  8
0
 10
369.5
 20
105.1999999999999034
 30
0.0
 11
369.5
 21
97.6886304879178908
 31
0.0
  0
LINE
  5
11C8
  8
0
 10
369.0
 20
104.1999999999999034
 30
0.0
 11
369.5
 21
103.6999999999999034
 31
0.0
  0
LINE
  5
11CA
  8
0
 10
400.0
 20
97.6886304879178908
 30
0.0
 11
400.0
 21
105.1999999999999034
 31
0.0
  0
LINE
  5
11D3
  8
0
 10
413.4999999999998863
 20
93.699999999999946
 30
0.0
 11
420.5
 21
93.699999999999946
 31
0.0
  0
ARC
  5
11D6
  8
0
 10
384.5
 20
86.6999999999999602
 30
0.0
 40
19.0
 50
0.0
 51
35.3345017918246072
  0
LINE
  5
11D7
  8
0
 10
400.4999999999998863
 20
104.1999999999999034
 30
0.0
 11
413.0
 21
104.1999999999999034
 31
0.0
  0
LINE
  5
11D9
  8
0
 10
400.4999999999998863
 20
104.1999999999999034
 30
0.0
 11
400.0
 21
103.6999999999999034
 31
0.0
  0
LINE
  5
11DF
  8
0
 10
403.5
 20
79.6999999999999602
 30
0.0
 11
403.5
 21
86.6999999999999602
 31
0.0
  0
LINE
  5
11E2
  8
0
 10
420.5
 20
79.1999999999999602
 30
0.0
 11
404.0
 21
79.1999999999999602
 31
0.0
  0
LINE
  5
11E3
  8
0
 10
403.5
 20
79.6999999999999602
 30
0.0
 11
404.0
 21
79.1999999999999602
 31
0.0
  0
LINE
  5
11E6
  8
0
 10
413.4999999999998863
 20
103.6999999999999034
 30
0.0
 11
413.0
 21
104.1999999999999034
 31
0.0
  0
LINE
  5
11E9
  8
0
 10
421.0
 20
93.1999999999999602
 30
0.0
 11
420.5
 21
93.699999999999946
 31
0.0
  0
LINE
  5
11EA
  8
0
 10
421.0
 20
93.1999999999999602
 30
0.0
 11
421.0
 21
79.6999999999999602
 31
0.0
  0
LINE
  5
11EC
  8
0
 10
413.4999999999998863
 20
103.6999999999999034
 30
0.0
 11
413.4999999999998863
 21
93.699999999999946
 31
0.0
  0
LINE
  5
11EE
  8
0
 10
420.5
 20
79.1999999999999602
 30
0.0
 11
421.0
 21
79.6999999999999602
 31
0.0
  0
LINE
  5
11F1
  8
0
 10
371.3802580428791202
 20
100.1999999999999034
 30
0.0
 11
370.0
 21
100.1999999999999034
 31
0.0
  0
LINE
  5
11F2
  8
0
 10
369.5
 20
100.6999999999999034
 30
0.0
 11
370.0
 21
100.1999999999999034
 31
0.0
  0
LINE
  5
11F6
  8
0
 10
413.25
 20
105.1999999999999034
 30
0.0
 11
413.75
 21
105.6999999999999034
 31
0.0
  0
LINE
  5
1209
  8
0
 10
355.75
 20
108.6999999999999034
 30
0.0
 11
340.25
 21
108.6999999999999034
 31
0.0
  0
LINE
  5
120A
  8
0
 10
339.75
 20
109.1999999999999034
 30
0.0
 11
340.25
 21
108.6999999999999034
 31
0.0
  0
LINE
  5
120C
  8
0
 10
413.75
 20
108.6999999999999034
 30
0.0
 11
413.75
 21
105.6999999999999034
 31
0.0
  0
LINE
  5
1213
  8
0
 10
429.25
 20
108.6999999999999034
 30
0.0
 11
429.75
 21
109.1999999999999034
 31
0.0
  0
LINE
  5
1214
  8
0
 10
413.25
 20
105.1999999999999034
 30
0.0
 11
400.0
 21
105.1999999999999034
 31
0.0
  0
LINE
  5
1216
  8
0
 10
339.75
 20
109.1999999999999034
 30
0.0
 11
339.75
 21
121.6999999999999034
 31
0.0
  0
LINE
  5
1218
  8
0
 10
355.75
 20
105.6999999999999034
 30
0.0
 11
355.75
 21
108.6999999999999034
 31
0.0
  0
LINE
  5
1219
  8
0
 10
369.5
 20
105.1999999999999034
 30
0.0
 11
356.25
 21
105.1999999999999034
 31
0.0
  0
LINE
  5
121A
  8
0
 10
356.25
 20
105.1999999999999034
 30
0.0
 11
355.75
 21
105.6999999999999034
 31
0.0
  0
LINE
  5
1221
  8
0
 10
399.5
 20
100.1999999999999034
 30
0.0
 11
400.0
 21
100.6999999999999034
 31
0.0
  0
LINE
  5
1222
  8
0
 10
340.25
 20
122.1999999999999034
 30
0.0
 11
429.25
 21
122.1999999999999034
 31
0.0
  0
LINE
  5
1224
  8
0
 10
340.25
 20
122.1999999999999034
 30
0.0
 11
339.75
 21
121.6999999999999034
 31
0.0
  0
LINE
  5
1228
  8
0
 10
429.75
 20
121.6999999999999034
 30
0.0
 11
429.75
 21
109.1999999999999034
 31
0.0
  0
LINE
  5
1229
  8
0
 10
429.25
 20
108.6999999999999034
 30
0.0
 11
413.75
 21
108.6999999999999034
 31
0.0
  0
LINE
  5
122A
  8
0
 10
399.5
 20
100.1999999999999034
 30
0.0
 11
398.1197419571209934
 21
100.1999999999999034
 31
0.0
  0
LINE
  5
122F
  8
0
 10
429.75
 20
121.6999999999999034
 30
0.0
 11
429.25
 21
122.1999999999999034
 31
0.0
  0
ARC
  5
1230
  8
0
 10
384.75
 20
86.6999999999999602
 30
0.0
 40
19.0
 50
45.2777539752124625
 51
134.7222460247874949
  0
LINE
  5
1245
  8
0
 10
359.25
 20
171.6433756729740026
 30
0.0
 11
359.25
 21
168.7566243270258894
 31
0.0
  0
LINE
  5
1246
  8
0
 10
359.25
 20
168.7566243270258894
 30
0.0
 11
361.75
 21
167.3132486540517903
 31
0.0
  0
LINE
  5
1247
  8
0
 10
364.25
 20
168.7566243270258894
 30
0.0
 11
361.75
 21
167.3132486540517903
 31
0.0
  0
LINE
  5
1248
  8
0
 10
364.25
 20
171.6433756729740026
 30
0.0
 11
364.25
 21
168.7566243270258894
 31
0.0
  0
LINE
  5
1249
  8
0
 10
364.25
 20
171.6433756729740026
 30
0.0
 11
361.75
 21
173.0867513459481017
 31
0.0
  0
LINE
  5
124A
  8
0
 10
359.25
 20
171.6433756729740026
 30
0.0
 11
361.75
 21
173.0867513459481017
 31
0.0
  0
LINE
  5
124D
  8
0
 10
405.25
 20
171.6433756729740026
 30
0.0
 11
405.25
 21
168.7566243270258894
 31
0.0
  0
LINE
  5
124E
  8
0
 10
405.25
 20
168.7566243270258894
 30
0.0
 11
407.7499999999998863
 21
167.3132486540517903
 31
0.0
  0
LINE
  5
124F
  8
0
 10
410.25
 20
168.7566243270258894
 30
0.0
 11
407.7499999999998863
 21
167.3132486540517903
 31
0.0
  0
LINE
  5
1250
  8
0
 10
410.25
 20
171.6433756729740026
 30
0.0
 11
410.25
 21
168.7566243270258894
 31
0.0
  0
LINE
  5
1251
  8
0
 10
410.25
 20
171.6433756729740026
 30
0.0
 11
407.7499999999998863
 21
173.0867513459481017
 31
0.0
  0
LINE
  5
1252
  8
0
 10
405.25
 20
171.6433756729740026
 30
0.0
 11
407.7499999999998863
 21
173.0867513459481017
 31
0.0
  0
LINE
  5
1260
  8
0
 10
429.25
 20
178.1999999999999886
 30
0.0
 11
429.75
 21
177.6999999999999886
 31
0.0
  0
LINE
  5
1263
  8
0
 10
429.75
 20
177.6999999999999886
 30
0.0
 11
429.75
 21
162.6999999999999034
 31
0.0
  0
LINE
  5
1266
  8
0
 10
339.75
 20
162.6999999999999034
 30
0.0
 11
339.75
 21
177.6999999999999886
 31
0.0
  0
LINE
  5
1268
  8
0
 10
339.75
 20
177.6999999999999886
 30
0.0
 11
340.25
 21
178.1999999999999886
 31
0.0
  0
LINE
  5
126A
  8
0
 10
340.25
 20
178.1999999999999886
 30
0.0
 11
429.25
 21
178.1999999999999886
 31
0.0
  0
LINE
  5
1270
  8
0
 10
340.25
 20
162.1999999999999034
 30
0.0
 11
339.75
 21
162.6999999999999034
 31
0.0
  0
LINE
  5
1271
  8
0
 10
429.75
 20
162.6999999999999034
 30
0.0
 11
429.25
 21
162.1999999999999034
 31
0.0
  0
LINE
  5
1273
  8
0
 10
429.25
 20
162.1999999999999034
 30
0.0
 11
340.25
 21
162.1999999999999034
 31
0.0
  0
LINE
  5
1275
  8
0
 10
474.75
 20
104.1999999999999034
 30
0.0
 11
474.75
 21
105.1999999999999034
 31
0.0
  0
LINE
  5
1276
  8
0
 10
480.75
 20
104.1999999999999034
 30
0.0
 11
480.75
 21
105.1999999999999034
 31
0.0
  0
LINE
  5
127A
  8
0
 10
484.75
 20
79.1999999999999602
 30
0.0
 11
485.25
 21
79.6999999999999602
 31
0.0
  0
LINE
  5
127C
  8
0
 10
485.25
 20
103.6999999999999034
 30
0.0
 11
485.25
 21
79.6999999999999602
 31
0.0
  0
LINE
  5
1286
  8
0
 10
485.25
 20
93.1999999999999602
 30
0.0
 11
484.75
 21
93.699999999999946
 31
0.0
  0
LINE
  5
1289
  8
0
 10
470.2499999999998863
 20
93.1999999999999602
 30
0.0
 11
470.75
 21
93.699999999999946
 31
0.0
  0
LINE
  5
128A
  8
0
 10
470.75
 20
93.699999999999946
 30
0.0
 11
484.75
 21
93.699999999999946
 31
0.0
  0
LINE
  5
128B
  8
0
 10
484.75
 20
79.1999999999999602
 30
0.0
 11
470.75
 21
79.1999999999999602
 31
0.0
  0
LINE
  5
128C
  8
0
 10
470.2499999999998863
 20
79.6999999999999602
 30
0.0
 11
470.75
 21
79.1999999999999602
 31
0.0
  0
LINE
  5
128E
  8
0
 10
470.2499999999998863
 20
79.6999999999999602
 30
0.0
 11
470.2499999999998863
 21
103.6999999999999034
 31
0.0
  0
LINE
  5
1290
  8
0
 10
484.75
 20
104.1999999999999034
 30
0.0
 11
485.25
 21
103.6999999999999034
 31
0.0
  0
LINE
  5
129B
  8
0
 10
470.2499999999998863
 20
103.6999999999999034
 30
0.0
 11
470.75
 21
104.1999999999999034
 31
0.0
  0
LINE
  5
129C
  8
0
 10
470.75
 20
104.1999999999999034
 30
0.0
 11
484.75
 21
104.1999999999999034
 31
0.0
  0
LINE
  5
12AA
  8
0
 10
485.25
 20
108.6999999999999034
 30
0.0
 11
485.7499999999998863
 21
109.1999999999999034
 31
0.0
  0
LINE
  5
12AD
  8
0
 10
485.7499999999998863
 20
121.6999999999999034
 30
0.0
 11
485.25
 21
122.1999999999999034
 31
0.0
  0
LINE
  5
12B1
  8
0
 10
485.25
 20
108.6999999999999034
 30
0.0
 11
470.2499999999998863
 21
108.6999999999999034
 31
0.0
  0
LINE
  5
12B2
  8
0
 10
470.2499999999998863
 20
108.6999999999999034
 30
0.0
 11
469.7499999999998863
 21
109.1999999999999034
 31
0.0
  0
LINE
  5
12B3
  8
0
 10
469.7499999999998863
 20
121.6999999999999034
 30
0.0
 11
470.2499999999998863
 21
122.1999999999999034
 31
0.0
  0
LINE
  5
12B4
  8
0
 10
470.2499999999998863
 20
122.1999999999999034
 30
0.0
 11
485.25
 21
122.1999999999999034
 31
0.0
  0
LINE
  5
12B8
  8
0
 10
485.25
 20
105.1999999999999034
 30
0.0
 11
485.7499999999998863
 21
105.6999999999999034
 31
0.0
  0
LINE
  5
12BF
  8
0
 10
485.25
 20
105.1999999999999034
 30
0.0
 11
470.2499999999998863
 21
105.1999999999999034
 31
0.0
  0
LINE
  5
12C0
  8
0
 10
470.2499999999998863
 20
105.1999999999999034
 30
0.0
 11
469.7499999999998863
 21
105.6999999999999034
 31
0.0
  0
LINE
  5
12C5
  8
0
 10
485.7499999999998863
 20
121.6999999999999034
 30
0.0
 11
485.7499999999998863
 21
100.6999999999999034
 31
0.0
  0
LINE
  5
12C6
  8
0
 10
485.25
 20
100.1999999999999034
 30
0.0
 11
485.7499999999998863
 21
100.6999999999999034
 31
0.0
  0
LINE
  5
12C8
  8
0
 10
470.2499999999998863
 20
100.1999999999999034
 30
0.0
 11
469.7499999999998863
 21
100.6999999999999034
 31
0.0
  0
LINE
  5
12CA
  8
0
 10
469.7499999999998863
 20
100.6999999999999034
 30
0.0
 11
469.7499999999998863
 21
121.6999999999999034
 31
0.0
  0
CIRCLE
  5
1CE2
  8
0
 10
361.75
 20
170.1999999999999886
 30
0.0
 40
5.5000000000000284
  0
CIRCLE
  5
1CE3
  8
0
 10
407.7499999999998863
 20
170.1999999999999886
 30
0.0
 40
5.5000000000000284
  0
LINE
  5
1CED
  8
1
 10
334.7499999999998863
 20
170.1999999999999886
 30
0.0
 11
434.75
 21
170.1999999999999886
 31
0.0
  0
LINE
  5
1CEE
  8
1
 10
384.7500000000001137
 20
157.1999999999999034
 30
0.0
 11
384.75
 21
183.1999999999999886
 31
0.0
  0
LINE
  5
1CF0
  8
1
 10
384.75
 20
127.1999999999999034
 30
0.0
 11
384.75
 21
74.1999999999999744
 31
0.0
  0
LINE
  5
1CF8
  8
1
 10
361.75
 20
161.6999999999999034
 30
0.0
 11
361.75
 21
178.6999999999999886
 31
0.0
  0
LINE
  5
1CFA
  8
1
 10
407.7499999999998863
 20
161.6999999999999034
 30
0.0
 11
407.7499999999998863
 21
178.6999999999999886
 31
0.0
  0
LINE
  5
1CFC
  8
1
 10
361.75
 20
125.2000000000000028
 30
0.0
 11
361.7500000000001137
 21
86.199999999999946
 31
0.0
  0
LINE
  5
1CFD
  8
1
 10
407.7499999999998863
 20
125.2000000000000028
 30
0.0
 11
407.7499999999998863
 21
86.199999999999946
 31
0.0
  0
LINE
  5
1D5A
  8
3
 10
364.2085000000000719
 20
105.1999999999999034
 30
0.0
 11
364.208500000000015
 21
104.1999999999999034
 31
0.0
  0
LINE
  5
1D5B
  8
3
 10
359.2914999999999281
 20
105.1999999999999034
 30
0.0
 11
359.2914999999999281
 21
104.1999999999999034
 31
0.0
  0
LINE
  5
1D5C
  8
3
 10
410.208500000000015
 20
105.1999999999999034
 30
0.0
 11
410.2084999999999013
 21
104.1999999999999034
 31
0.0
  0
LINE
  5
1D5D
  8
3
 10
405.2914999999999281
 20
105.1999999999999034
 30
0.0
 11
405.2914999999999281
 21
104.1999999999999034
 31
0.0
  0
LINE
  5
1D5F
  8
3
 10
480.208500000000015
 20
105.1999999999999034
 30
0.0
 11
480.2084999999999013
 21
104.1999999999999034
 31
0.0
  0
LINE
  5
1D60
  8
3
 10
475.2914999999999281
 20
105.1999999999999034
 30
0.0
 11
475.2914999999999281
 21
104.1999999999999034
 31
0.0
  0
LINE
  5
1D61
  8
1
 10
477.75
 20
127.2000000000000028
 30
0.0
 11
477.7499999999998863
 21
74.1999999999999744
 31
0.0
  0
CIRCLE
  5
1D73
  8
0
 10
407.7499999999998863
 20
170.1999999999999886
 30
0.0
 40
5.0
  0
CIRCLE
  5
1D74
  8
0
 10
361.75
 20
170.1999999999999886
 30
0.0
 40
5.0
  0
ENDSEC
  0
EOF
