  0
SECTION
  2
HEADER
  9
$ACADVER
  1
AC1009
  9
$INSBASE
 10
0.0
 20
0.0
 30
0.0
  9
$EXTMIN
 10
0.0
 20
-1.4802182810368341
 30
0.0
  9
$EXTMAX
 10
109.48999999999999
 20
62.0
 30
0.0
  9
$LIMMIN
 10
0.0
 20
0.0
  9
$LIMMAX
 10
187.5
 20
135.0
  9
$ORTHOMODE
 70
     1
  9
$REGENMODE
 70
     1
  9
$FILLMODE
 70
     1
  9
$QTEXTMODE
 70
     0
  9
$MIRRTEXT
 70
     0
  9
$DRAGMODE
 70
     2
  9
$LTSCALE
 40
2.0
  9
$OSMODE
 70
    37
  9
$ATTMODE
 70
     1
  9
$TEXTSIZE
 40
4.0
  9
$TRACEWID
 40
0.05
  9
$TEXTSTYLE
  7
STANDARD
  9
$CLAYER
  8
0
  9
$CELTYPE
  6
BYLAYER
  9
$CECOLOR
 62
   256
  9
$DIMSCALE
 40
0.5
  9
$DIMASZ
 40
3.0
  9
$DIMEXO
 40
2.0
  9
$DIMDLI
 40
0.38
  9
$DIMRND
 40
0.0
  9
$DIMDLE
 40
0.0
  9
$DIMEXE
 40
2.0
  9
$DIMTP
 40
0.0
  9
$DIMTM
 40
0.0
  9
$DIMTXT
 40
3.0
  9
$DIMCEN
 40
0.0
  9
$DIMTSZ
 40
0.0
  9
$DIMTOL
 70
     0
  9
$DIMLIM
 70
     0
  9
$DIMTIH
 70
     0
  9
$DIMTOH
 70
     0
  9
$DIMSE1
 70
     0
  9
$DIMSE2
 70
     0
  9
$DIMTAD
 70
     1
  9
$DIMZIN
 70
     8
  9
$DIMBLK
  1

  9
$DIMASO
 70
     0
  9
$DIMSHO
 70
     0
  9
$DIMPOST
  1

  9
$DIMAPOST
  1

  9
$DIMALT
 70
     0
  9
$DIMALTD
 70
     2
  9
$DIMALTF
 40
25.399999999999999
  9
$DIMLFAC
 40
1.0
  9
$DIMTOFL
 70
     1
  9
$DIMTVP
 40
1.6000000000000001
  9
$DIMTIX
 70
     1
  9
$DIMSOXD
 70
     0
  9
$DIMSAH
 70
     0
  9
$DIMBLK1
  1

  9
$DIMBLK2
  1

  9
$DIMSTYLE
  2
STANDARD
  9
$DIMCLRD
 70
   256
  9
$DIMCLRE
 70
   256
  9
$DIMCLRT
 70
   256
  9
$DIMTFAC
 40
1.0
  9
$DIMGAP
 40
1.0
  9
$LUNITS
 70
     2
  9
$LUPREC
 70
     1
  9
$SKETCHINC
 40
0.1
  9
$FILLETRAD
 40
1.0
  9
$AUNITS
 70
     0
  9
$AUPREC
 70
     0
  9
$MENU
  1
E:\r13\win\SUPPORT\ACAD
  9
$ELEVATION
 40
0.0
  9
$PELEVATION
 40
0.0
  9
$THICKNESS
 40
0.0
  9
$LIMCHECK
 70
     0
  9
$BLIPMODE
 70
     0
  9
$CHAMFERA
 40
0.0
  9
$CHAMFERB
 40
0.0
  9
$SKPOLY
 70
     0
  9
$TDCREATE
 40
2449840.6143865739
  9
$TDUPDATE
 40
2459256.6226480328
  9
$TDINDWG
 40
0.6301007523
  9
$TDUSRTIMER
 40
0.6301007523
  9
$USRTIMER
 70
     1
  9
$ANGBASE
 50
0.0
  9
$ANGDIR
 70
     0
  9
$PDMODE
 70
     0
  9
$PDSIZE
 40
0.0
  9
$PLINEWID
 40
0.0
  9
$COORDS
 70
     1
  9
$SPLFRAME
 70
     0
  9
$SPLINETYPE
 70
     6
  9
$SPLINESEGS
 70
     8
  9
$ATTDIA
 70
     0
  9
$ATTREQ
 70
     1
  9
$HANDLING
 70
     1
  9
$HANDSEED
  5
2541
  9
$SURFTAB1
 70
     6
  9
$SURFTAB2
 70
     6
  9
$SURFTYPE
 70
     6
  9
$SURFU
 70
     6
  9
$SURFV
 70
     6
  9
$UCSNAME
  2

  9
$UCSORG
 10
0.0
 20
0.0
 30
0.0
  9
$UCSXDIR
 10
1.0
 20
0.0
 30
0.0
  9
$UCSYDIR
 10
0.0
 20
1.0
 30
0.0
  9
$PUCSNAME
  2

  9
$PUCSORG
 10
0.0
 20
0.0
 30
0.0
  9
$PUCSXDIR
 10
1.0
 20
0.0
 30
0.0
  9
$PUCSYDIR
 10
0.0
 20
1.0
 30
0.0
  9
$USERI1
 70
     0
  9
$USERI2
 70
     1
  9
$USERI3
 70
     1
  9
$USERI4
 70
     0
  9
$USERI5
 70
     0
  9
$USERR1
 40
0.0
  9
$USERR2
 40
0.0
  9
$USERR3
 40
0.0
  9
$USERR4
 40
0.0
  9
$USERR5
 40
0.0
  9
$WORLDVIEW
 70
     1
  9
$SHADEDGE
 70
     3
  9
$SHADEDIF
 70
    70
  9
$TILEMODE
 70
     1
  9
$MAXACTVP
 70
    16
  9
$PLIMCHECK
 70
     0
  9
$PEXTMIN
 10
1.0000000000000000E+020
 20
1.0000000000000000E+020
 30
1.0000000000000000E+020
  9
$PEXTMAX
 10
-1.0000000000000000E+020
 20
-1.0000000000000000E+020
 30
-1.0000000000000000E+020
  9
$PLIMMIN
 10
0.0
 20
0.0
  9
$PLIMMAX
 10
12.0
 20
9.0
  9
$UNITMODE
 70
     0
  9
$VISRETAIN
 70
     0
  9
$PLINEGEN
 70
     0
  9
$PSLTSCALE
 70
     0
  0
ENDSEC
  0
SECTION
  2
TABLES
  0
TABLE
  2
VPORT
 70
     1
  0
VPORT
  2
*ACTIVE
 70
     0
 10
0.0
 20
0.0
 11
1.0
 21
1.0
 12
195.14681892332791
 22
75.0
 13
0.0
 23
0.0
 14
5.0
 24
5.0
 15
5.0
 25
5.0
 16
0.0
 26
0.0
 36
1.0
 17
0.0
 27
0.0
 37
0.0
 40
150.0
 41
2.6019575856443709
 42
50.0
 43
0.0
 44
0.0
 50
0.0
 51
0.0
 71
     0
 72
   100
 73
     1
 74
     0
 75
     0
 76
     0
 77
     0
 78
     0
  0
ENDTAB
  0
TABLE
  2
LTYPE
 70
     4
  0
LTYPE
  2
CONTINUOUS
 70
     0
  3
Solid Line
 72
    65
 73
     0
 40
0.0
  0
LTYPE
  2
CENTER
 70
     0
  3
____ _ ____ _ ____ _ ____ _ ____ _ ____ _ ____
 72
    65
 73
     4
 40
2.0
 49
1.25
 49
-0.25
 49
0.25
 49
-0.25
  0
LTYPE
  2
HIDDEN
 70
     0
  3
_ _ _ _ _ _ _ _ _ _ _ _ _ _ _ _ _ _ _ _ _ _ _
 72
    65
 73
     2
 40
0.375
 49
0.25
 49
-0.125
  0
LTYPE
  2
PHANTOM2
 70
     0
  3
___ _ _ ___ _ _ ___ _ _ ___ _ _
 72
    65
 73
     6
 40
1.25
 49
0.625
 49
-0.125
 49
0.125
 49
-0.125
 49
0.125
 49
-0.125
  0
ENDTAB
  0
TABLE
  2
LAYER
 70
     5
  0
LAYER
  2
0
 70
     0
 62
     7
  6
CONTINUOUS
  0
LAYER
  2
1
 70
     0
 62
     1
  6
CENTER
  0
LAYER
  2
3
 70
     0
 62
     3
  6
CONTINUOUS
  0
LAYER
  2
2
 70
     0
 62
     2
  6
HIDDEN
  0
LAYER
  2
DEFPOINTS
 70
     0
 62
     7
  6
CONTINUOUS
  0
ENDTAB
  0
TABLE
  2
STYLE
 70
     2
  0
STYLE
  2
STANDARD
 70
     0
 40
0.0
 41
1.0
 50
0.0
 71
     0
 42
4.0
  3
TXT
  4
BIGFONT
  0
STYLE
  2
STANDARD1
 70
     0
 40
0.0
 41
1.0
 50
0.0
 71
     0
 42
3.0
  3
txt
  4

  0
ENDTAB
  0
TABLE
  2
VIEW
 70
     1
  0
VIEW
  2
ALL
 70
     0
 40
179.66152299999999
 10
141.903918
 20
89.830760999999995
 41
0.0
 11
0.0
 21
0.0
 31
1.0
 12
0.0
 22
0.0
 32
0.0
 42
0.0
 43
0.0
 44
0.0
 50
0.0
 71
     0
  0
ENDTAB
  0
TABLE
  2
UCS
 70
     0
  0
ENDTAB
  0
TABLE
  2
APPID
 70
     8
  0
APPID
  2
ACAD
 70
     0
  0
APPID
  2
DCO15
 70
     0
  0
APPID
  2
ACAD_MLEADERVER
 70
     0
  0
APPID
  2
ACAD_NAV_VCDISPLAY
 70
     0
  0
APPID
  2
ACAD_EXEMPT_FROM_CAD_STANDARDS
 70
     0
  0
APPID
  2
ACAD_DSTYLE_DIMRADIAL_EXTENSION
 70
     0
  0
APPID
  2
ACAD_DSTYLE_DIMJAG
 70
     0
  0
APPID
  2
ACAD_DSTYLE_DIMTALN
 70
     0
  0
ENDTAB
  0
TABLE
  2
DIMSTYLE
 70
     1
  0
DIMSTYLE
  2
STANDARD
 70
     0
  3

  4

  5

  6

  7

 40
1.0
 41
0.18
 42
0.0625
 43
0.38
 44
0.18
 45
0.0
 46
0.0
 47
0.0
 48
0.0
140
0.18
141
0.09
142
0.0
143
25.399999999999999
144
1.0
145
0.0
146
1.0
147
0.09
 71
     0
 72
     0
 73
     1
 74
     1
 75
     0
 76
     0
 77
     0
 78
     0
170
     0
171
     2
172
     0
173
     0
174
     0
175
     0
176
     0
177
     0
178
     0
  0
ENDTAB
  0
ENDSEC
  0
SECTION
  2
BLOCKS
  0
BLOCK
  8
0
  2
$MODEL_SPACE
 70
     0
 10
0.0
 20
0.0
 30
0.0
  3
$MODEL_SPACE
  1

  0
ENDBLK
  5
1BD
  8
0
  0
BLOCK
 67
     1
  8
0
  2
$PAPER_SPACE
 70
     0
 10
0.0
 20
0.0
 30
0.0
  3
$PAPER_SPACE
  1

  0
ENDBLK
  5
1BB
 67
     1
  8
0
  0
ENDSEC
  0
SECTION
  2
ENTITIES
  0
TEXT
  5
14AC
  8
0
 62
     3
 10
0.0
 20
0.0
 30
0.0
 40
5.0
  1
HSSB08X26
  7
STANDARD1
  0
LINE
  5
2307
  8
2
 10
56.999999999999972
 20
60.0
 30
0.0
 11
53.999999999999972
 21
60.0
 31
0.0
  0
LINE
  5
2308
  8
2
 10
56.999999999999972
 20
56.0
 30
0.0
 11
53.999999999999972
 21
56.0
 31
0.0
  0
LINE
  5
2309
  8
2
 10
56.999999999999972
 20
58.0
 30
0.0
 11
53.999999999999972
 21
58.0
 31
0.0
  0
LINE
  5
230A
  8
2
 10
56.999999999999972
 20
60.0
 30
0.0
 11
56.999999999999972
 21
56.0
 31
0.0
  0
LINE
  5
230B
  8
0
 10
77.599999999999966
 20
55.25
 30
0.0
 11
79.489999999999981
 21
55.25
 31
0.0
  0
LINE
  5
230C
  8
0
 10
79.489999999999981
 20
60.75
 30
0.0
 11
77.599999999999966
 21
60.75
 31
0.0
  0
LINE
  5
2313
  8
0
 10
79.989999999999981
 20
60.25
 30
0.0
 11
79.989999999999981
 21
55.75
 31
0.0
  0
LINE
  5
2314
  8
0
 10
79.489999999999981
 20
60.75
 30
0.0
 11
79.489999999999981
 21
55.25
 31
0.0
  0
LINE
  5
2315
  8
0
 10
79.989999999999981
 20
60.25
 30
0.0
 11
79.489999999999981
 21
60.75
 31
0.0
  0
LINE
  5
2316
  8
0
 10
79.489999999999981
 20
55.25
 30
0.0
 11
79.989999999999981
 21
55.75
 31
0.0
  0
LINE
  5
2317
  8
0
 10
77.599999999999966
 20
61.100000000000001
 30
0.0
 11
77.599999999999966
 21
54.899999999999999
 31
0.0
  0
LINE
  5
2318
  8
0
 10
76.599999999999966
 20
54.899999999999999
 30
0.0
 11
77.599999999999966
 21
54.899999999999999
 31
0.0
  0
LINE
  5
2319
  8
0
 10
77.599999999999966
 20
61.100000000000001
 30
0.0
 11
76.599999999999966
 21
61.100000000000001
 31
0.0
  0
LINE
  5
231A
  8
0
 10
76.599999999999966
 20
61.100000000000001
 30
0.0
 11
76.599999999999966
 21
54.899999999999999
 31
0.0
  0
LINE
  5
231B
  8
0
 10
76.599999999999966
 20
61.100000000000001
 30
0.0
 11
75.69999999999996
 21
62.0
 31
0.0
  0
LINE
  5
231C
  8
0
 10
75.69999999999996
 20
54.0
 30
0.0
 11
76.599999999999966
 21
54.899999999999999
 31
0.0
  0
LINE
  5
231D
  8
0
 10
53.999999999999972
 20
61.0
 30
0.0
 11
53.999999999999972
 21
55.0
 31
0.0
  0
LINE
  5
231E
  8
0
 10
53.999999999999972
 20
55.0
 30
0.0
 11
54.999999999999972
 21
54.0
 31
0.0
  0
LINE
  5
231F
  8
0
 10
54.999999999999972
 20
62.0
 30
0.0
 11
53.999999999999972
 21
61.0
 31
0.0
  0
LINE
  5
2320
  8
0
 10
75.69999999999996
 20
62.0
 30
0.0
 11
75.69999999999996
 21
54.0
 31
0.0
  0
LINE
  5
2321
  8
0
 10
54.999999999999972
 20
62.0
 30
0.0
 11
54.999999999999972
 21
54.0
 31
0.0
  0
LINE
  5
2322
  8
0
 10
54.999999999999972
 20
54.0
 30
0.0
 11
75.69999999999996
 21
54.0
 31
0.0
  0
LINE
  5
2323
  8
0
 10
75.69999999999996
 20
62.0
 30
0.0
 11
54.999999999999972
 21
62.0
 31
0.0
  0
LINE
  5
2324
  8
3
 10
54.232999999999969
 20
54.76700000000001
 30
0.0
 11
76.466999999999985
 21
54.76700000000001
 31
0.0
  0
LINE
  5
2326
  8
3
 10
54.232999999999969
 20
61.232999999999997
 30
0.0
 11
76.466999999999985
 21
61.232999999999997
 31
0.0
  0
LINE
  5
233D
  8
0
 10
30.0
 20
27.690598923241499
 30
0.0
 11
32.0
 21
28.845299461620751
 31
0.0
  0
LINE
  5
233E
  8
0
 10
28.0
 20
31.154700538379249
 30
0.0
 11
28.0
 21
28.845299461620751
 31
0.0
  0
LINE
  5
233F
  8
0
 10
28.0
 20
28.845299461620751
 30
0.0
 11
30.0
 21
27.690598923241499
 31
0.0
  0
LINE
  5
2340
  8
0
 10
32.0
 20
28.845299461620751
 30
0.0
 11
32.0
 21
31.154700538379249
 31
0.0
  0
LINE
  5
2341
  8
0
 10
32.0
 20
31.154700538379249
 30
0.0
 11
30.0
 21
32.309401076758512
 31
0.0
  0
LINE
  5
2342
  8
0
 10
30.0
 20
32.309401076758512
 30
0.0
 11
28.0
 21
31.154700538379249
 31
0.0
  0
CIRCLE
  5
2343
  8
0
 10
30.0
 20
30.0
 30
0.0
 40
4.0
  0
CIRCLE
  5
2365
  8
0
 10
103.98999999999999
 20
30.0
 30
0.0
 40
4.0
  0
CIRCLE
  5
2367
  8
0
 10
103.98999999999999
 20
30.0
 30
0.0
 40
3.1000000000000001
  0
CIRCLE
  5
2368
  8
0
 10
103.98999999999999
 20
30.0
 30
0.0
 40
2.75
  0
LINE
  5
23D1
  8
2
 10
57.0
 20
27.690598923241499
 30
0.0
 11
54.0
 21
27.690598923241499
 31
0.0
  0
LINE
  5
23D2
  8
2
 10
57.0
 20
32.309401076758512
 30
0.0
 11
54.0
 21
32.309401076758512
 31
0.0
  0
LINE
  5
23D3
  8
2
 10
57.0
 20
31.154700538379249
 30
0.0
 11
54.0
 21
31.154700538379249
 31
0.0
  0
LINE
  5
23D4
  8
2
 10
57.0
 20
28.845299461620751
 30
0.0
 11
54.0
 21
28.845299461620751
 31
0.0
  0
LINE
  5
23D5
  8
2
 10
57.0
 20
32.309401076758512
 30
0.0
 11
57.0
 21
27.690598923241499
 31
0.0
  0
LINE
  5
23D6
  8
0
 10
77.599999999999994
 20
27.25
 30
0.0
 11
79.490000000000009
 21
27.25
 31
0.0
  0
LINE
  5
23D7
  8
0
 10
79.490000000000009
 20
32.75
 30
0.0
 11
77.599999999999994
 21
32.75
 31
0.0
  0
LINE
  5
23DE
  8
0
 10
79.990000000000009
 20
32.25
 30
0.0
 11
79.490000000000009
 21
32.75
 31
0.0
  0
LINE
  5
23DF
  8
0
 10
79.490000000000009
 20
27.25
 30
0.0
 11
79.990000000000009
 21
27.75
 31
0.0
  0
LINE
  5
23E0
  8
0
 10
79.990000000000009
 20
32.25
 30
0.0
 11
79.990000000000009
 21
27.75
 31
0.0
  0
LINE
  5
23E1
  8
0
 10
79.490000000000009
 20
32.75
 30
0.0
 11
79.490000000000009
 21
27.25
 31
0.0
  0
LINE
  5
23E2
  8
0
 10
76.599999999999994
 20
26.899999999999999
 30
0.0
 11
77.599999999999994
 21
26.899999999999999
 31
0.0
  0
LINE
  5
23E3
  8
0
 10
77.599999999999994
 20
33.100000000000001
 30
0.0
 11
76.599999999999994
 21
33.100000000000001
 31
0.0
  0
LINE
  5
23E4
  8
0
 10
77.599999999999994
 20
33.100000000000001
 30
0.0
 11
77.599999999999994
 21
26.899999999999999
 31
0.0
  0
LINE
  5
23E5
  8
0
 10
76.599999999999994
 20
33.100000000000001
 30
0.0
 11
75.699999999999989
 21
34.0
 31
0.0
  0
LINE
  5
23E6
  8
0
 10
75.699999999999989
 20
26.0
 30
0.0
 11
76.599999999999994
 21
26.899999999999999
 31
0.0
  0
LINE
  5
23E7
  8
0
 10
76.599999999999994
 20
33.100000000000001
 30
0.0
 11
76.599999999999994
 21
26.899999999999999
 31
0.0
  0
LINE
  5
23E8
  8
0
 10
54.0
 20
27.0
 30
0.0
 11
55.0
 21
26.0
 31
0.0
  0
LINE
  5
23E9
  8
0
 10
55.0
 20
34.0
 30
0.0
 11
54.0
 21
33.0
 31
0.0
  0
LINE
  5
23EA
  8
0
 10
54.0
 20
33.0
 30
0.0
 11
54.0
 21
27.0
 31
0.0
  0
LINE
  5
23EB
  8
0
 10
55.0
 20
26.0
 30
0.0
 11
75.699999999999989
 21
26.0
 31
0.0
  0
LINE
  5
23EC
  8
0
 10
75.699999999999989
 20
34.0
 30
0.0
 11
55.0
 21
34.0
 31
0.0
  0
LINE
  5
23ED
  8
0
 10
75.699999999999989
 20
34.0
 30
0.0
 11
75.699999999999989
 21
26.0
 31
0.0
  0
LINE
  5
23EE
  8
0
 10
55.0
 20
34.0
 30
0.0
 11
55.0
 21
26.0
 31
0.0
  0
LINE
  5
23EF
  8
3
 10
54.233000000000011
 20
33.232999999999997
 30
0.0
 11
76.46700000000007
 21
33.233000000000011
 31
0.0
  0
LINE
  5
23F1
  8
3
 10
54.233000000000011
 20
26.766999999999999
 30
0.0
 11
76.467000000000013
 21
26.766999999999999
 31
0.0
  0
LINE
  5
2453
  8
2
 10
58.154700538379217
 20
58.0
 30
0.0
 11
56.999999999999972
 21
56.0
 31
0.0
  0
LINE
  5
2454
  8
2
 10
56.999999999999972
 20
60.0
 30
0.0
 11
58.154700538379238
 21
58.0
 31
0.0
  0
LINE
  5
2455
  8
1
 10
81.489999999999995
 20
58.0
 30
0.0
 11
52.499999999999972
 21
58.0
 31
0.0
  0
LINE
  5
2465
  8
2
 10
58.154700538379238
 20
30.0
 30
0.0
 11
57.0
 21
28.0
 31
0.0
  0
LINE
  5
2466
  8
2
 10
57.0
 20
32.0
 30
0.0
 11
58.154700538379267
 21
30.0
 31
0.0
  0
LINE
  5
2467
  8
1
 10
81.489999999999995
 20
30.0
 30
0.0
 11
52.5
 21
30.0
 31
0.0
  0
CIRCLE
  5
246C
  8
3
 10
30.0
 20
30.0
 30
0.0
 40
3.2330000000000019
  0
LINE
  5
246D
  8
1
 10
30.0
 20
35.5
 30
0.0
 11
30.0
 21
24.5
 31
0.0
  0
LINE
  5
246E
  8
1
 10
35.5
 20
30.0
 30
0.0
 11
24.5
 21
30.0
 31
0.0
  0
CIRCLE
  5
247B
  8
3
 10
103.98999999999999
 20
30.0
 30
0.0
 40
3.2330000000000019
  0
LINE
  5
2483
  8
1
 10
103.98999999999999
 20
35.5
 30
0.0
 11
103.98999999999999
 21
24.5
 31
0.0
  0
LINE
  5
2484
  8
1
 10
109.48999999999999
 20
30.0
 30
0.0
 11
98.490000000000009
 21
30.0
 31
0.0
  0
ENDSEC
  0
EOF
