  0
SECTION
  2
HEADER
  9
$ACADVER
  1
AC1009
  9
$INSBASE
 10
0.0
 20
0.0
 30
0.0
  9
$EXTMIN
 10
0.0
 20
-1.4802182810368341
 30
0.0
  9
$EXTMAX
 10
87.489999999999995
 20
41.0
 30
0.0
  9
$LIMMIN
 10
0.0
 20
0.0
  9
$LIMMAX
 10
187.5
 20
135.0
  9
$ORTHOMODE
 70
     1
  9
$REGENMODE
 70
     1
  9
$FILLMODE
 70
     1
  9
$QTEXTMODE
 70
     0
  9
$MIRRTEXT
 70
     0
  9
$DRAGMODE
 70
     2
  9
$LTSCALE
 40
2.0
  9
$OSMODE
 70
    37
  9
$ATTMODE
 70
     1
  9
$TEXTSIZE
 40
4.0
  9
$TRACEWID
 40
0.05
  9
$TEXTSTYLE
  7
STANDARD
  9
$CLAYER
  8
0
  9
$CELTYPE
  6
BYLAYER
  9
$CECOLOR
 62
   256
  9
$DIMSCALE
 40
0.5
  9
$DIMASZ
 40
3.0
  9
$DIMEXO
 40
2.0
  9
$DIMDLI
 40
0.38
  9
$DIMRND
 40
0.0
  9
$DIMDLE
 40
0.0
  9
$DIMEXE
 40
2.0
  9
$DIMTP
 40
0.0
  9
$DIMTM
 40
0.0
  9
$DIMTXT
 40
3.0
  9
$DIMCEN
 40
0.0
  9
$DIMTSZ
 40
0.0
  9
$DIMTOL
 70
     0
  9
$DIMLIM
 70
     0
  9
$DIMTIH
 70
     0
  9
$DIMTOH
 70
     0
  9
$DIMSE1
 70
     0
  9
$DIMSE2
 70
     0
  9
$DIMTAD
 70
     1
  9
$DIMZIN
 70
     8
  9
$DIMBLK
  1

  9
$DIMASO
 70
     0
  9
$DIMSHO
 70
     0
  9
$DIMPOST
  1

  9
$DIMAPOST
  1

  9
$DIMALT
 70
     0
  9
$DIMALTD
 70
     2
  9
$DIMALTF
 40
25.399999999999999
  9
$DIMLFAC
 40
1.0
  9
$DIMTOFL
 70
     1
  9
$DIMTVP
 40
1.6000000000000001
  9
$DIMTIX
 70
     1
  9
$DIMSOXD
 70
     0
  9
$DIMSAH
 70
     0
  9
$DIMBLK1
  1

  9
$DIMBLK2
  1

  9
$DIMSTYLE
  2
STANDARD
  9
$DIMCLRD
 70
   256
  9
$DIMCLRE
 70
   256
  9
$DIMCLRT
 70
   256
  9
$DIMTFAC
 40
1.0
  9
$DIMGAP
 40
1.0
  9
$LUNITS
 70
     2
  9
$LUPREC
 70
     1
  9
$SKETCHINC
 40
0.1
  9
$FILLETRAD
 40
1.0
  9
$AUNITS
 70
     0
  9
$AUPREC
 70
     0
  9
$MENU
  1
E:\r13\win\SUPPORT\ACAD
  9
$ELEVATION
 40
0.0
  9
$PELEVATION
 40
0.0
  9
$THICKNESS
 40
0.0
  9
$LIMCHECK
 70
     0
  9
$BLIPMODE
 70
     0
  9
$CHAMFERA
 40
0.0
  9
$CHAMFERB
 40
0.0
  9
$SKPOLY
 70
     0
  9
$TDCREATE
 40
2449840.6143865739
  9
$TDUPDATE
 40
2459256.6224729288
  9
$TDINDWG
 40
0.4600288657
  9
$TDUSRTIMER
 40
0.4600288657
  9
$USRTIMER
 70
     1
  9
$ANGBASE
 50
0.0
  9
$ANGDIR
 70
     0
  9
$PDMODE
 70
     0
  9
$PDSIZE
 40
0.0
  9
$PLINEWID
 40
0.0
  9
$COORDS
 70
     1
  9
$SPLFRAME
 70
     0
  9
$SPLINETYPE
 70
     6
  9
$SPLINESEGS
 70
     8
  9
$ATTDIA
 70
     0
  9
$ATTREQ
 70
     1
  9
$HANDLING
 70
     1
  9
$HANDSEED
  5
20BF
  9
$SURFTAB1
 70
     6
  9
$SURFTAB2
 70
     6
  9
$SURFTYPE
 70
     6
  9
$SURFU
 70
     6
  9
$SURFV
 70
     6
  9
$UCSNAME
  2

  9
$UCSORG
 10
0.0
 20
0.0
 30
0.0
  9
$UCSXDIR
 10
1.0
 20
0.0
 30
0.0
  9
$UCSYDIR
 10
0.0
 20
1.0
 30
0.0
  9
$PUCSNAME
  2

  9
$PUCSORG
 10
0.0
 20
0.0
 30
0.0
  9
$PUCSXDIR
 10
1.0
 20
0.0
 30
0.0
  9
$PUCSYDIR
 10
0.0
 20
1.0
 30
0.0
  9
$USERI1
 70
     0
  9
$USERI2
 70
     1
  9
$USERI3
 70
     1
  9
$USERI4
 70
     0
  9
$USERI5
 70
     0
  9
$USERR1
 40
0.0
  9
$USERR2
 40
0.0
  9
$USERR3
 40
0.0
  9
$USERR4
 40
0.0
  9
$USERR5
 40
0.0
  9
$WORLDVIEW
 70
     1
  9
$SHADEDGE
 70
     3
  9
$SHADEDIF
 70
    70
  9
$TILEMODE
 70
     1
  9
$MAXACTVP
 70
    16
  9
$PLIMCHECK
 70
     0
  9
$PEXTMIN
 10
1.0000000000000000E+020
 20
1.0000000000000000E+020
 30
1.0000000000000000E+020
  9
$PEXTMAX
 10
-1.0000000000000000E+020
 20
-1.0000000000000000E+020
 30
-1.0000000000000000E+020
  9
$PLIMMIN
 10
0.0
 20
0.0
  9
$PLIMMAX
 10
12.0
 20
9.0
  9
$UNITMODE
 70
     0
  9
$VISRETAIN
 70
     0
  9
$PLINEGEN
 70
     0
  9
$PSLTSCALE
 70
     0
  0
ENDSEC
  0
SECTION
  2
TABLES
  0
TABLE
  2
VPORT
 70
     1
  0
VPORT
  2
*ACTIVE
 70
     0
 10
0.0
 20
0.0
 11
1.0
 21
1.0
 12
130.0978792822186
 22
50.0
 13
0.0
 23
0.0
 14
5.0
 24
5.0
 15
5.0
 25
5.0
 16
0.0
 26
0.0
 36
1.0
 17
0.0
 27
0.0
 37
0.0
 40
100.0
 41
2.6019575856443722
 42
50.0
 43
0.0
 44
0.0
 50
0.0
 51
0.0
 71
     0
 72
   100
 73
     1
 74
     0
 75
     0
 76
     0
 77
     0
 78
     0
  0
ENDTAB
  0
TABLE
  2
LTYPE
 70
     4
  0
LTYPE
  2
CONTINUOUS
 70
     0
  3
Solid Line
 72
    65
 73
     0
 40
0.0
  0
LTYPE
  2
CENTER
 70
     0
  3
____ _ ____ _ ____ _ ____ _ ____ _ ____ _ ____
 72
    65
 73
     4
 40
2.0
 49
1.25
 49
-0.25
 49
0.25
 49
-0.25
  0
LTYPE
  2
HIDDEN
 70
     0
  3
_ _ _ _ _ _ _ _ _ _ _ _ _ _ _ _ _ _ _ _ _ _ _
 72
    65
 73
     2
 40
0.375
 49
0.25
 49
-0.125
  0
LTYPE
  2
PHANTOM2
 70
     0
  3
___ _ _ ___ _ _ ___ _ _ ___ _ _
 72
    65
 73
     6
 40
1.25
 49
0.625
 49
-0.125
 49
0.125
 49
-0.125
 49
0.125
 49
-0.125
  0
ENDTAB
  0
TABLE
  2
LAYER
 70
     5
  0
LAYER
  2
0
 70
     0
 62
     7
  6
CONTINUOUS
  0
LAYER
  2
1
 70
     0
 62
     1
  6
CENTER
  0
LAYER
  2
3
 70
     0
 62
     3
  6
CONTINUOUS
  0
LAYER
  2
2
 70
     0
 62
     2
  6
HIDDEN
  0
LAYER
  2
DEFPOINTS
 70
     0
 62
     7
  6
CONTINUOUS
  0
ENDTAB
  0
TABLE
  2
STYLE
 70
     2
  0
STYLE
  2
STANDARD
 70
     0
 40
0.0
 41
1.0
 50
0.0
 71
     0
 42
4.0
  3
TXT
  4
BIGFONT
  0
STYLE
  2
STANDARD1
 70
     0
 40
0.0
 41
1.0
 50
0.0
 71
     0
 42
3.0
  3
txt
  4

  0
ENDTAB
  0
TABLE
  2
VIEW
 70
     1
  0
VIEW
  2
ALL
 70
     0
 40
179.66152299999999
 10
141.903918
 20
89.830760999999995
 41
0.0
 11
0.0
 21
0.0
 31
1.0
 12
0.0
 22
0.0
 32
0.0
 42
0.0
 43
0.0
 44
0.0
 50
0.0
 71
     0
  0
ENDTAB
  0
TABLE
  2
UCS
 70
     0
  0
ENDTAB
  0
TABLE
  2
APPID
 70
     8
  0
APPID
  2
ACAD
 70
     0
  0
APPID
  2
DCO15
 70
     0
  0
APPID
  2
ACAD_MLEADERVER
 70
     0
  0
APPID
  2
ACAD_NAV_VCDISPLAY
 70
     0
  0
APPID
  2
ACAD_EXEMPT_FROM_CAD_STANDARDS
 70
     0
  0
APPID
  2
ACAD_DSTYLE_DIMRADIAL_EXTENSION
 70
     0
  0
APPID
  2
ACAD_DSTYLE_DIMJAG
 70
     0
  0
APPID
  2
ACAD_DSTYLE_DIMTALN
 70
     0
  0
ENDTAB
  0
TABLE
  2
DIMSTYLE
 70
     1
  0
DIMSTYLE
  2
STANDARD
 70
     0
  3

  4

  5

  6

  7

 40
1.0
 41
0.18
 42
0.0625
 43
0.38
 44
0.18
 45
0.0
 46
0.0
 47
0.0
 48
0.0
140
0.18
141
0.09
142
0.0
143
25.399999999999999
144
1.0
145
0.0
146
1.0
147
0.09
 71
     0
 72
     0
 73
     1
 74
     1
 75
     0
 76
     0
 77
     0
 78
     0
170
     0
171
     2
172
     0
173
     0
174
     0
175
     0
176
     0
177
     0
178
     0
  0
ENDTAB
  0
ENDSEC
  0
SECTION
  2
BLOCKS
  0
BLOCK
  8
0
  2
$MODEL_SPACE
 70
     0
 10
0.0
 20
0.0
 30
0.0
  3
$MODEL_SPACE
  1

  0
ENDBLK
  5
1BD
  8
0
  0
BLOCK
 67
     1
  8
0
  2
$PAPER_SPACE
 70
     0
 10
0.0
 20
0.0
 30
0.0
  3
$PAPER_SPACE
  1

  0
ENDBLK
  5
1BB
 67
     1
  8
0
  0
ENDSEC
  0
SECTION
  2
ENTITIES
  0
TEXT
  5
14AC
  8
0
 62
     3
 10
0.0
 20
0.0
 30
0.0
 40
5.0
  1
HSSB04X30.5-SUS
  7
STANDARD1
  0
LINE
  5
1F3D
  8
2
 10
39.0
 20
18.845299461620751
 30
0.0
 11
37.0
 21
18.845299461620751
 31
0.0
  0
LINE
  5
1F3E
  8
2
 10
39.0
 20
21.154700538379249
 30
0.0
 11
37.0
 21
21.154700538379249
 31
0.0
  0
LINE
  5
1F3F
  8
2
 10
39.0
 20
20.57735026918963
 30
0.0
 11
37.0
 21
20.57735026918963
 31
0.0
  0
LINE
  5
1F40
  8
2
 10
39.0
 20
19.42264973081037
 30
0.0
 11
37.0
 21
19.42264973081037
 31
0.0
  0
LINE
  5
1F41
  8
2
 10
39.0
 20
21.154700538379249
 30
0.0
 11
39.0
 21
18.845299461620751
 31
0.0
  0
LINE
  5
1F42
  8
0
 10
66.299999999999983
 20
18.75
 30
0.0
 11
67.290000000000006
 21
18.75
 31
0.0
  0
LINE
  5
1F43
  8
0
 10
67.290000000000006
 20
21.25
 30
0.0
 11
66.299999999999983
 21
21.25
 31
0.0
  0
LINE
  5
1F4A
  8
0
 10
67.489999999999995
 20
21.050000000000001
 30
0.0
 11
67.290000000000006
 21
21.25
 31
0.0
  0
LINE
  5
1F4B
  8
0
 10
67.290000000000006
 20
18.75
 30
0.0
 11
67.489999999999995
 21
18.949999999999999
 31
0.0
  0
LINE
  5
1F4C
  8
0
 10
67.489999999999995
 20
21.050000000000001
 30
0.0
 11
67.489999999999995
 21
18.949999999999999
 31
0.0
  0
LINE
  5
1F4D
  8
0
 10
67.290000000000006
 20
21.25
 30
0.0
 11
67.290000000000006
 21
18.75
 31
0.0
  0
LINE
  5
1F4E
  8
0
 10
65.700000000000003
 20
18.5
 30
0.0
 11
66.299999999999983
 21
18.5
 31
0.0
  0
LINE
  5
1F4F
  8
0
 10
66.299999999999983
 20
21.5
 30
0.0
 11
65.700000000000003
 21
21.5
 31
0.0
  0
LINE
  5
1F50
  8
0
 10
66.299999999999983
 20
21.5
 30
0.0
 11
66.299999999999983
 21
18.5
 31
0.0
  0
LINE
  5
1F51
  8
0
 10
65.700000000000003
 20
21.5
 30
0.0
 11
65.200000000000003
 21
22.0
 31
0.0
  0
LINE
  5
1F52
  8
0
 10
65.200000000000003
 20
18.0
 30
0.0
 11
65.700000000000003
 21
18.5
 31
0.0
  0
LINE
  5
1F53
  8
0
 10
65.700000000000003
 20
21.5
 30
0.0
 11
65.700000000000003
 21
18.5
 31
0.0
  0
LINE
  5
1F54
  8
0
 10
37.0
 20
18.5
 30
0.0
 11
37.5
 21
18.0
 31
0.0
  0
LINE
  5
1F55
  8
0
 10
37.5
 20
22.0
 30
0.0
 11
37.0
 21
21.5
 31
0.0
  0
LINE
  5
1F56
  8
0
 10
37.0
 20
21.5
 30
0.0
 11
37.0
 21
18.5
 31
0.0
  0
LINE
  5
1F57
  8
0
 10
37.5
 20
18.0
 30
0.0
 11
65.200000000000003
 21
18.0
 31
0.0
  0
LINE
  5
1F58
  8
0
 10
65.200000000000003
 20
22.0
 30
0.0
 11
37.5
 21
22.0
 31
0.0
  0
LINE
  5
1F59
  8
0
 10
65.200000000000003
 20
22.0
 30
0.0
 11
65.200000000000003
 21
18.0
 31
0.0
  0
LINE
  5
1F5A
  8
0
 10
37.5
 20
22.0
 30
0.0
 11
37.5
 21
18.0
 31
0.0
  0
LINE
  5
1F5B
  8
3
 10
37.070500000000003
 20
21.570499999999999
 30
0.0
 11
65.629499999999993
 21
21.570499999999999
 31
0.0
  0
LINE
  5
1F5D
  8
3
 10
37.070500000000003
 20
18.429500000000001
 30
0.0
 11
65.629499999999993
 21
18.429500000000001
 31
0.0
  0
LINE
  5
1F7F
  8
2
 10
39.0
 20
40.0
 30
0.0
 11
37.0
 21
40.0
 31
0.0
  0
LINE
  5
1F80
  8
2
 10
39.0
 20
38.0
 30
0.0
 11
37.0
 21
38.0
 31
0.0
  0
LINE
  5
1F81
  8
2
 10
39.0
 20
39.0
 30
0.0
 11
37.0
 21
39.0
 31
0.0
  0
LINE
  5
1F82
  8
2
 10
39.0
 20
40.0
 30
0.0
 11
39.0
 21
38.0
 31
0.0
  0
LINE
  5
1F83
  8
0
 10
66.299999999999983
 20
37.75
 30
0.0
 11
67.290000000000006
 21
37.75
 31
0.0
  0
LINE
  5
1F84
  8
0
 10
67.290000000000006
 20
40.25
 30
0.0
 11
66.299999999999983
 21
40.25
 31
0.0
  0
LINE
  5
1F8B
  8
0
 10
67.489999999999995
 20
40.04999999999999
 30
0.0
 11
67.489999999999995
 21
37.950000000000003
 31
0.0
  0
LINE
  5
1F8C
  8
0
 10
67.290000000000006
 20
40.25
 30
0.0
 11
67.290000000000006
 21
37.75
 31
0.0
  0
LINE
  5
1F8D
  8
0
 10
67.489999999999995
 20
40.04999999999999
 30
0.0
 11
67.290000000000006
 21
40.25
 31
0.0
  0
LINE
  5
1F8E
  8
0
 10
67.290000000000006
 20
37.75
 30
0.0
 11
67.489999999999995
 21
37.950000000000003
 31
0.0
  0
LINE
  5
1F8F
  8
0
 10
66.299999999999983
 20
40.499999999999993
 30
0.0
 11
66.299999999999983
 21
37.5
 31
0.0
  0
LINE
  5
1F90
  8
0
 10
65.700000000000003
 20
37.5
 30
0.0
 11
66.299999999999983
 21
37.5
 31
0.0
  0
LINE
  5
1F91
  8
0
 10
66.299999999999983
 20
40.499999999999993
 30
0.0
 11
65.700000000000003
 21
40.499999999999993
 31
0.0
  0
LINE
  5
1F92
  8
0
 10
65.700000000000003
 20
40.499999999999993
 30
0.0
 11
65.700000000000003
 21
37.5
 31
0.0
  0
LINE
  5
1F93
  8
0
 10
65.700000000000003
 20
40.499999999999993
 30
0.0
 11
65.200000000000003
 21
41.0
 31
0.0
  0
LINE
  5
1F94
  8
0
 10
65.200000000000003
 20
37.0
 30
0.0
 11
65.700000000000003
 21
37.5
 31
0.0
  0
LINE
  5
1F95
  8
0
 10
37.0
 20
40.499999999999993
 30
0.0
 11
37.0
 21
37.5
 31
0.0
  0
LINE
  5
1F96
  8
0
 10
37.0
 20
37.5
 30
0.0
 11
37.5
 21
37.0
 31
0.0
  0
LINE
  5
1F97
  8
0
 10
37.5
 20
41.0
 30
0.0
 11
37.0
 21
40.499999999999993
 31
0.0
  0
LINE
  5
1F98
  8
0
 10
65.200000000000003
 20
41.0
 30
0.0
 11
65.200000000000003
 21
37.0
 31
0.0
  0
LINE
  5
1F99
  8
0
 10
37.5
 20
41.0
 30
0.0
 11
37.5
 21
37.0
 31
0.0
  0
LINE
  5
1F9A
  8
0
 10
37.5
 20
37.0
 30
0.0
 11
65.200000000000003
 21
37.0
 31
0.0
  0
LINE
  5
1F9B
  8
0
 10
65.200000000000003
 20
41.0
 30
0.0
 11
37.5
 21
41.0
 31
0.0
  0
LINE
  5
1F9C
  8
3
 10
37.070500000000003
 20
37.429499999999997
 30
0.0
 11
65.629499999999993
 21
37.429499999999997
 31
0.0
  0
LINE
  5
1F9E
  8
3
 10
37.070500000000003
 20
40.570499999999988
 30
0.0
 11
65.629500000000021
 21
40.570499999999988
 31
0.0
  0
CIRCLE
  5
1FA7
  8
0
 10
84.489999999999995
 20
20.0
 30
0.0
 40
2.0
  0
CIRCLE
  5
1FA9
  8
0
 10
84.489999999999995
 20
20.0
 30
0.0
 40
1.5
  0
CIRCLE
  5
1FAA
  8
0
 10
84.489999999999995
 20
20.0
 30
0.0
 40
1.25
  0
LINE
  5
1FF2
  8
0
 10
20.0
 20
18.845299461620751
 30
0.0
 11
21.0
 21
19.42264973081037
 31
0.0
  0
LINE
  5
1FF3
  8
0
 10
19.0
 20
20.57735026918963
 30
0.0
 11
19.0
 21
19.42264973081037
 31
0.0
  0
LINE
  5
1FF4
  8
0
 10
19.0
 20
19.42264973081037
 30
0.0
 11
20.0
 21
18.845299461620751
 31
0.0
  0
LINE
  5
1FF5
  8
0
 10
21.0
 20
19.42264973081037
 30
0.0
 11
21.0
 21
20.57735026918963
 31
0.0
  0
LINE
  5
1FF6
  8
0
 10
21.0
 20
20.57735026918963
 30
0.0
 11
20.0
 21
21.154700538379249
 31
0.0
  0
LINE
  5
1FF7
  8
0
 10
20.0
 20
21.154700538379249
 30
0.0
 11
19.0
 21
20.57735026918963
 31
0.0
  0
CIRCLE
  5
1FF8
  8
0
 10
20.0
 20
20.0
 30
0.0
 40
2.0
  0
LINE
  5
2003
  8
1
 10
36.0
 20
39.0
 30
0.0
 11
68.489999999999995
 21
39.0
 31
0.0
  0
LINE
  5
200C
  8
2
 10
39.577350269189623
 20
39.0
 30
0.0
 11
39.0
 21
38.0
 31
0.0
  0
LINE
  5
200D
  8
2
 10
39.0
 20
40.0
 30
0.0
 11
39.577350269189608
 21
39.0
 31
0.0
  0
LINE
  5
200F
  8
2
 10
39.577350269189623
 20
19.999999999999989
 30
0.0
 11
39.0
 21
19.0
 31
0.0
  0
LINE
  5
2010
  8
2
 10
39.0
 20
21.0
 30
0.0
 11
39.577350269189608
 21
19.999999999999989
 31
0.0
  0
LINE
  5
2011
  8
1
 10
36.0
 20
20.0
 30
0.0
 11
68.489999999999995
 21
20.0
 31
0.0
  0
CIRCLE
  5
2025
  8
3
 10
20.0
 20
20.0
 30
0.0
 40
1.5704999999999989
  0
LINE
  5
2026
  8
1
 10
20.0
 20
23.0
 30
0.0
 11
20.0
 21
17.0
 31
0.0
  0
LINE
  5
2027
  8
1
 10
23.0
 20
20.0
 30
0.0
 11
17.0
 21
20.0
 31
0.0
  0
CIRCLE
  5
2033
  8
3
 10
84.489999999999995
 20
20.0
 30
0.0
 40
1.5704999999999989
  0
LINE
  5
2034
  8
1
 10
84.489999999999995
 20
23.0
 30
0.0
 11
84.489999999999995
 21
17.0
 31
0.0
  0
LINE
  5
2035
  8
1
 10
87.489999999999995
 20
20.0
 30
0.0
 11
81.489999999999995
 21
20.0
 31
0.0
  0
ENDSEC
  0
EOF
