  0
SECTION
  2
HEADER
  9
$ACADVER
  1
AC1009
  9
$INSBASE
 10
0.0
 20
0.0
 30
0.0
  9
$EXTMIN
 10
0.0
 20
-1.4802182810368341
 30
0.0
  9
$EXTMAX
 10
144.355176
 20
104.516183
 30
0.0
  9
$LIMMIN
 10
0.0
 20
0.0
  9
$LIMMAX
 10
187.5
 20
135.0
  9
$ORTHOMODE
 70
     1
  9
$REGENMODE
 70
     1
  9
$FILLMODE
 70
     1
  9
$QTEXTMODE
 70
     0
  9
$MIRRTEXT
 70
     0
  9
$DRAGMODE
 70
     2
  9
$LTSCALE
 40
5.0
  9
$OSMODE
 70
    55
  9
$ATTMODE
 70
     1
  9
$TEXTSIZE
 40
1.6000000000000001
  9
$TRACEWID
 40
0.05
  9
$TEXTSTYLE
  7
STANDARD
  9
$CLAYER
  8
0
  9
$CELTYPE
  6
BYLAYER
  9
$CECOLOR
 62
   256
  9
$DIMSCALE
 40
0.5
  9
$DIMASZ
 40
3.0
  9
$DIMEXO
 40
2.0
  9
$DIMDLI
 40
10.0
  9
$DIMRND
 40
0.0
  9
$DIMDLE
 40
0.0
  9
$DIMEXE
 40
2.0
  9
$DIMTP
 40
0.0
  9
$DIMTM
 40
0.0
  9
$DIMTXT
 40
3.2000000000000002
  9
$DIMCEN
 40
0.09
  9
$DIMTSZ
 40
0.0
  9
$DIMTOL
 70
     0
  9
$DIMLIM
 70
     0
  9
$DIMTIH
 70
     0
  9
$DIMTOH
 70
     0
  9
$DIMSE1
 70
     0
  9
$DIMSE2
 70
     0
  9
$DIMTAD
 70
     1
  9
$DIMZIN
 70
     0
  9
$DIMBLK
  1

  9
$DIMASO
 70
     0
  9
$DIMSHO
 70
     0
  9
$DIMPOST
  1

  9
$DIMAPOST
  1

  9
$DIMALT
 70
     0
  9
$DIMALTD
 70
     2
  9
$DIMALTF
 40
25.399999999999999
  9
$DIMLFAC
 40
1.0
  9
$DIMTOFL
 70
     1
  9
$DIMTVP
 40
1.6000000000000001
  9
$DIMTIX
 70
     1
  9
$DIMSOXD
 70
     0
  9
$DIMSAH
 70
     0
  9
$DIMBLK1
  1

  9
$DIMBLK2
  1

  9
$DIMSTYLE
  2
STANDARD
  9
$DIMCLRD
 70
     0
  9
$DIMCLRE
 70
     0
  9
$DIMCLRT
 70
     0
  9
$DIMTFAC
 40
1.0
  9
$DIMGAP
 40
0.09
  9
$LUNITS
 70
     2
  9
$LUPREC
 70
     4
  9
$SKETCHINC
 40
0.1
  9
$FILLETRAD
 40
0.0
  9
$AUNITS
 70
     0
  9
$AUPREC
 70
     0
  9
$MENU
  1
E:\r13\win\SUPPORT\ACAD
  9
$ELEVATION
 40
0.0
  9
$PELEVATION
 40
0.0
  9
$THICKNESS
 40
0.0
  9
$LIMCHECK
 70
     0
  9
$BLIPMODE
 70
     0
  9
$CHAMFERA
 40
0.0
  9
$CHAMFERB
 40
0.0
  9
$SKPOLY
 70
     0
  9
$TDCREATE
 40
2449840.594537037
  9
$TDUPDATE
 40
2456598.69255669
  9
$TDINDWG
 40
0.0264433912
  9
$TDUSRTIMER
 40
0.0264433912
  9
$USRTIMER
 70
     1
  9
$ANGBASE
 50
0.0
  9
$ANGDIR
 70
     0
  9
$PDMODE
 70
     0
  9
$PDSIZE
 40
0.0
  9
$PLINEWID
 40
0.0
  9
$COORDS
 70
     1
  9
$SPLFRAME
 70
     0
  9
$SPLINETYPE
 70
     6
  9
$SPLINESEGS
 70
     8
  9
$ATTDIA
 70
     0
  9
$ATTREQ
 70
     1
  9
$HANDLING
 70
     1
  9
$HANDSEED
  5
2F1
  9
$SURFTAB1
 70
     6
  9
$SURFTAB2
 70
     6
  9
$SURFTYPE
 70
     6
  9
$SURFU
 70
     6
  9
$SURFV
 70
     6
  9
$UCSNAME
  2

  9
$UCSORG
 10
0.0
 20
0.0
 30
0.0
  9
$UCSXDIR
 10
1.0
 20
0.0
 30
0.0
  9
$UCSYDIR
 10
0.0
 20
1.0
 30
0.0
  9
$PUCSNAME
  2

  9
$PUCSORG
 10
0.0
 20
0.0
 30
0.0
  9
$PUCSXDIR
 10
1.0
 20
0.0
 30
0.0
  9
$PUCSYDIR
 10
0.0
 20
1.0
 30
0.0
  9
$USERI1
 70
     0
  9
$USERI2
 70
     1
  9
$USERI3
 70
     0
  9
$USERI4
 70
     0
  9
$USERI5
 70
     0
  9
$USERR1
 40
0.0
  9
$USERR2
 40
0.0
  9
$USERR3
 40
0.0
  9
$USERR4
 40
0.0
  9
$USERR5
 40
0.0
  9
$WORLDVIEW
 70
     1
  9
$SHADEDGE
 70
     3
  9
$SHADEDIF
 70
    70
  9
$TILEMODE
 70
     1
  9
$MAXACTVP
 70
    16
  9
$PLIMCHECK
 70
     0
  9
$PEXTMIN
 10
1.0000000000000000E+020
 20
1.0000000000000000E+020
 30
1.0000000000000000E+020
  9
$PEXTMAX
 10
-1.0000000000000000E+020
 20
-1.0000000000000000E+020
 30
-1.0000000000000000E+020
  9
$PLIMMIN
 10
0.0
 20
0.0
  9
$PLIMMAX
 10
12.0
 20
9.0
  9
$UNITMODE
 70
     0
  9
$VISRETAIN
 70
     0
  9
$PLINEGEN
 70
     0
  9
$PSLTSCALE
 70
     0
  0
ENDSEC
  0
SECTION
  2
TABLES
  0
TABLE
  2
VPORT
 70
     1
  0
VPORT
  2
*ACTIVE
 70
     0
 10
0.0
 20
0.0
 11
1.0
 21
1.0
 12
93.74713919532617
 22
87.458386271734256
 13
0.0
 23
0.0
 14
5.0
 24
5.0
 15
5.0
 25
5.0
 16
0.0
 26
0.0
 36
1.0
 17
0.0
 27
0.0
 37
0.0
 40
179.46013949787169
 41
1.7807262569832401
 42
50.0
 43
0.0
 44
0.0
 50
0.0
 51
0.0
 71
     0
 72
   100
 73
     1
 74
     0
 75
     0
 76
     0
 77
     0
 78
     0
  0
ENDTAB
  0
TABLE
  2
LTYPE
 70
     4
  0
LTYPE
  2
CONTINUOUS
 70
     0
  3
Solid Line
 72
    65
 73
     0
 40
0.0
  0
LTYPE
  2
CENTER
 70
     0
  3
____ _ ____ _ ____ _ ____ _ ____ _ ____ _ ____
 72
    65
 73
     4
 40
2.0
 49
1.25
 49
-0.25
 49
0.25
 49
-0.25
  0
LTYPE
  2
HIDDEN
 70
     0
  3
_ _ _ _ _ _ _ _ _ _ _ _ _ _ _ _ _ _ _ _ _ _ _
 72
    65
 73
     2
 40
0.375
 49
0.25
 49
-0.125
  0
LTYPE
  2
PHANTOM2
 70
     0
  3
___ _ _ ___ _ _ ___ _ _ ___ _ _
 72
    65
 73
     6
 40
1.25
 49
0.625
 49
-0.125
 49
0.125
 49
-0.125
 49
0.125
 49
-0.125
  0
ENDTAB
  0
TABLE
  2
LAYER
 70
     4
  0
LAYER
  2
0
 70
     0
 62
     7
  6
CONTINUOUS
  0
LAYER
  2
1
 70
     0
 62
     1
  6
CENTER
  0
LAYER
  2
2
 70
     0
 62
     2
  6
HIDDEN
  0
LAYER
  2
3
 70
     0
 62
     3
  6
CONTINUOUS
  0
ENDTAB
  0
TABLE
  2
STYLE
 70
     2
  0
STYLE
  2
STANDARD
 70
     0
 40
0.0
 41
1.0
 50
0.0
 71
     0
 42
1.6000000000000001
  3
TXT
  4
BIGFONT
  0
STYLE
  2
STANDARD1
 70
     0
 40
0.0
 41
1.0
 50
0.0
 71
     0
 42
3.0
  3
txt
  4

  0
ENDTAB
  0
TABLE
  2
VIEW
 70
     1
  0
VIEW
  2
ALL
 70
     0
 40
135.0
 10
110.49579799999999
 20
67.5
 41
0.0
 11
0.0
 21
0.0
 31
1.0
 12
0.0
 22
0.0
 32
0.0
 42
0.0
 43
0.0
 44
0.0
 50
0.0
 71
     0
  0
ENDTAB
  0
TABLE
  2
UCS
 70
     0
  0
ENDTAB
  0
TABLE
  2
APPID
 70
     3
  0
APPID
  2
ACAD
 70
     0
  0
APPID
  2
ACAD_MLEADERVER
 70
     0
  0
APPID
  2
ACAD_NAV_VCDISPLAY
 70
     0
  0
ENDTAB
  0
TABLE
  2
DIMSTYLE
 70
     1
  0
DIMSTYLE
  2
STANDARD
 70
     0
  3

  4

  5

  6

  7

 40
1.0
 41
0.18
 42
0.0625
 43
0.38
 44
0.18
 45
0.0
 46
0.0
 47
0.0
 48
0.0
140
0.18
141
0.09
142
0.0
143
25.399999999999999
144
1.0
145
0.0
146
1.0
147
0.09
 71
     0
 72
     0
 73
     1
 74
     1
 75
     0
 76
     0
 77
     0
 78
     0
170
     0
171
     2
172
     0
173
     0
174
     0
175
     0
176
     0
177
     0
178
     0
  0
ENDTAB
  0
ENDSEC
  0
SECTION
  2
BLOCKS
  0
BLOCK
  8
0
  2
$MODEL_SPACE
 70
     0
 10
0.0
 20
0.0
 30
0.0
  3
$MODEL_SPACE
  1

  0
ENDBLK
  5
19E
  8
0
  0
BLOCK
 67
     1
  8
0
  2
$PAPER_SPACE
 70
     0
 10
0.0
 20
0.0
 30
0.0
  3
$PAPER_SPACE
  1

  0
ENDBLK
  5
19C
 67
     1
  8
0
  0
ENDSEC
  0
SECTION
  2
ENTITIES
  0
LINE
  5
36
  8
1
 10
84.707973999999993
 20
65.732687999999996
 30
0.0
 11
99.707973999999993
 21
65.732687999999996
 31
0.0
  0
LINE
  5
37
  8
1
 10
92.207973999999993
 20
73.232687999999996
 30
0.0
 11
92.207973999999993
 21
58.23268800000001
 31
0.0
  0
LINE
  5
38
  8
0
 10
141.855176
 20
69.932687999999999
 30
0.0
 11
141.855176
 21
61.532688
 31
0.0
  0
LINE
  5
39
  8
0
 10
130.570176
 20
70.732687999999996
 30
0.0
 11
141.05517599999999
 21
70.732687999999996
 31
0.0
  0
LINE
  5
3A
  8
0
 10
130.570176
 20
60.73268800000001
 30
0.0
 11
141.05517599999999
 21
60.73268800000001
 31
0.0
  0
LINE
  5
3B
  8
0
 10
141.05517599999999
 20
70.732687999999996
 30
0.0
 11
141.855176
 21
69.932687999999999
 31
0.0
  0
LINE
  5
3C
  8
0
 10
141.855176
 20
61.532688
 30
0.0
 11
141.05517599999999
 21
60.73268800000001
 31
0.0
  0
LINE
  5
3D
  8
0
 10
141.05517599999999
 20
70.732687999999996
 30
0.0
 11
141.05517599999999
 21
60.73268800000001
 31
0.0
  0
CIRCLE
  5
3E
  8
0
 10
92.207973999999993
 20
65.732687999999996
 30
0.0
 40
2.0669999999999988
  0
CIRCLE
  5
3F
  8
3
 10
92.207973999999993
 20
65.732687999999996
 30
0.0
 40
2.5
  0
LINE
  5
40
  8
2
 10
130.784176
 20
68.232687999999996
 30
0.0
 11
141.48817600000001
 21
68.232687999999996
 31
0.0
  0
LINE
  5
41
  8
2
 10
130.77917600000001
 20
67.799688000000003
 30
0.0
 11
141.05517599999999
 21
67.799688000000003
 31
0.0
  0
LINE
  5
42
  8
2
 10
141.05517599999999
 20
67.799688000000003
 30
0.0
 11
141.855176
 21
68.599688
 31
0.0
  0
LINE
  5
43
  8
2
 10
141.05517599999999
 20
63.665688000000003
 30
0.0
 11
141.855176
 21
62.865687999999999
 31
0.0
  0
LINE
  5
44
  8
2
 10
130.77917600000001
 20
63.665688000000003
 30
0.0
 11
141.05517599999999
 21
63.665688000000003
 31
0.0
  0
LINE
  5
45
  8
2
 10
130.784176
 20
63.23268800000001
 30
0.0
 11
141.48817600000001
 21
63.23268800000001
 31
0.0
  0
LINE
  5
46
  8
0
 10
129.855176
 20
66.875687999999997
 30
0.0
 11
130.998176
 21
65.732687999999996
 31
0.0
  0
LINE
  5
47
  8
0
 10
130.998176
 20
65.732687999999996
 30
0.0
 11
129.855176
 21
64.589687999999995
 31
0.0
  0
LINE
  5
48
  8
0
 10
130.998176
 20
68.018687999999997
 30
0.0
 11
129.855176
 21
66.875687999999997
 31
0.0
  0
LINE
  5
49
  8
0
 10
129.855176
 20
69.161687999999998
 30
0.0
 11
130.998176
 21
68.018687999999997
 31
0.0
  0
LINE
  5
4A
  8
0
 10
130.998176
 20
70.304687999999999
 30
0.0
 11
129.855176
 21
69.161687999999998
 31
0.0
  0
LINE
  5
4B
  8
0
 10
129.855176
 20
62.303688000000001
 30
0.0
 11
130.998176
 21
63.446688000000002
 31
0.0
  0
LINE
  5
4C
  8
0
 10
130.998176
 20
63.446688000000002
 30
0.0
 11
129.855176
 21
64.589687999999995
 31
0.0
  0
LINE
  5
4D
  8
0
 10
129.855176
 20
64.589687999999995
 30
0.0
 11
130.998176
 21
65.732687999999996
 31
0.0
  0
LINE
  5
4E
  8
1
 10
127.355176
 20
65.732687999999996
 30
0.0
 11
144.355176
 21
65.732687999999996
 31
0.0
  0
LINE
  5
4F
  8
3
 10
97.207973999999993
 20
63.446688000000002
 30
0.0
 11
87.207973999999993
 21
63.446688000000002
 31
0.0
  0
LINE
  5
50
  8
3
 10
97.207973999999993
 20
65.732687999999996
 30
0.0
 11
94.274974
 21
65.732687999999996
 31
0.0
  0
LINE
  5
51
  8
3
 10
97.207973999999993
 20
68.018687999999997
 30
0.0
 11
87.207973999999993
 21
68.018687999999997
 31
0.0
  0
LINE
  5
52
  8
3
 10
97.207973999999993
 20
70.304687999999999
 30
0.0
 11
87.207973999999993
 21
70.304687999999999
 31
0.0
  0
LINE
  5
53
  8
3
 10
97.207973999999993
 20
61.160688
 30
0.0
 11
87.207973999999993
 21
61.160688
 31
0.0
  0
LINE
  5
54
  8
3
 10
90.140974
 20
65.732687999999996
 30
0.0
 11
87.207973999999993
 21
65.732687999999996
 31
0.0
  0
LINE
  5
55
  8
3
 10
87.635974000000004
 20
70.732687999999996
 30
0.0
 11
87.635974000000004
 21
60.73268800000001
 31
0.0
  0
LINE
  5
56
  8
3
 10
89.921974000000006
 20
70.732687999999996
 30
0.0
 11
89.921974000000006
 21
60.73268800000001
 31
0.0
  0
LINE
  5
57
  8
3
 10
92.207973999999993
 20
70.732687999999996
 30
0.0
 11
92.207973999999993
 21
67.799688000000003
 31
0.0
  0
LINE
  5
58
  8
3
 10
94.493973999999994
 20
70.732687999999996
 30
0.0
 11
94.493973999999994
 21
60.73268800000001
 31
0.0
  0
LINE
  5
59
  8
3
 10
96.779973999999996
 20
70.732687999999996
 30
0.0
 11
96.779973999999996
 21
60.73268800000001
 31
0.0
  0
LINE
  5
5A
  8
3
 10
92.207973999999993
 20
63.665688000000003
 30
0.0
 11
92.207973999999993
 21
60.73268800000001
 31
0.0
  0
LINE
  5
5B
  8
3
 10
92.619046999999995
 20
70.715761999999984
 30
0.0
 11
87.207973999999993
 21
65.304687999999999
 31
0.0
  0
LINE
  5
5C
  8
3
 10
94.921974000000006
 20
70.732687999999996
 30
0.0
 11
91.975905000000026
 21
67.786619999999999
 31
0.0
  0
LINE
  5
5D
  8
3
 10
97.207973999999993
 20
70.732687999999996
 30
0.0
 11
93.669564000000008
 21
67.194277999999997
 31
0.0
  0
LINE
  5
5E
  8
3
 10
89.493973999999994
 20
60.73268800000001
 30
0.0
 11
92.440043000000003
 21
63.67875699999999
 31
0.0
  0
LINE
  5
5F
  8
3
 10
97.207973999999993
 20
66.160687999999993
 30
0.0
 11
91.779973999999996
 21
60.73268800000001
 31
0.0
  0
LINE
  5
60
  8
3
 10
90.349973999999989
 20
70.732687999999996
 30
0.0
 11
87.207973999999993
 21
67.590688
 31
0.0
  0
LINE
  5
61
  8
3
 10
97.207973999999993
 20
63.874687999999999
 30
0.0
 11
94.065973999999997
 21
60.73268800000001
 31
0.0
  0
LINE
  5
62
  8
3
 10
90.154043000000001
 20
65.964756999999992
 30
0.0
 11
87.207973999999993
 21
63.018687999999997
 31
0.0
  0
LINE
  5
63
  8
3
 10
90.746383999999992
 20
64.271098999999992
 30
0.0
 11
87.207973999999993
 21
60.73268800000001
 31
0.0
  0
LINE
  5
64
  8
3
 10
94.261904999999999
 20
65.500619999999998
 30
0.0
 11
97.207973999999993
 21
68.446687999999995
 31
0.0
  0
LINE
  5
65
  8
3
 10
94.065973999999997
 20
70.732687999999996
 30
0.0
 11
97.207973999999993
 21
67.590688
 31
0.0
  0
LINE
  5
66
  8
3
 10
91.796901000000005
 20
70.715761999999984
 30
0.0
 11
97.207973999999993
 21
65.304687999999999
 31
0.0
  0
LINE
  5
67
  8
3
 10
89.493973999999994
 20
70.732687999999996
 30
0.0
 11
92.440043000000003
 21
67.786619999999999
 31
0.0
  0
LINE
  5
68
  8
3
 10
87.207973999999993
 20
70.732687999999996
 30
0.0
 11
90.746383999999992
 21
67.194277999999997
 31
0.0
  0
LINE
  5
69
  8
3
 10
90.154043000000001
 20
65.500619999999998
 30
0.0
 11
87.207973999999993
 21
68.446687999999995
 31
0.0
  0
LINE
  5
6A
  8
3
 10
87.207973999999993
 20
66.160687999999993
 30
0.0
 11
92.635974000000004
 21
60.73268800000001
 31
0.0
  0
LINE
  5
6B
  8
3
 10
87.207973999999993
 20
63.874687999999999
 30
0.0
 11
90.349973999999989
 21
60.73268800000001
 31
0.0
  0
LINE
  5
6C
  8
3
 10
94.921974000000006
 20
60.73268800000001
 30
0.0
 11
91.975905000000026
 21
63.67875699999999
 31
0.0
  0
LINE
  5
6D
  8
3
 10
93.669564000000008
 20
64.271098999999992
 30
0.0
 11
97.207973999999993
 21
60.73268800000001
 31
0.0
  0
LINE
  5
6E
  8
3
 10
94.261904999999999
 20
65.964756999999992
 30
0.0
 11
97.207973999999993
 21
63.018687999999997
 31
0.0
  0
LINE
  5
6F
  8
0
 10
130.570176
 20
70.732687999999996
 30
0.0
 11
130.998176
 21
70.304687999999999
 31
0.0
  0
LINE
  5
70
  8
0
 10
130.570176
 20
60.73268800000001
 30
0.0
 11
130.998176
 21
61.160688
 31
0.0
  0
LINE
  5
71
  8
0
 10
130.998176
 20
61.160688
 30
0.0
 11
129.855176
 21
62.303688000000001
 31
0.0
  0
LINE
  5
72
  8
0
 10
97.207973999999993
 20
70.732687999999996
 30
0.0
 11
87.207973999999993
 21
70.732687999999996
 31
0.0
  0
LINE
  5
73
  8
0
 10
87.207973999999993
 20
70.732687999999996
 30
0.0
 11
87.207973999999993
 21
60.73268800000001
 31
0.0
  0
LINE
  5
74
  8
0
 10
87.207973999999993
 20
60.73268800000001
 30
0.0
 11
97.207973999999993
 21
60.73268800000001
 31
0.0
  0
LINE
  5
75
  8
0
 10
97.207973999999993
 20
60.73268800000001
 30
0.0
 11
97.207973999999993
 21
70.732687999999996
 31
0.0
  0
LINE
  5
76
  8
3
 10
88.063973999999988
 20
70.732687999999996
 30
0.0
 11
87.207973999999993
 21
69.876688000000001
 31
0.0
  0
LINE
  5
77
  8
3
 10
87.207973999999993
 20
61.588687999999998
 30
0.0
 11
88.063973999999988
 21
60.73268800000001
 31
0.0
  0
LINE
  5
78
  8
3
 10
96.351973999999998
 20
60.73268800000001
 30
0.0
 11
97.207973999999993
 21
61.588687999999998
 31
0.0
  0
LINE
  5
79
  8
3
 10
97.207973999999993
 20
69.876688000000001
 30
0.0
 11
96.351973999999998
 21
70.732687999999996
 31
0.0
  0
LINE
  5
AA
  8
0
 10
96.407973999999996
 20
102.016183
 30
0.0
 11
88.007974000000004
 21
102.016183
 31
0.0
  0
LINE
  5
AB
  8
0
 10
97.207973999999993
 20
90.731183000000001
 30
0.0
 11
97.207973999999993
 21
101.216183
 31
0.0
  0
LINE
  5
AC
  8
0
 10
87.207973999999993
 20
90.731183000000001
 30
0.0
 11
87.207973999999993
 21
101.216183
 31
0.0
  0
LINE
  5
AD
  8
0
 10
97.207973999999993
 20
101.216183
 30
0.0
 11
96.407973999999996
 21
102.016183
 31
0.0
  0
LINE
  5
AE
  8
0
 10
88.007974000000004
 20
102.016183
 30
0.0
 11
87.207973999999993
 21
101.216183
 31
0.0
  0
LINE
  5
AF
  8
0
 10
97.207973999999993
 20
101.216183
 30
0.0
 11
87.207973999999993
 21
101.216183
 31
0.0
  0
LINE
  5
B0
  8
2
 10
94.707973999999993
 20
90.945183
 30
0.0
 11
94.707973999999993
 21
101.64918299999999
 31
0.0
  0
LINE
  5
B1
  8
2
 10
94.274974
 20
90.940183000000005
 30
0.0
 11
94.274974
 21
101.216183
 31
0.0
  0
LINE
  5
B2
  8
2
 10
94.274974
 20
101.216183
 30
0.0
 11
95.074973999999997
 21
102.016183
 31
0.0
  0
LINE
  5
B3
  8
2
 10
90.140974
 20
101.216183
 30
0.0
 11
89.340974000000003
 21
102.016183
 31
0.0
  0
LINE
  5
B4
  8
2
 10
90.140974
 20
90.940183000000005
 30
0.0
 11
90.140974
 21
101.216183
 31
0.0
  0
LINE
  5
B5
  8
2
 10
89.707973999999993
 20
90.945183
 30
0.0
 11
89.707973999999993
 21
101.64918299999999
 31
0.0
  0
LINE
  5
B6
  8
0
 10
93.350973999999994
 20
90.016182999999998
 30
0.0
 11
92.207973999999993
 21
91.159182999999999
 31
0.0
  0
LINE
  5
B7
  8
0
 10
92.207973999999993
 20
91.159182999999999
 30
0.0
 11
91.064974000000007
 21
90.016182999999998
 31
0.0
  0
LINE
  5
B8
  8
0
 10
94.493973999999994
 20
91.159182999999999
 30
0.0
 11
93.350973999999994
 21
90.016182999999998
 31
0.0
  0
LINE
  5
B9
  8
0
 10
95.636973999999995
 20
90.016182999999998
 30
0.0
 11
94.493973999999994
 21
91.159182999999999
 31
0.0
  0
LINE
  5
BA
  8
0
 10
96.779973999999996
 20
91.159182999999999
 30
0.0
 11
95.636973999999995
 21
90.016182999999998
 31
0.0
  0
LINE
  5
BB
  8
0
 10
88.778974000000005
 20
90.016182999999998
 30
0.0
 11
89.921974000000006
 21
91.159182999999999
 31
0.0
  0
LINE
  5
BC
  8
0
 10
89.921974000000006
 20
91.159182999999999
 30
0.0
 11
91.064974000000007
 21
90.016182999999998
 31
0.0
  0
LINE
  5
BD
  8
0
 10
91.064974000000007
 20
90.016182999999998
 30
0.0
 11
92.207973999999993
 21
91.159182999999999
 31
0.0
  0
LINE
  5
BE
  8
1
 10
92.207973999999993
 20
87.516182999999998
 30
0.0
 11
92.207973999999993
 21
104.516183
 31
0.0
  0
LINE
  5
BF
  8
0
 10
97.207973999999993
 20
90.731183000000001
 30
0.0
 11
96.779973999999996
 21
91.159182999999999
 31
0.0
  0
LINE
  5
C0
  8
0
 10
87.207973999999993
 20
90.731183000000001
 30
0.0
 11
87.635974000000004
 21
91.159182999999999
 31
0.0
  0
LINE
  5
C1
  8
0
 10
87.635974000000004
 20
91.159182999999999
 30
0.0
 11
88.778974000000005
 21
90.016182999999998
 31
0.0
  0
LINE
  5
DA
  8
0
 10
96.407973999999996
 20
29.449193000000001
 30
0.0
 11
88.007974000000004
 21
29.449193000000001
 31
0.0
  0
LINE
  5
DB
  8
0
 10
97.207973999999993
 20
30.249192999999991
 30
0.0
 11
87.207973999999993
 21
30.249192999999991
 31
0.0
  0
LINE
  5
DC
  8
0
 10
94.493973999999994
 20
40.306192999999993
 30
0.0
 11
93.350973999999994
 21
41.449192999999987
 31
0.0
  0
LINE
  5
DD
  8
1
 10
92.207973999999993
 20
43.949192999999987
 30
0.0
 11
92.207973999999993
 21
26.949193000000001
 31
0.0
  0
LINE
  5
DE
  8
0
 10
87.207973999999993
 20
40.734192999999991
 30
0.0
 11
87.207973999999993
 21
30.249192999999991
 31
0.0
  0
LINE
  5
DF
  8
2
 10
90.140974
 20
40.525193000000002
 30
0.0
 11
90.140974
 21
30.249192999999991
 31
0.0
  0
LINE
  5
E0
  8
2
 10
89.707973999999993
 20
40.520192999999992
 30
0.0
 11
89.707973999999993
 21
29.816192999999998
 31
0.0
  0
LINE
  5
E1
  8
0
 10
89.921974000000006
 20
40.306192999999993
 30
0.0
 11
91.064974000000007
 21
41.449192999999987
 31
0.0
  0
LINE
  5
E2
  8
0
 10
87.635974000000004
 20
40.306192999999993
 30
0.0
 11
88.778974000000005
 21
41.449192999999987
 31
0.0
  0
LINE
  5
E3
  8
0
 10
87.207973999999993
 20
40.734192999999991
 30
0.0
 11
87.635974000000004
 21
40.306192999999993
 31
0.0
  0
LINE
  5
E4
  8
0
 10
88.778974000000005
 20
41.449192999999987
 30
0.0
 11
89.921974000000006
 21
40.306192999999993
 31
0.0
  0
LINE
  5
E5
  8
0
 10
91.064974000000007
 20
41.449192999999987
 30
0.0
 11
92.207973999999993
 21
40.306192999999993
 31
0.0
  0
LINE
  5
E6
  8
0
 10
92.207973999999993
 20
40.306192999999993
 30
0.0
 11
91.064974000000007
 21
41.449192999999987
 31
0.0
  0
LINE
  5
E7
  8
0
 10
93.350973999999994
 20
41.449192999999987
 30
0.0
 11
92.207973999999993
 21
40.306192999999993
 31
0.0
  0
LINE
  5
E8
  8
2
 10
90.140974
 20
30.249192999999991
 30
0.0
 11
89.340974000000003
 21
29.449193000000001
 31
0.0
  0
LINE
  5
E9
  8
0
 10
88.007974000000004
 20
29.449193000000001
 30
0.0
 11
87.207973999999993
 21
30.249192999999991
 31
0.0
  0
LINE
  5
EA
  8
0
 10
97.207973999999993
 20
40.734192999999991
 30
0.0
 11
97.207973999999993
 21
30.249192999999991
 31
0.0
  0
LINE
  5
EB
  8
2
 10
94.707973999999993
 20
40.520192999999992
 30
0.0
 11
94.707973999999993
 21
29.816192999999998
 31
0.0
  0
LINE
  5
EC
  8
2
 10
94.274974
 20
40.525193000000002
 30
0.0
 11
94.274974
 21
30.249192999999991
 31
0.0
  0
LINE
  5
ED
  8
0
 10
95.636973999999995
 20
41.449192999999987
 30
0.0
 11
94.493973999999994
 21
40.306192999999993
 31
0.0
  0
LINE
  5
EE
  8
0
 10
97.207973999999993
 20
40.734192999999991
 30
0.0
 11
96.779973999999996
 21
40.306192999999993
 31
0.0
  0
LINE
  5
EF
  8
0
 10
96.779973999999996
 20
40.306192999999993
 30
0.0
 11
95.636973999999995
 21
41.449192999999987
 31
0.0
  0
LINE
  5
F0
  8
0
 10
97.207973999999993
 20
30.249192999999991
 30
0.0
 11
96.407973999999996
 21
29.449193000000001
 31
0.0
  0
LINE
  5
F1
  8
2
 10
94.274974
 20
30.249192999999991
 30
0.0
 11
95.074973999999997
 21
29.449193000000001
 31
0.0
  0
LINE
  5
F2
  8
0
 10
53.417771999999992
 20
68.018687999999997
 30
0.0
 11
54.560771999999993
 21
66.875687999999997
 31
0.0
  0
LINE
  5
F3
  8
0
 10
43.360771999999997
 20
70.732687999999996
 30
0.0
 11
43.360771999999997
 21
60.73268800000001
 31
0.0
  0
LINE
  5
F4
  8
0
 10
42.560771999999993
 20
69.932687999999999
 30
0.0
 11
42.560771999999993
 21
61.532688
 31
0.0
  0
LINE
  5
F5
  8
1
 10
57.060771999999993
 20
65.732687999999996
 30
0.0
 11
40.060771999999993
 21
65.732687999999996
 31
0.0
  0
LINE
  5
F6
  8
2
 10
53.631771999999991
 20
63.23268800000001
 30
0.0
 11
42.927771999999969
 21
63.23268800000001
 31
0.0
  0
LINE
  5
F7
  8
2
 10
53.636771999999972
 20
63.665688000000003
 30
0.0
 11
43.360771999999997
 21
63.665688000000003
 31
0.0
  0
LINE
  5
F8
  8
0
 10
53.845771999999982
 20
60.73268800000001
 30
0.0
 11
43.360771999999997
 21
60.73268800000001
 31
0.0
  0
LINE
  5
F9
  8
0
 10
53.417771999999992
 20
61.160688
 30
0.0
 11
54.560771999999993
 21
62.303688000000001
 31
0.0
  0
LINE
  5
FA
  8
0
 10
54.560771999999993
 20
64.589687999999995
 30
0.0
 11
53.417771999999992
 21
65.732687999999996
 31
0.0
  0
LINE
  5
FB
  8
0
 10
53.417771999999992
 20
63.446688000000002
 30
0.0
 11
54.560771999999993
 21
64.589687999999995
 31
0.0
  0
LINE
  5
FC
  8
0
 10
54.560771999999993
 20
62.303688000000001
 30
0.0
 11
53.417771999999992
 21
63.446688000000002
 31
0.0
  0
LINE
  5
FD
  8
0
 10
53.417771999999992
 20
65.732687999999996
 30
0.0
 11
54.560771999999993
 21
64.589687999999995
 31
0.0
  0
LINE
  5
FE
  8
0
 10
54.560771999999993
 20
66.875687999999997
 30
0.0
 11
53.417771999999992
 21
65.732687999999996
 31
0.0
  0
LINE
  5
FF
  8
0
 10
53.845771999999982
 20
60.73268800000001
 30
0.0
 11
53.417771999999992
 21
61.160688
 31
0.0
  0
LINE
  5
100
  8
0
 10
42.560771999999993
 20
61.532688
 30
0.0
 11
43.360771999999997
 21
60.73268800000001
 31
0.0
  0
LINE
  5
101
  8
2
 10
43.360771999999997
 20
63.665688000000003
 30
0.0
 11
42.560771999999993
 21
62.865687999999999
 31
0.0
  0
LINE
  5
102
  8
2
 10
53.636771999999972
 20
67.799688000000003
 30
0.0
 11
43.360771999999997
 21
67.799688000000003
 31
0.0
  0
LINE
  5
103
  8
2
 10
53.631771999999991
 20
68.232687999999996
 30
0.0
 11
42.927771999999969
 21
68.232687999999996
 31
0.0
  0
LINE
  5
104
  8
0
 10
53.845771999999982
 20
70.732687999999996
 30
0.0
 11
43.360771999999997
 21
70.732687999999996
 31
0.0
  0
LINE
  5
105
  8
0
 10
53.417771999999992
 20
70.304687999999999
 30
0.0
 11
54.560771999999993
 21
69.161687999999998
 31
0.0
  0
LINE
  5
106
  8
0
 10
54.560771999999993
 20
69.161687999999998
 30
0.0
 11
53.417771999999992
 21
68.018687999999997
 31
0.0
  0
LINE
  5
107
  8
0
 10
53.845771999999982
 20
70.732687999999996
 30
0.0
 11
53.417771999999992
 21
70.304687999999999
 31
0.0
  0
LINE
  5
108
  8
2
 10
43.360771999999997
 20
67.799688000000003
 30
0.0
 11
42.560771999999993
 21
68.599688
 31
0.0
  0
LINE
  5
109
  8
0
 10
43.360771999999997
 20
70.732687999999996
 30
0.0
 11
42.560771999999993
 21
69.932687999999999
 31
0.0
  0
TEXT
  5
258
  8
0
 62
     3
 10
0.0
 20
0.0
 30
0.0
 40
5.0
  1
HS-9102
  7
STANDARD1
  0
ENDSEC
  0
EOF
