  0
SECTION
  2
HEADER
  9
$ACADVER
  1
AC1009
  9
$INSBASE
 10
0.0
 20
0.0
 30
0.0
  9
$EXTMIN
 10
0.0
 20
-2.960436562073669
 30
0.0
  9
$EXTMAX
 10
1585.3803053555989
 20
1206.011485889672
 30
0.0
  9
$LIMMIN
 10
0.0
 20
0.0
  9
$LIMMAX
 10
1125.0
 20
810.0
  9
$ORTHOMODE
 70
     0
  9
$REGENMODE
 70
     1
  9
$FILLMODE
 70
     1
  9
$QTEXTMODE
 70
     0
  9
$MIRRTEXT
 70
     0
  9
$DRAGMODE
 70
     2
  9
$LTSCALE
 40
30.0
  9
$OSMODE
 70
    55
  9
$ATTMODE
 70
     1
  9
$TEXTSIZE
 40
0.2
  9
$TRACEWID
 40
0.05
  9
$TEXTSTYLE
  7
STANDARD
  9
$CLAYER
  8
0
  9
$CELTYPE
  6
BYLAYER
  9
$CECOLOR
 62
   256
  9
$DIMSCALE
 40
3.0
  9
$DIMASZ
 40
3.0
  9
$DIMEXO
 40
2.0
  9
$DIMDLI
 40
0.38
  9
$DIMRND
 40
0.0
  9
$DIMDLE
 40
0.0
  9
$DIMEXE
 40
2.0
  9
$DIMTP
 40
0.0
  9
$DIMTM
 40
0.0
  9
$DIMTXT
 40
3.0
  9
$DIMCEN
 40
0.0
  9
$DIMTSZ
 40
0.0
  9
$DIMTOL
 70
     0
  9
$DIMLIM
 70
     0
  9
$DIMTIH
 70
     0
  9
$DIMTOH
 70
     0
  9
$DIMSE1
 70
     0
  9
$DIMSE2
 70
     0
  9
$DIMTAD
 70
     1
  9
$DIMZIN
 70
     0
  9
$DIMBLK
  1

  9
$DIMASO
 70
     0
  9
$DIMSHO
 70
     0
  9
$DIMPOST
  1

  9
$DIMAPOST
  1

  9
$DIMALT
 70
     0
  9
$DIMALTD
 70
     2
  9
$DIMALTF
 40
25.399999999999999
  9
$DIMLFAC
 40
1.0
  9
$DIMTOFL
 70
     1
  9
$DIMTVP
 40
1.6000000000000001
  9
$DIMTIX
 70
     1
  9
$DIMSOXD
 70
     0
  9
$DIMSAH
 70
     0
  9
$DIMBLK1
  1

  9
$DIMBLK2
  1

  9
$DIMSTYLE
  2
STANDARD
  9
$DIMCLRD
 70
     0
  9
$DIMCLRE
 70
     0
  9
$DIMCLRT
 70
     0
  9
$DIMTFAC
 40
1.0
  9
$DIMGAP
 40
0.09
  9
$LUNITS
 70
     2
  9
$LUPREC
 70
     4
  9
$SKETCHINC
 40
0.1
  9
$FILLETRAD
 40
0.0
  9
$AUNITS
 70
     0
  9
$AUPREC
 70
     4
  9
$MENU
  1
E:\r13\win\SUPPORT\ACAD
  9
$ELEVATION
 40
0.0
  9
$PELEVATION
 40
0.0
  9
$THICKNESS
 40
0.0
  9
$LIMCHECK
 70
     0
  9
$BLIPMODE
 70
     0
  9
$CHAMFERA
 40
6.0
  9
$CHAMFERB
 40
6.0
  9
$SKPOLY
 70
     0
  9
$TDCREATE
 40
2449840.6098379628
  9
$TDUPDATE
 40
2456598.6912379172
  9
$TDINDWG
 40
0.0475573843
  9
$TDUSRTIMER
 40
0.0475573843
  9
$USRTIMER
 70
     1
  9
$ANGBASE
 50
0.0
  9
$ANGDIR
 70
     0
  9
$PDMODE
 70
     0
  9
$PDSIZE
 40
0.0
  9
$PLINEWID
 40
0.0
  9
$COORDS
 70
     1
  9
$SPLFRAME
 70
     0
  9
$SPLINETYPE
 70
     6
  9
$SPLINESEGS
 70
     8
  9
$ATTDIA
 70
     0
  9
$ATTREQ
 70
     1
  9
$HANDLING
 70
     1
  9
$HANDSEED
  5
AF0
  9
$SURFTAB1
 70
     6
  9
$SURFTAB2
 70
     6
  9
$SURFTYPE
 70
     6
  9
$SURFU
 70
     6
  9
$SURFV
 70
     6
  9
$UCSNAME
  2

  9
$UCSORG
 10
0.0
 20
0.0
 30
0.0
  9
$UCSXDIR
 10
1.0
 20
0.0
 30
0.0
  9
$UCSYDIR
 10
0.0
 20
1.0
 30
0.0
  9
$PUCSNAME
  2

  9
$PUCSORG
 10
0.0
 20
0.0
 30
0.0
  9
$PUCSXDIR
 10
1.0
 20
0.0
 30
0.0
  9
$PUCSYDIR
 10
0.0
 20
1.0
 30
0.0
  9
$USERI1
 70
     0
  9
$USERI2
 70
     1
  9
$USERI3
 70
     1
  9
$USERI4
 70
     0
  9
$USERI5
 70
     0
  9
$USERR1
 40
0.0
  9
$USERR2
 40
0.0
  9
$USERR3
 40
0.0
  9
$USERR4
 40
0.0
  9
$USERR5
 40
0.0
  9
$WORLDVIEW
 70
     1
  9
$SHADEDGE
 70
     3
  9
$SHADEDIF
 70
    70
  9
$TILEMODE
 70
     1
  9
$MAXACTVP
 70
    16
  9
$PLIMCHECK
 70
     0
  9
$PEXTMIN
 10
1.0000000000000000E+020
 20
1.0000000000000000E+020
 30
1.0000000000000000E+020
  9
$PEXTMAX
 10
-1.0000000000000000E+020
 20
-1.0000000000000000E+020
 30
-1.0000000000000000E+020
  9
$PLIMMIN
 10
0.0
 20
0.0
  9
$PLIMMAX
 10
12.0
 20
9.0
  9
$UNITMODE
 70
     0
  9
$VISRETAIN
 70
     0
  9
$PLINEGEN
 70
     0
  9
$PSLTSCALE
 70
     0
  0
ENDSEC
  0
SECTION
  2
TABLES
  0
TABLE
  2
VPORT
 70
     1
  0
VPORT
  2
*ACTIVE
 70
     0
 10
0.0
 20
0.0
 11
1.0
 21
1.0
 12
792.69015636905124
 22
784.91590558893449
 13
0.0
 23
0.0
 14
30.0
 24
30.0
 15
30.0
 25
30.0
 16
0.0
 26
0.0
 36
1.0
 17
0.0
 27
0.0
 37
0.0
 40
1589.6910329598179
 41
1.7807262569832401
 42
50.0
 43
0.0
 44
0.0
 50
0.0
 51
0.0
 71
     0
 72
   500
 73
     1
 74
     0
 75
     0
 76
     0
 77
     0
 78
     2
  0
ENDTAB
  0
TABLE
  2
LTYPE
 70
     3
  0
LTYPE
  2
CONTINUOUS
 70
     0
  3
Solid Line
 72
    65
 73
     0
 40
0.0
  0
LTYPE
  2
CENTER
 70
     0
  3
____ _ ____ _ ____ _ ____ _ ____ _ ____ _ ____
 72
    65
 73
     4
 40
2.0
 49
1.25
 49
-0.25
 49
0.25
 49
-0.25
  0
LTYPE
  2
PHANTOM2
 70
     0
  3
___ _ _ ___ _ _ ___ _ _ ___ _ _
 72
    65
 73
     6
 40
1.25
 49
0.625
 49
-0.125
 49
0.125
 49
-0.125
 49
0.125
 49
-0.125
  0
ENDTAB
  0
TABLE
  2
LAYER
 70
     3
  0
LAYER
  2
0
 70
     0
 62
     7
  6
CONTINUOUS
  0
LAYER
  2
1
 70
     0
 62
     1
  6
CENTER
  0
LAYER
  2
3
 70
     0
 62
     3
  6
CONTINUOUS
  0
ENDTAB
  0
TABLE
  2
STYLE
 70
     2
  0
STYLE
  2
STANDARD
 70
     0
 40
0.0
 41
1.0
 50
0.0
 71
     0
 42
0.2
  3
TXT
  4
BIGFONT
  0
STYLE
  2
STANDARD1
 70
     0
 40
0.0
 41
1.0
 50
0.0
 71
     0
 42
3.0
  3
txt
  4

  0
ENDTAB
  0
TABLE
  2
VIEW
 70
     1
  0
VIEW
  2
ALL
 70
     0
 40
810.0
 10
662.97478991596643
 20
405.0
 41
0.0
 11
0.0
 21
0.0
 31
1.0
 12
0.0
 22
0.0
 32
0.0
 42
0.0
 43
0.0
 44
0.0
 50
0.0
 71
     0
  0
ENDTAB
  0
TABLE
  2
UCS
 70
     0
  0
ENDTAB
  0
TABLE
  2
APPID
 70
     7
  0
APPID
  2
ACAD
 70
     0
  0
APPID
  2
MCAD_NO_VIS
 70
     0
  0
APPID
  2
ACAD_TEMP_GRAPHIC
 70
     0
  0
APPID
  2
CONTENTBLOCKICON
 70
     0
  0
APPID
  2
DCO15
 70
     0
  0
APPID
  2
ACAD_MLEADERVER
 70
     0
  0
APPID
  2
ACAD_NAV_VCDISPLAY
 70
     0
  0
ENDTAB
  0
TABLE
  2
DIMSTYLE
 70
     1
  0
DIMSTYLE
  2
STANDARD
 70
     0
  3

  4

  5

  6

  7

 40
1.0
 41
0.18
 42
0.0625
 43
0.38
 44
0.18
 45
0.0
 46
0.0
 47
0.0
 48
0.0
140
0.18
141
0.09
142
0.0
143
25.399999999999999
144
1.0
145
0.0
146
1.0
147
0.09
 71
     0
 72
     0
 73
     1
 74
     1
 75
     0
 76
     0
 77
     0
 78
     0
170
     0
171
     2
172
     0
173
     0
174
     0
175
     0
176
     0
177
     0
178
     0
  0
ENDTAB
  0
ENDSEC
  0
SECTION
  2
BLOCKS
  0
BLOCK
  8
0
  2
$MODEL_SPACE
 70
     0
 10
0.0
 20
0.0
 30
0.0
  3
$MODEL_SPACE
  1

  0
ENDBLK
  5
1C6
  8
0
  0
BLOCK
 67
     1
  8
0
  2
$PAPER_SPACE
 70
     0
 10
0.0
 20
0.0
 30
0.0
  3
$PAPER_SPACE
  1

  0
ENDBLK
  5
1C4
 67
     1
  8
0
  0
ENDSEC
  0
SECTION
  2
ENTITIES
  0
LINE
  5
564
  8
0
  6
CONTINUOUS
 62
     7
 10
1399.64379183596
 20
490.06275230281182
 30
0.0
 11
1399.64379183596
 21
429.61107337265912
 31
0.0
  0
LINE
  5
565
  8
0
  6
CONTINUOUS
 62
     7
 10
1399.64379183596
 20
429.61107337265912
 30
0.0
 11
1402.818774973048
 21
426.4360902355711
 31
0.0
  0
LINE
  5
566
  8
0
  6
CONTINUOUS
 62
     7
 10
1402.818774973048
 20
493.2377354398995
 30
0.0
 11
1399.64379183596
 21
490.06275230281182
 31
0.0
  0
LINE
  5
567
  8
0
  6
CONTINUOUS
 62
     7
 10
1582.2053222185109
 20
426.4360902355711
 30
0.0
 11
1585.3803053555989
 21
429.61107337265912
 31
0.0
  0
LINE
  5
568
  8
0
  6
CONTINUOUS
 62
     7
 10
1585.3803053555989
 20
490.06275230281182
 30
0.0
 11
1582.2053222185109
 21
493.2377354398995
 31
0.0
  0
LINE
  5
569
  8
0
  6
CONTINUOUS
 62
     7
 10
1585.3803053555989
 20
429.61107337265912
 30
0.0
 11
1585.3803053555989
 21
490.06275230281182
 31
0.0
  0
LINE
  5
56A
  8
0
  6
CONTINUOUS
 62
     7
 10
1568.203646583954
 20
493.2377354398995
 30
0.0
 11
1568.203646583954
 21
509.43014943904763
 31
0.0
  0
LINE
  5
56B
  8
0
  6
CONTINUOUS
 62
     7
 10
1416.8204506076049
 20
509.43014943904763
 30
0.0
 11
1416.8204506076049
 21
493.2377354398995
 31
0.0
  0
LINE
  5
56C
  8
0
  6
CONTINUOUS
 62
     7
 10
1568.203646583954
 20
509.43014943904763
 30
0.0
 11
1566.61615501541
 21
511.01764100759169
 31
0.0
  0
LINE
  5
56D
  8
0
  6
CONTINUOUS
 62
     7
 10
1418.4079421761489
 20
511.01764100759169
 30
0.0
 11
1416.8204506076049
 21
509.43014943904763
 31
0.0
  0
LINE
  5
56E
  8
0
  6
CONTINUOUS
 62
     7
 10
1565.5366607487999
 20
408.21168702868698
 30
0.0
 11
1565.5366607487999
 21
426.4360902355711
 31
0.0
  0
LINE
  5
56F
  8
0
  6
CONTINUOUS
 62
     7
 10
1419.4874364427581
 20
426.4360902355711
 30
0.0
 11
1419.4874364427581
 21
408.21168702868698
 31
0.0
  0
LINE
  5
570
  8
0
  6
CONTINUOUS
 62
     7
 10
1419.4874364427581
 20
408.21168702868698
 30
0.0
 11
1421.074928011303
 21
406.62419546014303
 31
0.0
  0
LINE
  5
571
  8
0
  6
CONTINUOUS
 62
     7
 10
1563.9491691802559
 20
406.62419546014303
 30
0.0
 11
1565.5366607487999
 21
408.21168702868698
 31
0.0
  0
LINE
  5
576
  8
0
  6
CONTINUOUS
 62
     7
 10
1521.0868968295711
 20
428.9760767452396
 30
0.0
 11
1521.0868968295711
 21
688.53094820217336
 31
0.0
  0
LINE
  5
577
  8
0
  6
CONTINUOUS
 62
     7
 10
1463.937200361989
 20
688.53094820217336
 30
0.0
 11
1463.937200361989
 21
428.9760767452396
 31
0.0
  0
ARC
  5
578
  8
0
  6
CONTINUOUS
 62
     7
 10
1492.5120485957791
 20
794.09913751034446
 30
0.0
 40
28.574848233790672
 50
0.0
 51
180.0000000000004
  0
LINE
  5
579
  8
0
  6
CONTINUOUS
 62
     7
 10
1521.0868968295711
 20
688.53094820217336
 30
0.0
 11
1521.0868968295699
 21
794.09913751034446
 31
0.0
  0
LINE
  5
57A
  8
0
  6
CONTINUOUS
 62
     7
 10
1463.937200361989
 20
794.09913751034446
 30
0.0
 11
1463.937200361989
 21
688.53094820217336
 31
0.0
  0
CIRCLE
  5
57B
  8
0
  6
CONTINUOUS
 62
     7
 10
1492.51204859578
 20
455.1379377948453
 30
0.0
 40
20.637390391071222
  0
CIRCLE
  5
57C
  8
0
  6
CONTINUOUS
 62
     7
 10
1492.51204859578
 20
455.1379377948453
 30
0.0
 40
19.113398485268991
  0
LINE
  5
57D
  8
0
  6
CONTINUOUS
 62
     7
 10
1450.463463253499
 20
429.61107337265912
 30
0.0
 11
1399.64379183596
 21
429.61107337265912
 31
0.0
  0
LINE
  5
57E
  8
0
  6
CONTINUOUS
 62
     7
 10
1450.463463253499
 20
490.06275230281182
 30
0.0
 11
1399.64379183596
 21
490.06275230281182
 31
0.0
  0
LINE
  5
57F
  8
0
  6
CONTINUOUS
 62
     7
 10
1450.463463253499
 20
490.06275230281182
 30
0.0
 11
1450.463463253499
 21
429.61107337265912
 31
0.0
  0
LINE
  5
580
  8
0
  6
CONTINUOUS
 62
     7
 10
1458.038091050387
 20
426.4360902355711
 30
0.0
 11
1402.818774973048
 21
426.4360902355711
 31
0.0
  0
LINE
  5
581
  8
0
  6
CONTINUOUS
 62
     7
 10
1450.463463253499
 20
429.61107337265912
 30
0.0
 11
1458.038091050387
 21
426.4360902355711
 31
0.0
  0
LINE
  5
582
  8
0
  6
CONTINUOUS
 62
     7
 10
1458.038091050387
 20
493.2377354398995
 30
0.0
 11
1402.818774973048
 21
493.2377354398995
 31
0.0
  0
LINE
  5
583
  8
0
  6
CONTINUOUS
 62
     7
 10
1458.038091050387
 20
493.2377354398995
 30
0.0
 11
1450.463463253499
 21
490.06275230281182
 31
0.0
  0
LINE
  5
584
  8
0
  6
CONTINUOUS
 62
     7
 10
1534.5606339380611
 20
490.06275230281182
 30
0.0
 11
1526.9860061411721
 21
493.2377354398995
 31
0.0
  0
LINE
  5
585
  8
0
  6
CONTINUOUS
 62
     7
 10
1534.5606339380611
 20
429.61107337265912
 30
0.0
 11
1534.5606339380611
 21
490.06275230281182
 31
0.0
  0
LINE
  5
586
  8
0
  6
CONTINUOUS
 62
     7
 10
1526.9860061411721
 20
426.4360902355711
 30
0.0
 11
1534.5606339380611
 21
429.61107337265912
 31
0.0
  0
LINE
  5
587
  8
0
  6
CONTINUOUS
 62
     7
 10
1526.9860061411721
 20
493.2377354398995
 30
0.0
 11
1521.0868968295711
 21
493.2377354398995
 31
0.0
  0
LINE
  5
588
  8
0
  6
CONTINUOUS
 62
     7
 10
1463.937200361989
 20
493.2377354398995
 30
0.0
 11
1458.038091050387
 21
493.2377354398995
 31
0.0
  0
LINE
  5
589
  8
0
  6
CONTINUOUS
 62
     7
 10
1458.038091050387
 20
426.4360902355711
 30
0.0
 11
1466.477186871658
 21
426.4360902355711
 31
0.0
  0
LINE
  5
58A
  8
0
  6
CONTINUOUS
 62
     7
 10
1518.5469103199021
 20
426.4360902355711
 30
0.0
 11
1526.9860061411721
 21
426.4360902355711
 31
0.0
  0
LINE
  5
58B
  8
0
  6
CONTINUOUS
 62
     7
 10
1585.3803053555989
 20
429.61107337265912
 30
0.0
 11
1534.5606339380611
 21
429.61107337265912
 31
0.0
  0
LINE
  5
58C
  8
0
  6
CONTINUOUS
 62
     7
 10
1582.2053222185109
 20
426.4360902355711
 30
0.0
 11
1526.9860061411721
 21
426.4360902355711
 31
0.0
  0
LINE
  5
58D
  8
0
  6
CONTINUOUS
 62
     7
 10
1585.3803053555989
 20
490.06275230281182
 30
0.0
 11
1534.5606339380611
 21
490.06275230281182
 31
0.0
  0
LINE
  5
58E
  8
0
  6
CONTINUOUS
 62
     7
 10
1582.2053222185109
 20
493.2377354398995
 30
0.0
 11
1526.9860061411721
 21
493.2377354398995
 31
0.0
  0
LINE
  5
58F
  8
0
  6
CONTINUOUS
 62
     7
 10
1568.203646583954
 20
509.43014943904763
 30
0.0
 11
1521.0868968295711
 21
509.43014943904763
 31
0.0
  0
LINE
  5
590
  8
0
  6
CONTINUOUS
 62
     7
 10
1463.937200361989
 20
509.43014943904763
 30
0.0
 11
1416.8204506076049
 21
509.43014943904763
 31
0.0
  0
LINE
  5
591
  8
0
  6
CONTINUOUS
 62
     7
 10
1566.61615501541
 20
511.01764100759169
 30
0.0
 11
1521.0868968295711
 21
511.01764100759169
 31
0.0
  0
LINE
  5
592
  8
0
  6
CONTINUOUS
 62
     7
 10
1463.937200361989
 20
511.01764100759169
 30
0.0
 11
1418.4079421761489
 21
511.01764100759169
 31
0.0
  0
LINE
  5
593
  8
0
  6
CONTINUOUS
 62
     7
 10
1565.5366607487999
 20
408.21168702868698
 30
0.0
 11
1419.4874364427581
 21
408.21168702868698
 31
0.0
  0
LINE
  5
594
  8
0
  6
CONTINUOUS
 62
     7
 10
1563.9491691802559
 20
406.62419546014303
 30
0.0
 11
1421.074928011303
 21
406.62419546014303
 31
0.0
  0
LINE
  5
595
  8
0
  6
CONTINUOUS
 62
     7
 10
1445.0143008649461
 20
547.22003938783598
 30
0.0
 11
1445.0143008649461
 21
511.01764100759169
 31
0.0
  0
POLYLINE
  5
596
  8
0
  6
CONTINUOUS
 62
     7
 66
     1
 10
0.0
 20
0.0
 30
0.0
 70
   128
  0
VERTEX
  5
597
  8
0
 10
1461.365532153947
 20
551.02242853489849
 30
0.0
  0
VERTEX
  5
598
  8
0
 10
1453.1516352226381
 20
549.55378645707162
 30
0.0
  0
VERTEX
  5
599
  8
0
 10
1445.0143008649461
 20
547.22003938783598
 30
0.0
  0
SEQEND
  5
59A
  8
0
  0
LINE
  5
59B
  8
0
  6
CONTINUOUS
 62
     7
 10
1463.937200361989
 20
551.02242853489849
 30
0.0
 11
1461.365532153947
 21
551.02242853489849
 31
0.0
  0
LINE
  5
59C
  8
0
  6
CONTINUOUS
 62
     7
 10
1540.0097963266139
 20
547.22003938783598
 30
0.0
 11
1540.0097963266139
 21
511.01764100759169
 31
0.0
  0
LINE
  5
59D
  8
0
  6
CONTINUOUS
 62
     7
 10
1523.658565037613
 20
551.02242853489849
 30
0.0
 11
1521.0868968295711
 21
551.02242853489849
 31
0.0
  0
POLYLINE
  5
59E
  8
0
  6
CONTINUOUS
 62
     7
 66
     1
 10
0.0
 20
0.0
 30
0.0
 70
   128
  0
VERTEX
  5
59F
  8
0
 10
1540.0097963266139
 20
547.22003938783598
 30
0.0
  0
VERTEX
  5
5A0
  8
0
 10
1531.938411456646
 20
549.53815705950046
 30
0.0
  0
VERTEX
  5
5A1
  8
0
 10
1523.658565037613
 20
551.02242853489849
 30
0.0
  0
SEQEND
  5
5A2
  8
0
  0
LINE
  5
5A3
  8
0
  6
CONTINUOUS
 62
     7
 10
1445.0143008649461
 20
547.22003938783598
 30
0.0
 11
1445.014300864945
 21
551.02242853489849
 31
0.0
  0
LINE
  5
5A4
  8
0
  6
CONTINUOUS
 62
     7
 10
1461.365532153947
 20
551.02242853489849
 30
0.0
 11
1445.014300864945
 21
551.02242853489849
 31
0.0
  0
LINE
  5
5A5
  8
0
  6
CONTINUOUS
 62
     7
 10
1540.0097963266139
 20
551.02242853489849
 30
0.0
 11
1540.0097963266139
 21
547.22003938783598
 31
0.0
  0
LINE
  5
5A6
  8
0
  6
CONTINUOUS
 62
     7
 10
1540.0097963266139
 20
551.02242853489849
 30
0.0
 11
1523.658565037613
 21
551.02242853489849
 31
0.0
  0
LINE
  5
5A9
  8
0
  6
CONTINUOUS
 62
     7
 10
1514.7369305553959
 20
422.62611047106572
 30
0.0
 11
1510.5116829788019
 21
422.62611047106572
 31
0.0
  0
LINE
  5
5AA
  8
0
  6
CONTINUOUS
 62
     7
 10
1510.5116829788019
 20
422.62611047106572
 30
0.0
 11
1510.5116829788019
 21
445.04263966992607
 31
0.0
  0
LINE
  5
5AB
  8
0
  6
CONTINUOUS
 62
     7
 10
1510.5116829788019
 20
465.2332359197647
 30
0.0
 11
1510.5116829788019
 21
524.22557085787696
 31
0.0
  0
POLYLINE
  5
5AC
  8
0
  6
CONTINUOUS
 62
     7
 66
     1
 10
0.0
 20
0.0
 30
0.0
 70
   128
  0
VERTEX
  5
5AD
  8
0
 10
1510.5116829788019
 20
524.22557085787696
 30
0.0
  0
VERTEX
  5
5AE
  8
0
 10
1510.0208370044711
 20
528.65531225641985
 30
0.0
  0
VERTEX
  5
5AF
  8
0
 10
1509.2480011858629
 20
531.16605877695861
 30
0.0
  0
VERTEX
  5
5B0
  8
0
 10
1508.115436037368
 20
533.47880405512126
 30
0.0
  0
VERTEX
  5
5B1
  8
0
 10
1506.6475968651489
 20
535.49888505060426
 30
0.0
  0
VERTEX
  5
5B2
  8
0
 10
1504.8598964806449
 20
537.2207935928742
 30
0.0
  0
VERTEX
  5
5B3
  8
0
 10
1502.7720565278889
 20
538.62367905493761
 30
0.0
  0
VERTEX
  5
5B4
  8
0
 10
1500.453275273969
 20
539.69750651425989
 30
0.0
  0
VERTEX
  5
5B5
  8
0
 10
1497.79747482018
 20
540.48746696802084
 30
0.0
  0
VERTEX
  5
5B6
  8
0
 10
1495.0171694636499
 20
540.93683094612197
 30
0.0
  0
VERTEX
  5
5B7
  8
0
 10
1491.9422735488679
 20
541.05540917523513
 30
0.0
  0
VERTEX
  5
5B8
  8
0
 10
1488.8825597837899
 20
540.79682463510323
 30
0.0
  0
VERTEX
  5
5B9
  8
0
 10
1485.8236105255889
 20
540.11894885298807
 30
0.0
  0
VERTEX
  5
5BA
  8
0
 10
1482.9664473173329
 20
539.00158758553312
 30
0.0
  0
VERTEX
  5
5BB
  8
0
 10
1480.522779221676
 20
537.49604245911155
 30
0.0
  0
VERTEX
  5
5BC
  8
0
 10
1478.4340922606079
 20
535.56799486917953
 30
0.0
  0
VERTEX
  5
5BD
  8
0
 10
1476.898874034554
 20
533.45790098052805
 30
0.0
  0
VERTEX
  5
5BE
  8
0
 10
1475.737627365344
 20
531.07152058031147
 30
0.0
  0
VERTEX
  5
5BF
  8
0
 10
1474.990037932
 20
528.59282996260094
 30
0.0
  0
VERTEX
  5
5C0
  8
0
 10
1474.588656058693
 20
525.99374391528204
 30
0.0
  0
VERTEX
  5
5C1
  8
0
 10
1474.5124142127579
 20
524.22557085787696
 30
0.0
  0
SEQEND
  5
5C2
  8
0
  0
LINE
  5
5C3
  8
0
  6
CONTINUOUS
 62
     7
 10
1474.5124142127579
 20
524.22557085787696
 30
0.0
 11
1474.5124142127579
 21
465.23323591976458
 31
0.0
  0
LINE
  5
5C4
  8
0
  6
CONTINUOUS
 62
     7
 10
1474.5124142127579
 20
445.04263966992619
 30
0.0
 11
1474.5124142127579
 21
422.62611047106572
 31
0.0
  0
LINE
  5
5C5
  8
0
  6
CONTINUOUS
 62
     7
 10
1474.5124142127579
 20
422.62611047106572
 30
0.0
 11
1470.287166636165
 21
422.6261104710639
 31
0.0
  0
LINE
  5
5C6
  8
0
  6
CONTINUOUS
 62
     7
 10
1470.2871666361641
 20
422.62611047106498
 30
0.0
 11
1463.937200361989
 21
428.9760767452396
 31
0.0
  0
LINE
  5
5C7
  8
0
  6
CONTINUOUS
 62
     7
 10
1521.0868968295711
 20
428.9760767452396
 30
0.0
 11
1514.7369305553959
 21
422.62611047106549
 31
0.0
  0
LINE
  5
5C8
  8
0
  6
CONTINUOUS
 62
     7
 10
1474.5124142127579
 20
422.62611047106572
 30
0.0
 11
1510.5116829788019
 21
422.62611047106572
 31
0.0
  0
ARC
  5
5CB
  8
0
  6
CONTINUOUS
 62
     7
 10
1040.556378492571
 20
688.53094820217336
 30
0.0
 40
134.14303754196189
 50
0.0000000000008174
 51
180.0000000000004
  0
ARC
  5
5CC
  8
0
  6
CONTINUOUS
 62
     7
 10
1040.556378492571
 20
688.53094820217336
 30
0.0
 40
76.993341074380439
 50
0.0000000000008174
 51
180.0000000000004
  0
LINE
  5
5CE
  8
0
  6
CONTINUOUS
 62
     7
 10
1032.014316626846
 20
551.02242853489861
 30
0.0
 11
1003.693153267986
 21
551.02242853489861
 31
0.0
  0
POLYLINE
  5
5CF
  8
0
  6
CONTINUOUS
 62
     7
 66
     1
 10
0.0
 20
0.0
 30
0.0
 70
   128
  0
VERTEX
  5
5D0
  8
0
 10
1013.133541054273
 20
547.22003938783598
 30
0.0
  0
VERTEX
  5
5D1
  8
0
 10
1008.473524826864
 20
549.53815705950058
 30
0.0
  0
VERTEX
  5
5D2
  8
0
 10
1003.693153267986
 20
551.02242853489861
 30
0.0
  0
SEQEND
  5
5D3
  8
0
  0
LINE
  5
5D4
  8
0
  6
CONTINUOUS
 62
     7
 10
1111.993499077048
 20
406.62419546014303
 30
0.0
 11
969.1192579080938
 21
406.62419546014303
 31
0.0
  0
LINE
  5
5D5
  8
0
  6
CONTINUOUS
 62
     7
 10
1113.580990645592
 20
408.21168702868698
 30
0.0
 11
967.53176633955013
 21
408.21168702868698
 31
0.0
  0
LINE
  5
5D6
  8
0
  6
CONTINUOUS
 62
     7
 10
1114.6604849122009
 20
511.01764100759169
 30
0.0
 11
966.45227207294033
 21
511.01764100759169
 31
0.0
  0
LINE
  5
5D7
  8
0
  6
CONTINUOUS
 62
     7
 10
1116.2479764807449
 20
509.43014943904763
 30
0.0
 11
964.86478050439621
 21
509.43014943904763
 31
0.0
  0
LINE
  5
5D8
  8
0
  6
CONTINUOUS
 62
     7
 10
1123.359938707822
 20
426.4360902355711
 30
0.0
 11
957.75281827731942
 21
426.4360902355711
 31
0.0
  0
LINE
  5
5D9
  8
0
  6
CONTINUOUS
 62
     7
 10
1123.359938707822
 20
493.2377354398995
 30
0.0
 11
957.75281827731942
 21
493.2377354398995
 31
0.0
  0
LINE
  5
5DA
  8
0
  6
CONTINUOUS
 62
     7
 10
1123.359938707822
 20
429.61107337265912
 30
0.0
 11
957.75281827731942
 21
429.61107337265912
 31
0.0
  0
LINE
  5
5DB
  8
0
  6
CONTINUOUS
 62
     7
 10
1123.359938707822
 20
490.06275230281182
 30
0.0
 11
957.75281827731942
 21
490.06275230281182
 31
0.0
  0
POLYLINE
  5
5DD
  8
0
  6
CONTINUOUS
 62
     7
 66
     1
 10
0.0
 20
0.0
 30
0.0
 70
   128
  0
VERTEX
  5
5DE
  8
0
 10
952.94860603550035
 20
422.62611047106498
 30
0.0
  0
VERTEX
  5
5DF
  8
0
 10
951.31394484320515
 20
423.85312936731037
 30
0.0
  0
VERTEX
  5
5E0
  8
0
 10
949.59575376143925
 20
424.96015781856232
 30
0.0
  0
VERTEX
  5
5E1
  8
0
 10
947.8028238265357
 20
425.94153177066511
 30
0.0
  0
VERTEX
  5
5E2
  8
0
 10
945.94432847232622
 20
426.79223007424918
 30
0.0
  0
VERTEX
  5
5E3
  8
0
 10
944.02977659473902
 20
427.50790017518091
 30
0.0
  0
VERTEX
  5
5E4
  8
0
 10
942.06896390002305
 20
428.08488038418329
 30
0.0
  0
VERTEX
  5
5E5
  8
0
 10
940.0719227855194
 20
428.52021861168208
 30
0.0
  0
VERTEX
  5
5E6
  8
0
 10
938.04887100941619
 20
428.81168747201809
 30
0.0
  0
VERTEX
  5
5E7
  8
0
 10
936.01015941211472
 20
428.95779567975251
 30
0.0
  0
VERTEX
  5
5E8
  8
0
 10
933.96621895668545
 20
428.95779567975251
 30
0.0
  0
VERTEX
  5
5E9
  8
0
 10
931.92750735938375
 20
428.81168747201809
 30
0.0
  0
VERTEX
  5
5EA
  8
0
 10
929.90445558328054
 20
428.52021861168242
 30
0.0
  0
VERTEX
  5
5EB
  8
0
 10
927.90741446877701
 20
428.08488038418358
 30
0.0
  0
VERTEX
  5
5EC
  8
0
 10
925.94660177406104
 20
427.50790017518102
 30
0.0
  0
VERTEX
  5
5ED
  8
0
 10
924.03204989647384
 20
426.7922300742494
 30
0.0
  0
VERTEX
  5
5EE
  8
0
 10
922.17355454226413
 20
425.94153177066562
 30
0.0
  0
VERTEX
  5
5EF
  8
0
 10
920.38062460736069
 20
424.96015781856238
 30
0.0
  0
VERTEX
  5
5F0
  8
0
 10
918.66243352559491
 20
423.85312936731083
 30
0.0
  0
VERTEX
  5
5F1
  8
0
 10
917.02777233329971
 20
422.62611047106549
 30
0.0
  0
SEQEND
  5
5F2
  8
0
  0
LINE
  5
5F3
  8
0
  6
CONTINUOUS
 62
     7
 10
957.24482097538544
 20
498.82570576117422
 30
0.0
 11
957.24482097538544
 21
422.62611047106572
 31
0.0
  0
LINE
  5
5F4
  8
0
  6
CONTINUOUS
 62
     7
 10
912.79505705615566
 20
422.62611047106572
 30
0.0
 11
912.79505705615531
 21
445.04263966992619
 31
0.0
  0
LINE
  5
5F5
  8
0
  6
CONTINUOUS
 62
     7
 10
967.53176633955013
 20
426.4360902355711
 30
0.0
 11
967.53176633955013
 21
408.21168702868698
 31
0.0
  0
LINE
  5
5F6
  8
0
  6
CONTINUOUS
 62
     7
 10
917.02777233329994
 20
422.62611047106572
 30
0.0
 11
952.94860603549944
 21
422.6261104710639
 31
0.0
  0
LINE
  5
5F7
  8
0
  6
CONTINUOUS
 62
     7
 10
917.02777233329994
 20
422.62611047106572
 30
0.0
 11
912.79505705615566
 21
422.62611047106572
 31
0.0
  0
LINE
  5
5F8
  8
0
  6
CONTINUOUS
 62
     7
 10
1008.5563584504901
 20
406.62419546014303
 30
0.0
 11
1008.5563584504901
 21
317.12070269654038
 31
0.0
  0
LINE
  5
5F9
  8
0
  6
CONTINUOUS
 62
     7
 10
967.53176633955013
 20
408.21168702868698
 30
0.0
 11
969.1192579080938
 21
406.62419546014303
 31
0.0
  0
LINE
  5
5FA
  8
0
  6
CONTINUOUS
 62
     7
 10
957.24482097538544
 20
422.62611047106572
 30
0.0
 11
952.94860603549944
 21
422.6261104710639
 31
0.0
  0
LINE
  5
5FB
  8
0
  6
CONTINUOUS
 62
     7
 10
906.41334095060893
 20
688.53094820217336
 30
0.0
 11
906.41334095060893
 21
541.03347071806877
 31
0.0
  0
LINE
  5
5FC
  8
0
  6
CONTINUOUS
 62
     7
 10
963.56303741819045
 20
515.59006771085456
 30
0.0
 11
963.56303741819045
 21
688.53094820217336
 31
0.0
  0
LINE
  5
5FD
  8
0
  6
CONTINUOUS
 62
     7
 10
912.79505705615531
 20
465.23323591976458
 30
0.0
 11
912.79505705615566
 21
524.22557085787696
 31
0.0
  0
LINE
  5
600
  8
0
  6
CONTINUOUS
 62
     7
 10
912.79505705615531
 20
455.1379377948453
 30
0.0
 11
912.79505705615531
 21
465.23323591976458
 31
0.0
  0
LINE
  5
601
  8
0
  6
CONTINUOUS
 62
     7
 10
893.49115958266145
 20
434.50054740377431
 30
0.0
 11
912.79505705615531
 21
434.50054740377431
 31
0.0
  0
LINE
  5
602
  8
0
  6
CONTINUOUS
 62
     7
 10
891.96716767685916
 20
436.02453930957648
 30
0.0
 11
891.96716767685916
 21
474.25133628011412
 31
0.0
  0
LINE
  5
603
  8
0
  6
CONTINUOUS
 62
     7
 10
893.49115958266145
 20
434.50054740377431
 30
0.0
 11
893.49115958266145
 21
475.77532818591641
 31
0.0
  0
LINE
  5
604
  8
0
  6
CONTINUOUS
 62
     7
 10
891.96716767685916
 20
436.02453930957648
 30
0.0
 11
893.49115958266145
 21
434.50054740377431
 31
0.0
  0
LINE
  5
605
  8
0
  6
CONTINUOUS
 62
     7
 10
912.79505705615531
 20
445.04263966992619
 30
0.0
 11
912.79505705615531
 21
455.1379377948453
 31
0.0
  0
LINE
  5
606
  8
0
  6
CONTINUOUS
 62
     7
 10
912.79505705615531
 20
475.77532818591652
 30
0.0
 11
893.49115958266145
 21
475.77532818591652
 31
0.0
  0
LINE
  5
607
  8
0
  6
CONTINUOUS
 62
     7
 10
893.49115958266145
 20
475.77532818591652
 30
0.0
 11
891.96716767685916
 21
474.25133628011417
 31
0.0
  0
POLYLINE
  5
608
  8
0
  6
CONTINUOUS
 62
     7
 66
     1
 10
0.0
 20
0.0
 30
0.0
 70
   128
  0
VERTEX
  5
609
  8
0
 10
912.79505705615566
 20
524.22557085787696
 30
0.0
  0
VERTEX
  5
60A
  8
0
 10
912.40580047009746
 20
528.65531225641985
 30
0.0
  0
VERTEX
  5
60B
  8
0
 10
911.82677183667136
 20
531.16605877695861
 30
0.0
  0
VERTEX
  5
60C
  8
0
 10
911.04959582698064
 20
533.47880405512126
 30
0.0
  0
VERTEX
  5
60D
  8
0
 10
910.15525433379105
 20
535.49888505060426
 30
0.0
  0
VERTEX
  5
60E
  8
0
 10
909.21897103179765
 20
537.2207935928742
 30
0.0
  0
VERTEX
  5
60F
  8
0
 10
908.32011195254495
 20
538.62367905493761
 30
0.0
  0
VERTEX
  5
610
  8
0
 10
907.53898390574363
 20
539.69750651425989
 30
0.0
  0
VERTEX
  5
611
  8
0
 10
906.90783918702857
 20
540.48746696802095
 30
0.0
  0
VERTEX
  5
612
  8
0
 10
906.52336315258378
 20
540.93683094612197
 30
0.0
  0
VERTEX
  5
613
  8
0
 10
906.43973502461586
 20
541.03347071806877
 30
0.0
  0
SEQEND
  5
614
  8
0
  0
LINE
  5
615
  8
0
  6
CONTINUOUS
 62
     7
 10
957.75281827731942
 20
490.06275230281182
 30
0.0
 11
957.75281827731942
 21
493.2377354398995
 31
0.0
  0
LINE
  5
616
  8
0
  6
CONTINUOUS
 62
     7
 10
957.75281827731942
 20
429.61107337265912
 30
0.0
 11
957.75281827731942
 21
490.06275230281182
 31
0.0
  0
LINE
  5
617
  8
0
  6
CONTINUOUS
 62
     7
 10
957.75281827731942
 20
426.4360902355711
 30
0.0
 11
957.75281827731942
 21
429.61107337265912
 31
0.0
  0
LINE
  5
618
  8
0
  6
CONTINUOUS
 62
     7
 10
957.24482097538544
 20
440.08851772504909
 30
0.0
 11
957.75281827731942
 21
440.08851772504909
 31
0.0
  0
LINE
  5
619
  8
0
  6
CONTINUOUS
 62
     7
 10
957.75281827731942
 20
470.1873578646418
 30
0.0
 11
957.24482097538544
 21
470.1873578646418
 31
0.0
  0
POLYLINE
  5
61A
  8
0
  6
CONTINUOUS
 62
     7
 66
     1
 10
0.0
 20
0.0
 30
0.0
 70
   128
  0
VERTEX
  5
61B
  8
0
 10
963.56303741819045
 20
515.59006771085456
 30
0.0
  0
VERTEX
  5
61C
  8
0
 10
963.40343554094375
 20
515.40831221704946
 30
0.0
  0
VERTEX
  5
61D
  8
0
 10
962.94257960472567
 20
514.85630611423062
 30
0.0
  0
VERTEX
  5
61E
  8
0
 10
962.20726136050655
 20
513.90854888064905
 30
0.0
  0
VERTEX
  5
61F
  8
0
 10
961.27058781325695
 20
512.54798948337304
 30
0.0
  0
VERTEX
  5
620
  8
0
 10
960.25362464895898
 20
510.81497208572267
 30
0.0
  0
VERTEX
  5
621
  8
0
 10
959.24395190452208
 20
508.7028909548219
 30
0.0
  0
VERTEX
  5
622
  8
0
 10
958.42029334050449
 20
506.45801585381292
 30
0.0
  0
VERTEX
  5
623
  8
0
 10
957.77591616011455
 20
503.99266134410863
 30
0.0
  0
VERTEX
  5
624
  8
0
 10
957.38173110826051
 20
501.44486471502751
 30
0.0
  0
VERTEX
  5
625
  8
0
 10
957.24482097538544
 20
498.82570576117422
 30
0.0
  0
SEQEND
  5
626
  8
0
  0
LINE
  5
627
  8
0
  6
CONTINUOUS
 62
     7
 10
966.45227207294033
 20
511.01764100759169
 30
0.0
 11
964.86478050439621
 21
509.43014943904763
 31
0.0
  0
LINE
  5
628
  8
0
  6
CONTINUOUS
 62
     7
 10
964.86478050439621
 20
509.43014943904763
 30
0.0
 11
964.86478050439621
 21
493.2377354398995
 31
0.0
  0
LINE
  5
629
  8
0
  6
CONTINUOUS
 62
     7
 10
985.71070361597435
 20
547.22003938783598
 30
0.0
 11
985.71070361597435
 21
511.01764100759169
 31
0.0
  0
POLYLINE
  5
62A
  8
0
  6
CONTINUOUS
 62
     7
 66
     1
 10
0.0
 20
0.0
 30
0.0
 70
   128
  0
VERTEX
  5
62B
  8
0
 10
995.15109140226139
 20
551.02242853489861
 30
0.0
  0
VERTEX
  5
62C
  8
0
 10
990.40879579787429
 20
549.55378645707162
 30
0.0
  0
VERTEX
  5
62D
  8
0
 10
985.71070361597435
 20
547.22003938783598
 30
0.0
  0
SEQEND
  5
62E
  8
0
  0
LINE
  5
62F
  8
0
  6
CONTINUOUS
 62
     7
 10
992.29663480883562
 20
551.02242853489861
 30
0.0
 11
985.71070361597435
 21
547.22003938783598
 31
0.0
  0
LINE
  5
630
  8
0
  6
CONTINUOUS
 62
     7
 10
995.15109140226139
 20
551.02242853489861
 30
0.0
 11
992.29663480883562
 21
551.02242853489861
 31
0.0
  0
LINE
  5
631
  8
0
  6
CONTINUOUS
 62
     7
 10
1003.693153267986
 20
551.02242853489861
 30
0.0
 11
995.15109140226139
 21
551.02242853489861
 31
0.0
  0
LINE
  5
632
  8
0
  6
CONTINUOUS
 62
     7
 10
1168.317699928986
 20
422.6261104710639
 30
0.0
 11
1168.317699928986
 21
445.04263966992619
 31
0.0
  0
LINE
  5
633
  8
0
  6
CONTINUOUS
 62
     7
 10
1123.867936009756
 20
498.82570576117422
 30
0.0
 11
1123.867936009756
 21
422.62611047106452
 31
0.0
  0
POLYLINE
  5
634
  8
0
  6
CONTINUOUS
 62
     7
 66
     1
 10
0.0
 20
0.0
 30
0.0
 70
   128
  0
VERTEX
  5
635
  8
0
 10
1128.164150949641
 20
422.62611047106452
 30
0.0
  0
VERTEX
  5
636
  8
0
 10
1129.798812141936
 20
423.85312936731009
 30
0.0
  0
VERTEX
  5
637
  8
0
 10
1131.517003223702
 20
424.96015781856192
 30
0.0
  0
VERTEX
  5
638
  8
0
 10
1133.3099331586061
 20
425.94153177066511
 30
0.0
  0
VERTEX
  5
639
  8
0
 10
1135.168428512816
 20
426.79223007424918
 30
0.0
  0
VERTEX
  5
63A
  8
0
 10
1137.082980390403
 20
427.50790017518091
 30
0.0
  0
VERTEX
  5
63B
  8
0
 10
1139.0437930851181
 20
428.08488038418329
 30
0.0
  0
VERTEX
  5
63C
  8
0
 10
1141.0408341996219
 20
428.52021861168242
 30
0.0
  0
VERTEX
  5
63D
  8
0
 10
1143.063885975726
 20
428.81168747201809
 30
0.0
  0
VERTEX
  5
63E
  8
0
 10
1145.1025975730281
 20
428.95779567975251
 30
0.0
  0
VERTEX
  5
63F
  8
0
 10
1147.1465380284569
 20
428.95779567975251
 30
0.0
  0
VERTEX
  5
640
  8
0
 10
1149.1852496257591
 20
428.81168747201809
 30
0.0
  0
VERTEX
  5
641
  8
0
 10
1151.2083014018631
 20
428.52021861168208
 30
0.0
  0
VERTEX
  5
642
  8
0
 10
1153.205342516367
 20
428.08488038418312
 30
0.0
  0
VERTEX
  5
643
  8
0
 10
1155.1661552110829
 20
427.5079001751804
 30
0.0
  0
VERTEX
  5
644
  8
0
 10
1157.080707088669
 20
426.79223007424878
 30
0.0
  0
VERTEX
  5
645
  8
0
 10
1158.9392024428789
 20
425.94153177066448
 30
0.0
  0
VERTEX
  5
646
  8
0
 10
1160.732132377783
 20
424.9601578185613
 30
0.0
  0
VERTEX
  5
647
  8
0
 10
1162.4503234595479
 20
423.85312936730929
 30
0.0
  0
VERTEX
  5
648
  8
0
 10
1164.084984651844
 20
422.6261104710639
 30
0.0
  0
SEQEND
  5
649
  8
0
  0
LINE
  5
64A
  8
0
  6
CONTINUOUS
 62
     7
 10
1113.580990645592
 20
408.21168702868698
 30
0.0
 11
1113.580990645592
 21
426.4360902355711
 31
0.0
  0
LINE
  5
64B
  8
0
  6
CONTINUOUS
 62
     7
 10
1072.5563985346521
 20
317.12070269654032
 30
0.0
 11
1072.5563985346521
 21
406.62419546014303
 31
0.0
  0
LINE
  5
64C
  8
0
  6
CONTINUOUS
 62
     7
 10
1066.556398534651
 20
311.12070269654038
 30
0.0
 11
1014.5563584504901
 21
311.12070269654038
 31
0.0
  0
LINE
  5
64E
  8
0
  6
CONTINUOUS
 62
     7
 10
1128.164150949641
 20
422.62611047106452
 30
0.0
 11
1164.084984651844
 21
422.6261104710639
 31
0.0
  0
LINE
  5
64F
  8
0
  6
CONTINUOUS
 62
     7
 10
1111.993499077048
 20
406.62419546014303
 30
0.0
 11
1113.580990645592
 21
408.21168702868698
 31
0.0
  0
LINE
  5
650
  8
0
  6
CONTINUOUS
 62
     7
 10
1123.867936009756
 20
422.62611047106452
 30
0.0
 11
1128.164150949641
 21
422.62611047106452
 31
0.0
  0
LINE
  5
651
  8
0
  6
CONTINUOUS
 62
     7
 10
1164.084984651844
 20
422.6261104710639
 30
0.0
 11
1168.317699928986
 21
422.6261104710639
 31
0.0
  0
LINE
  5
652
  8
0
  6
CONTINUOUS
 62
     7
 10
1187.6215974024799
 20
475.77532818591652
 30
0.0
 11
1168.317699928986
 21
475.77532818591652
 31
0.0
  0
LINE
  5
653
  8
0
  6
CONTINUOUS
 62
     7
 10
1168.317699928986
 20
434.50054740377431
 30
0.0
 11
1187.6215974024799
 21
434.50054740377431
 31
0.0
  0
LINE
  5
654
  8
0
  6
CONTINUOUS
 62
     7
 10
1117.5497195669509
 20
688.53094820217245
 30
0.0
 11
1117.5497195669509
 21
515.54216816670225
 31
0.0
  0
LINE
  5
655
  8
0
  6
CONTINUOUS
 62
     7
 10
1174.699416034533
 20
541.06193495113916
 30
0.0
 11
1174.699416034533
 21
688.53094820217154
 31
0.0
  0
LINE
  5
656
  8
0
  6
CONTINUOUS
 62
     7
 10
1077.419603717156
 20
551.02242853489861
 30
0.0
 11
1049.098440358295
 21
551.02242853489861
 31
0.0
  0
POLYLINE
  5
657
  8
0
  6
CONTINUOUS
 62
     7
 66
     1
 10
0.0
 20
0.0
 30
0.0
 70
   128
  0
VERTEX
  5
658
  8
0
 10
1067.979215930869
 20
547.22003938783598
 30
0.0
  0
VERTEX
  5
659
  8
0
 10
1058.6591834760511
 20
549.53815705950058
 30
0.0
  0
VERTEX
  5
65A
  8
0
 10
1049.098440358295
 20
551.02242853489861
 30
0.0
  0
SEQEND
  5
65B
  8
0
  0
LINE
  5
65C
  8
0
  6
CONTINUOUS
 62
     7
 10
1013.133541054273
 20
547.22003938783598
 30
0.0
 11
1013.133541054273
 21
511.01764100759169
 31
0.0
  0
LINE
  5
65D
  8
0
  6
CONTINUOUS
 62
     7
 10
1049.098440358295
 20
551.02242853489861
 30
0.0
 11
1032.014316626846
 21
551.02242853489861
 31
0.0
  0
POLYLINE
  5
65E
  8
0
  6
CONTINUOUS
 62
     7
 66
     1
 10
0.0
 20
0.0
 30
0.0
 70
   128
  0
VERTEX
  5
65F
  8
0
 10
1032.014316626846
 20
551.02242853489861
 30
0.0
  0
VERTEX
  5
660
  8
0
 10
1025.922709180378
 20
550.19037157456023
 30
0.0
  0
VERTEX
  5
661
  8
0
 10
1019.870323492135
 20
548.97451018344725
 30
0.0
  0
VERTEX
  5
662
  8
0
 10
1013.133541054273
 20
547.22003938783598
 30
0.0
  0
SEQEND
  5
663
  8
0
  0
LINE
  5
664
  8
0
  6
CONTINUOUS
 62
     7
 10
1067.979215930869
 20
547.22003938783598
 30
0.0
 11
1067.979215930869
 21
511.01764100759169
 31
0.0
  0
LINE
  5
665
  8
0
  6
CONTINUOUS
 62
     7
 10
1095.4020533691671
 20
547.22003938783598
 30
0.0
 11
1095.4020533691671
 21
511.01764100759169
 31
0.0
  0
LINE
  5
666
  8
0
  6
CONTINUOUS
 62
     7
 10
1085.96166558288
 20
551.02242853489861
 30
0.0
 11
1077.419603717156
 21
551.02242853489861
 31
0.0
  0
POLYLINE
  5
667
  8
0
  6
CONTINUOUS
 62
     7
 66
     1
 10
0.0
 20
0.0
 30
0.0
 70
   128
  0
VERTEX
  5
668
  8
0
 10
1077.419603717156
 20
551.02242853489861
 30
0.0
  0
VERTEX
  5
669
  8
0
 10
1072.677308112769
 20
549.55378645707162
 30
0.0
  0
VERTEX
  5
66A
  8
0
 10
1067.979215930869
 20
547.22003938783598
 30
0.0
  0
SEQEND
  5
66B
  8
0
  0
LINE
  5
66C
  8
0
  6
CONTINUOUS
 62
     7
 10
1088.816122176306
 20
551.02242853489861
 30
0.0
 11
1085.96166558288
 21
551.02242853489861
 31
0.0
  0
POLYLINE
  5
66D
  8
0
  6
CONTINUOUS
 62
     7
 66
     1
 10
0.0
 20
0.0
 30
0.0
 70
   128
  0
VERTEX
  5
66E
  8
0
 10
1095.4020533691671
 20
547.22003938783598
 30
0.0
  0
VERTEX
  5
66F
  8
0
 10
1090.7420371417579
 20
549.53815705950058
 30
0.0
  0
VERTEX
  5
670
  8
0
 10
1085.96166558288
 20
551.02242853489861
 30
0.0
  0
SEQEND
  5
671
  8
0
  0
LINE
  5
672
  8
0
  6
CONTINUOUS
 62
     7
 10
1095.4020533691671
 20
547.22003938783598
 30
0.0
 11
1088.816122176306
 21
551.02242853489861
 31
0.0
  0
LINE
  5
673
  8
0
  6
CONTINUOUS
 62
     7
 10
1168.317699928986
 20
465.23323591976458
 30
0.0
 11
1168.317699928986
 21
524.22557085787696
 31
0.0
  0
LINE
  5
674
  8
0
  6
CONTINUOUS
 62
     7
 10
1123.359938707822
 20
493.2377354398995
 30
0.0
 11
1123.359938707822
 21
490.06275230281182
 31
0.0
  0
LINE
  5
675
  8
0
  6
CONTINUOUS
 62
     7
 10
1123.359938707822
 20
490.06275230281182
 30
0.0
 11
1123.359938707822
 21
429.61107337265912
 31
0.0
  0
LINE
  5
676
  8
0
  6
CONTINUOUS
 62
     7
 10
1123.359938707822
 20
429.61107337265912
 30
0.0
 11
1123.359938707822
 21
426.4360902355711
 31
0.0
  0
LINE
  5
677
  8
0
  6
CONTINUOUS
 62
     7
 10
1123.359938707822
 20
440.08851772504909
 30
0.0
 11
1123.867936009756
 21
440.08851772504909
 31
0.0
  0
LINE
  5
678
  8
0
  6
CONTINUOUS
 62
     7
 10
1123.867936009756
 20
470.1873578646418
 30
0.0
 11
1123.359938707822
 21
470.1873578646418
 31
0.0
  0
LINE
  5
679
  8
0
  6
CONTINUOUS
 62
     7
 10
1168.317699928986
 20
455.1379377948453
 30
0.0
 11
1168.317699928986
 21
465.23323591976458
 31
0.0
  0
LINE
  5
67A
  8
0
  6
CONTINUOUS
 62
     7
 10
1168.317699928986
 20
445.04263966992619
 30
0.0
 11
1168.317699928986
 21
455.1379377948453
 31
0.0
  0
POLYLINE
  5
67B
  8
0
  6
CONTINUOUS
 62
     7
 66
     1
 10
0.0
 20
0.0
 30
0.0
 70
   128
  0
VERTEX
  5
67C
  8
0
 10
1117.592481078841
 20
515.54216816670225
 30
0.0
  0
VERTEX
  5
67D
  8
0
 10
1117.598494466889
 20
515.53629719646915
 30
0.0
  0
VERTEX
  5
67E
  8
0
 10
1117.9375209729681
 20
515.13808330999291
 30
0.0
  0
VERTEX
  5
67F
  8
0
 10
1118.60140259942
 20
514.31268349768311
 30
0.0
  0
VERTEX
  5
680
  8
0
 10
1119.5168298668129
 20
513.04199548237875
 30
0.0
  0
VERTEX
  5
681
  8
0
 10
1120.528762211768
 20
511.41297265695562
 30
0.0
  0
VERTEX
  5
682
  8
0
 10
1121.57025185
 20
509.3823332002421
 30
0.0
  0
VERTEX
  5
683
  8
0
 10
1122.4456972775649
 20
507.20110364685371
 30
0.0
  0
VERTEX
  5
684
  8
0
 10
1123.161648519696
 20
504.77384596760947
 30
0.0
  0
VERTEX
  5
685
  8
0
 10
1123.633796605495
 20
502.25526504466319
 30
0.0
  0
VERTEX
  5
686
  8
0
 10
1123.8548012852041
 20
499.64244803534689
 30
0.0
  0
VERTEX
  5
687
  8
0
 10
1123.867936009756
 20
498.82570576117422
 30
0.0
  0
SEQEND
  5
688
  8
0
  0
LINE
  5
689
  8
0
  6
CONTINUOUS
 62
     7
 10
1116.2479764807449
 20
509.43014943904763
 30
0.0
 11
1114.6604849122009
 21
511.01764100759169
 31
0.0
  0
LINE
  5
68A
  8
0
  6
CONTINUOUS
 62
     7
 10
1116.2479764807449
 20
493.2377354398995
 30
0.0
 11
1116.2479764807449
 21
509.43014943904763
 31
0.0
  0
POLYLINE
  5
68B
  8
0
  6
CONTINUOUS
 62
     7
 66
     1
 10
0.0
 20
0.0
 30
0.0
 70
   128
  0
VERTEX
  5
68C
  8
0
 10
1168.317699928986
 20
524.22557085787696
 30
0.0
  0
VERTEX
  5
68D
  8
0
 10
1168.7021279689379
 20
528.62796291111829
 30
0.0
  0
VERTEX
  5
68E
  8
0
 10
1169.278752409838
 20
531.14054210927929
 30
0.0
  0
VERTEX
  5
68F
  8
0
 10
1170.054186390666
 20
533.45582862818151
 30
0.0
  0
VERTEX
  5
690
  8
0
 10
1170.9476890749261
 20
535.47903842838616
 30
0.0
  0
VERTEX
  5
691
  8
0
 10
1171.8840320044151
 20
537.20439910774894
 30
0.0
  0
VERTEX
  5
692
  8
0
 10
1172.7836130212729
 20
538.61053602066625
 30
0.0
  0
VERTEX
  5
693
  8
0
 10
1173.56622544927
 20
539.6876748611021
 30
0.0
  0
VERTEX
  5
694
  8
0
 10
1174.199474213694
 20
540.4809284014475
 30
0.0
  0
VERTEX
  5
695
  8
0
 10
1174.5866461893579
 20
540.93368539568326
 30
0.0
  0
VERTEX
  5
696
  8
0
 10
1174.699416034533
 20
541.06193495113916
 30
0.0
  0
SEQEND
  5
697
  8
0
  0
LINE
  5
69A
  8
0
  6
CONTINUOUS
 62
     7
 10
1187.6215974024799
 20
434.50054740377431
 30
0.0
 11
1187.621597402481
 21
475.77532818591652
 31
0.0
  0
LINE
  5
69B
  8
0
  6
CONTINUOUS
 62
     7
 10
1189.1455893082821
 20
436.02453930957648
 30
0.0
 11
1189.1455893082821
 21
474.2513362801144
 31
0.0
  0
LINE
  5
69C
  8
0
  6
CONTINUOUS
 62
     7
 10
1187.6215974024799
 20
434.50054740377431
 30
0.0
 11
1189.1455893082821
 21
436.02453930957648
 31
0.0
  0
LINE
  5
69D
  8
0
  6
CONTINUOUS
 62
     7
 10
1189.1455893082821
 20
474.25133628011417
 30
0.0
 11
1187.6215974024799
 21
475.77532818591652
 31
0.0
  0
LINE
  5
6A0
  8
0
 10
1072.5563985346521
 20
317.12070269654038
 30
0.0
 11
1066.556398534651
 21
311.12070269654038
 31
0.0
  0
LINE
  5
6A2
  8
0
  6
CONTINUOUS
 62
     7
 10
1014.5563584504901
 20
311.12070269654038
 30
0.0
 11
1008.5563584504901
 21
317.12070269654038
 31
0.0
  0
LINE
  5
6A3
  8
0
 10
1008.5563584504901
 20
317.12070269654038
 30
0.0
 11
1072.5563985346521
 21
317.12070269654038
 31
0.0
  0
LINE
  5
6A5
  8
3
 10
1012.267616587809
 20
406.62419546014303
 30
0.0
 11
1012.267616587809
 21
314.26660745844498
 31
0.0
  0
LINE
  5
6A6
  8
3
 10
1068.8451403973329
 20
406.62419546014303
 30
0.0
 11
1068.8451403973329
 21
314.26660745844498
 31
0.0
  0
LINE
  5
6AF
  8
1
 10
1040.556378492571
 20
847.67398574413528
 30
0.0
 11
1040.556378492571
 21
286.12070269654038
 31
0.0
  0
LINE
  5
6B1
  8
1
 10
868.49115958266145
 20
455.1379377948453
 30
0.0
 11
1214.1455893082821
 21
455.1379377948453
 31
0.0
  0
LINE
  5
6B7
  8
1
 10
1492.51204859578
 20
847.67398574413528
 30
0.0
 11
1492.51204859578
 21
286.12070269654038
 31
0.0
  0
LINE
  5
6B8
  8
3
 10
1520.800810500542
 20
406.62419546014303
 30
0.0
 11
1520.800810500542
 21
314.26660745844498
 31
0.0
  0
LINE
  5
6B9
  8
0
  6
CONTINUOUS
 62
     7
 10
1524.5120686378609
 20
317.12070269654032
 30
0.0
 11
1524.5120686378609
 21
406.62419546014303
 31
0.0
  0
LINE
  5
6BA
  8
3
 10
1464.2232866910181
 20
406.62419546014303
 30
0.0
 11
1464.2232866910181
 21
314.26660745844498
 31
0.0
  0
LINE
  5
6BB
  8
0
  6
CONTINUOUS
 62
     7
 10
1460.512028553698
 20
406.62419546014303
 30
0.0
 11
1460.512028553698
 21
317.12070269654038
 31
0.0
  0
LINE
  5
6BC
  8
0
 10
1460.512028553698
 20
317.12070269654038
 30
0.0
 11
1524.5120686378609
 21
317.12070269654038
 31
0.0
  0
LINE
  5
6BD
  8
0
  6
CONTINUOUS
 62
     7
 10
1518.5120686378609
 20
311.12070269654038
 30
0.0
 11
1466.512028553698
 21
311.12070269654038
 31
0.0
  0
LINE
  5
6BE
  8
0
  6
CONTINUOUS
 62
     7
 10
1466.512028553698
 20
311.12070269654038
 30
0.0
 11
1460.512028553698
 21
317.12070269654038
 31
0.0
  0
LINE
  5
6BF
  8
0
 10
1524.5120686378609
 20
317.12070269654038
 30
0.0
 11
1518.5120686378609
 21
311.12070269654038
 31
0.0
  0
LINE
  5
6C2
  8
1
 10
1536.6254470810491
 20
455.1379377948453
 30
0.0
 11
1448.398650110511
 21
455.1379377948453
 31
0.0
  0
LINE
  5
6C6
  8
1
 10
1199.699416034533
 20
688.53094820217336
 30
0.0
 11
881.41334095060893
 21
688.53094820217336
 31
0.0
  0
ARC
  5
6C7
  8
0
  6
CONTINUOUS
 62
     7
 10
1040.556378492571
 20
1032.4222750739609
 30
0.0
 40
92.868256759819843
 50
206.92197592990641
 51
333.07802407009518
  0
ARC
  5
6C8
  8
0
  6
CONTINUOUS
 62
     7
 10
1040.556378492571
 20
1032.4222750739609
 30
0.0
 40
92.868256759819758
 50
26.921975929905461
 51
153.0780240700945
  0
ARC
  5
6C9
  8
0
  6
CONTINUOUS
 62
     7
 10
1040.556378492571
 20
1032.4222750739609
 30
0.0
 40
89.693273622731937
 50
202.60363407683451
 51
337.39636592316702
  0
ARC
  5
6CA
  8
0
  6
CONTINUOUS
 62
     7
 10
1040.556378492571
 20
1032.4222750739609
 30
0.0
 40
89.693273622731937
 50
22.603634076833782
 51
157.3963659231662
  0
ARC
  5
6CB
  8
0
  6
CONTINUOUS
 62
     7
 10
1040.556378492571
 20
1032.4222750739609
 30
0.0
 40
74.104106419630497
 50
90.0
 51
157.3187505384924
  0
ARC
  5
6CC
  8
0
  6
CONTINUOUS
 62
     7
 10
1040.556378492571
 20
1032.4222750739609
 30
0.0
 40
74.104106419630597
 50
202.68124946150849
 51
337.3187505384933
  0
ARC
  5
6CD
  8
0
  6
CONTINUOUS
 62
     7
 10
1040.556378492571
 20
1032.4222750739609
 30
0.0
 40
75.691597988174436
 50
90.0
 51
157.82004921972899
  0
ARC
  5
6CE
  8
0
  6
CONTINUOUS
 62
     7
 10
1040.556378492571
 20
1032.4222750739609
 30
0.0
 40
75.691597988174436
 50
202.17995078027181
 51
337.82004921972981
  0
LINE
  5
6CF
  8
0
  6
CONTINUOUS
 62
     7
 10
1013.133541054273
 20
984.92452734312644
 30
0.0
 11
1003.693153267986
 21
1001.275758632127
 31
0.0
  0
LINE
  5
6D0
  8
0
  6
CONTINUOUS
 62
     7
 10
1003.693153267986
 20
1063.568791515793
 30
0.0
 11
1013.133541054273
 21
1079.9200228047951
 31
0.0
  0
ARC
  5
6D1
  8
0
  6
CONTINUOUS
 62
     7
 10
1040.556378492571
 20
1032.42227507396
 30
0.0
 40
48.259743683735351
 50
220.19517203746409
 51
259.80482796253722
  0
ARC
  5
6D2
  8
0
  6
CONTINUOUS
 62
     7
 10
1040.556378492571
 20
1032.42227507396
 30
0.0
 40
48.259743683735493
 50
100.19517203746349
 51
139.80482796253639
  0
LINE
  5
6D3
  8
0
  6
CONTINUOUS
 62
     7
 10
1146.124567800741
 20
1060.9971233077511
 30
0.0
 11
934.98818918439952
 21
1060.9971233077511
 31
0.0
  0
LINE
  5
6D4
  8
0
  6
CONTINUOUS
 62
     7
 10
934.98818918439952
 20
1003.847426840169
 30
0.0
 11
1146.124567800741
 21
1003.847426840169
 31
0.0
  0
LINE
  5
6D5
  8
0
  6
CONTINUOUS
 62
     7
 10
957.75281827731942
 20
990.37368973167975
 30
0.0
 11
957.75281827731942
 21
997.9483175285684
 31
0.0
  0
ARC
  5
6D6
  8
0
  6
CONTINUOUS
 62
     7
 10
934.98818918439952
 20
1032.42227507396
 30
0.0
 40
28.574848233790679
 50
90.0
 51
270.00000000000068
  0
LINE
  5
6D7
  8
0
  6
CONTINUOUS
 62
     7
 10
891.96716767685916
 20
1013.308876588692
 30
0.0
 11
891.96716767685916
 21
1051.53567355923
 31
0.0
  0
LINE
  5
6D8
  8
0
  6
CONTINUOUS
 62
     7
 10
893.49115958266145
 20
1011.78488468289
 30
0.0
 11
893.49115958266145
 21
1053.059665465031
 31
0.0
  0
LINE
  5
6D9
  8
0
  6
CONTINUOUS
 62
     7
 10
893.49115958266145
 20
1011.78488468289
 30
0.0
 11
912.79505705615531
 21
1011.78488468289
 31
0.0
  0
LINE
  5
6DA
  8
0
  6
CONTINUOUS
 62
     7
 10
891.96716767685916
 20
1013.308876588692
 30
0.0
 11
893.49115958266145
 21
1011.78488468289
 31
0.0
  0
LINE
  5
6DB
  8
0
  6
CONTINUOUS
 62
     7
 10
912.79505705615531
 20
1011.78488468289
 30
0.0
 11
912.79505705615531
 21
1014.422640690938
 31
0.0
  0
LINE
  5
6DC
  8
0
  6
CONTINUOUS
 62
     7
 10
912.79505705615531
 20
1053.059665465031
 30
0.0
 11
893.49115958266145
 21
1053.059665465031
 31
0.0
  0
LINE
  5
6DD
  8
0
  6
CONTINUOUS
 62
     7
 10
893.49115958266145
 20
1053.059665465031
 30
0.0
 11
891.96716767685916
 21
1051.53567355923
 31
0.0
  0
LINE
  5
6DE
  8
0
  6
CONTINUOUS
 62
     7
 10
912.79505705615531
 20
1050.4219094569819
 30
0.0
 11
912.79505705615531
 21
1053.059665465031
 31
0.0
  0
LINE
  5
6DF
  8
0
  6
CONTINUOUS
 62
     7
 10
957.75281827731942
 20
1060.9971233077499
 30
0.0
 11
957.75281827731942
 21
1066.896232619353
 31
0.0
  0
LINE
  5
6E0
  8
0
  6
CONTINUOUS
 62
     7
 10
1002.208399935806
 20
1060.9971233077499
 30
0.0
 11
1003.693153267986
 21
1063.568791515793
 31
0.0
  0
LINE
  5
6E1
  8
0
  6
CONTINUOUS
 62
     7
 10
957.75281827731942
 20
997.9483175285684
 30
0.0
 11
957.75281827731942
 21
1003.847426840169
 31
0.0
  0
LINE
  5
6E2
  8
0
  6
CONTINUOUS
 62
     7
 10
1003.693153267986
 20
1001.275758632127
 30
0.0
 11
1002.2083999358071
 21
1003.847426840169
 31
0.0
  0
LINE
  5
6E3
  8
0
  6
CONTINUOUS
 62
     7
 10
957.75281827731942
 20
1066.896232619353
 30
0.0
 11
957.75281827731942
 21
1074.4708604162411
 31
0.0
  0
LINE
  5
6E4
  8
0
  6
CONTINUOUS
 62
     7
 10
1123.359938707822
 20
997.9483175285684
 30
0.0
 11
1123.359938707822
 21
990.3736897316802
 31
0.0
  0
LINE
  5
6E5
  8
0
  6
CONTINUOUS
 62
     7
 10
1077.419603717156
 20
1001.275758632127
 30
0.0
 11
1067.979215930869
 21
984.92452734312644
 31
0.0
  0
ARC
  5
6E6
  8
0
  6
CONTINUOUS
 62
     7
 10
1040.556378492571
 20
1032.42227507396
 30
0.0
 40
48.259743683735309
 50
280.19517203746437
 51
319.80482796253727
  0
LINE
  5
6E7
  8
0
  6
CONTINUOUS
 62
     7
 10
1067.979215930869
 20
984.92452734312644
 30
0.0
 11
1049.098440358295
 21
984.9245273431261
 31
0.0
  0
LINE
  5
6E8
  8
0
  6
CONTINUOUS
 62
     7
 10
1049.098440358295
 20
984.9245273431261
 30
0.0
 11
1032.014316626846
 21
984.9245273431261
 31
0.0
  0
LINE
  5
6E9
  8
0
  6
CONTINUOUS
 62
     7
 10
1032.014316626846
 20
984.9245273431261
 30
0.0
 11
1013.133541054273
 21
984.92452734312644
 31
0.0
  0
LINE
  5
6EA
  8
0
  6
CONTINUOUS
 62
     7
 10
1187.6215974024799
 20
1053.059665465031
 30
0.0
 11
1168.317699928986
 21
1053.059665465031
 31
0.0
  0
LINE
  5
6EB
  8
0
  6
CONTINUOUS
 62
     7
 10
1168.317699928986
 20
1011.78488468289
 30
0.0
 11
1187.6215974024799
 21
1011.78488468289
 31
0.0
  0
ARC
  5
6EC
  8
0
  6
CONTINUOUS
 62
     7
 10
1040.556378492571
 20
1032.4222750739609
 30
0.0
 40
74.104106419630597
 50
22.681249461507569
 51
90.0
  0
ARC
  5
6ED
  8
0
  6
CONTINUOUS
 62
     7
 10
1040.556378492571
 20
1032.4222750739609
 30
0.0
 40
75.691597988174436
 50
22.179950780270978
 51
90.0
  0
LINE
  5
6EE
  8
0
  6
CONTINUOUS
 62
     7
 10
1077.419603717156
 20
1063.568791515793
 30
0.0
 11
1078.9043570493361
 21
1060.9971233077499
 31
0.0
  0
LINE
  5
6EF
  8
0
  6
CONTINUOUS
 62
     7
 10
1078.904357049335
 20
1003.847426840169
 30
0.0
 11
1077.419603717156
 21
1001.275758632127
 31
0.0
  0
LINE
  5
6F0
  8
0
  6
CONTINUOUS
 62
     7
 10
1049.098440358295
 20
1079.9200228047951
 30
0.0
 11
1067.979215930869
 21
1079.9200228047951
 31
0.0
  0
ARC
  5
6F1
  8
0
  6
CONTINUOUS
 62
     7
 10
1040.556378492571
 20
1032.42227507396
 30
0.0
 40
48.259743683735493
 50
40.195172037463742
 51
79.804827962536521
  0
LINE
  5
6F2
  8
0
  6
CONTINUOUS
 62
     7
 10
1032.014316626846
 20
1079.9200228047951
 30
0.0
 11
1049.098440358295
 21
1079.9200228047951
 31
0.0
  0
LINE
  5
6F3
  8
0
  6
CONTINUOUS
 62
     7
 10
1013.133541054273
 20
1079.9200228047951
 30
0.0
 11
1032.014316626846
 21
1079.9200228047951
 31
0.0
  0
LINE
  5
6F4
  8
0
  6
CONTINUOUS
 62
     7
 10
1067.979215930869
 20
1079.9200228047951
 30
0.0
 11
1077.419603717156
 21
1063.568791515793
 31
0.0
  0
LINE
  5
6F5
  8
0
  6
CONTINUOUS
 62
     7
 10
1123.359938707822
 20
1066.896232619353
 30
0.0
 11
1123.359938707822
 21
1060.9971233077499
 31
0.0
  0
LINE
  5
6F6
  8
0
  6
CONTINUOUS
 62
     7
 10
1123.359938707822
 20
1003.847426840169
 30
0.0
 11
1123.359938707822
 21
997.9483175285684
 31
0.0
  0
ARC
  5
6F7
  8
0
  6
CONTINUOUS
 62
     7
 10
1146.124567800741
 20
1032.42227507396
 30
0.0
 40
28.574848233790679
 50
270.00000000000068
 51
90.0
  0
LINE
  5
6F8
  8
0
  6
CONTINUOUS
 62
     7
 10
1168.317699928986
 20
1011.78488468289
 30
0.0
 11
1168.317699928986
 21
1014.422640690938
 31
0.0
  0
LINE
  5
6F9
  8
0
  6
CONTINUOUS
 62
     7
 10
1168.317699928986
 20
1050.4219094569819
 30
0.0
 11
1168.317699928986
 21
1053.059665465031
 31
0.0
  0
LINE
  5
6FA
  8
0
  6
CONTINUOUS
 62
     7
 10
1123.359938707822
 20
1074.4708604162411
 30
0.0
 11
1123.359938707822
 21
1066.896232619353
 31
0.0
  0
LINE
  5
6FB
  8
0
  6
CONTINUOUS
 62
     7
 10
1187.6215974024799
 20
1011.78488468289
 30
0.0
 11
1187.6215974024799
 21
1053.059665465031
 31
0.0
  0
LINE
  5
6FC
  8
0
  6
CONTINUOUS
 62
     7
 10
1189.1455893082821
 20
1013.308876588692
 30
0.0
 11
1189.1455893082821
 21
1051.53567355923
 31
0.0
  0
LINE
  5
6FD
  8
0
  6
CONTINUOUS
 62
     7
 10
1187.6215974024799
 20
1011.78488468289
 30
0.0
 11
1189.1455893082821
 21
1013.308876588692
 31
0.0
  0
LINE
  5
6FE
  8
0
  6
CONTINUOUS
 62
     7
 10
1189.1455893082821
 20
1051.53567355923
 30
0.0
 11
1187.6215974024799
 21
1053.059665465031
 31
0.0
  0
LINE
  5
6FF
  8
1
 10
1040.556378492571
 20
1150.290531833781
 30
0.0
 11
1040.556378492571
 21
914.55401831414099
 31
0.0
  0
LINE
  5
700
  8
1
 10
1214.1455893082821
 20
1032.42227507396
 30
0.0
 11
866.96716767685916
 21
1032.4222750739609
 31
0.0
  0
LINE
  5
703
  8
0
  6
CONTINUOUS
 62
     7
 10
630.94142109703978
 20
483.71278602863617
 30
0.0
 11
371.38654964010613
 21
483.71278602863617
 31
0.0
  0
LINE
  5
704
  8
0
  6
CONTINUOUS
 62
     7
 10
371.38654964010613
 20
426.5630895610546
 30
0.0
 11
630.94142109703978
 21
426.5630895610546
 31
0.0
  0
LINE
  5
705
  8
1
 10
212.24351209814401
 20
455.13793779484541
 30
0.0
 11
722.64781680725355
 21
455.13793779484541
 31
0.0
  0
POLYLINE
  5
706
  8
0
  6
CONTINUOUS
 62
     7
 66
     1
 10
0.0
 20
0.0
 30
0.0
 70
   128
  0
VERTEX
  5
707
  8
0
 10
535.69192698440224
 20
473.13757217786758
 30
0.0
  0
VERTEX
  5
708
  8
0
 10
531.26218558585936
 20
472.64672620353713
 30
0.0
  0
VERTEX
  5
709
  8
0
 10
528.75143906532094
 20
471.87389038492893
 30
0.0
  0
VERTEX
  5
70A
  8
0
 10
526.43869378715817
 20
470.74132523643351
 30
0.0
  0
VERTEX
  5
70B
  8
0
 10
524.41861279167517
 20
469.27348606421492
 30
0.0
  0
VERTEX
  5
70C
  8
0
 10
522.69670424940512
 20
467.48578567971072
 30
0.0
  0
VERTEX
  5
70D
  8
0
 10
521.29381878734193
 20
465.39794572695507
 30
0.0
  0
VERTEX
  5
70E
  8
0
 10
520.21999132801955
 20
463.07916447303433
 30
0.0
  0
VERTEX
  5
70F
  8
0
 10
519.43003087425859
 20
460.42336401924598
 30
0.0
  0
VERTEX
  5
710
  8
0
 10
518.98066689615735
 20
457.64305866271519
 30
0.0
  0
VERTEX
  5
711
  8
0
 10
518.86208866704419
 20
454.56816274793442
 30
0.0
  0
VERTEX
  5
712
  8
0
 10
519.12067320717608
 20
451.5084489828559
 30
0.0
  0
VERTEX
  5
713
  8
0
 10
519.79854898929125
 20
448.44949972465469
 30
0.0
  0
VERTEX
  5
714
  8
0
 10
520.91591025674609
 20
445.59233651639897
 30
0.0
  0
VERTEX
  5
715
  8
0
 10
522.42145538316777
 20
443.14866842074122
 30
0.0
  0
VERTEX
  5
716
  8
0
 10
524.34950297309979
 20
441.05998145967351
 30
0.0
  0
VERTEX
  5
717
  8
0
 10
526.45959686175115
 20
439.52476323361992
 30
0.0
  0
VERTEX
  5
718
  8
0
 10
528.84597726196785
 20
438.36351656441002
 30
0.0
  0
VERTEX
  5
719
  8
0
 10
531.32466787967826
 20
437.6159271310662
 30
0.0
  0
VERTEX
  5
71A
  8
0
 10
533.92375392699751
 20
437.21454525775829
 30
0.0
  0
VERTEX
  5
71B
  8
0
 10
535.69192698440224
 20
437.13830341182347
 30
0.0
  0
SEQEND
  5
71C
  8
0
  0
CIRCLE
  5
71D
  8
0
  6
CONTINUOUS
 62
     7
 10
604.77956004743385
 20
455.13793779484558
 30
0.0
 40
20.637390391071222
  0
CIRCLE
  5
71E
  8
0
  6
CONTINUOUS
 62
     7
 10
604.77956004743385
 20
455.13793779484558
 30
0.0
 40
19.113398485268991
  0
LINE
  5
71F
  8
0
  6
CONTINUOUS
 62
     7
 10
637.29138737121377
 20
437.1383034118233
 30
0.0
 11
637.29138737121377
 21
473.13757217786753
 31
0.0
  0
LINE
  5
720
  8
0
 10
572.77954000535283
 20
317.12070269654038
 30
0.0
 11
636.77958008951509
 21
317.12070269654038
 31
0.0
  0
LINE
  5
721
  8
0
  6
CONTINUOUS
 62
     7
 10
630.77958008951498
 20
311.12070269654038
 30
0.0
 11
578.77954000535283
 21
311.12070269654038
 31
0.0
  0
LINE
  5
722
  8
0
  6
CONTINUOUS
 62
     7
 10
677.8041722004541
 20
408.21168702868698
 30
0.0
 11
531.75494789441291
 21
408.21168702868698
 31
0.0
  0
LINE
  5
723
  8
0
  6
CONTINUOUS
 62
     7
 10
676.21668063191055
 20
406.62419546014303
 30
0.0
 11
533.34243946295726
 21
406.62419546014303
 31
0.0
  0
LINE
  5
724
  8
1
 10
648.89295853270323
 20
455.1379377948453
 30
0.0
 11
560.66616156216514
 21
455.1379377948453
 31
0.0
  0
LINE
  5
725
  8
3
 10
576.4907981426727
 20
406.62419546014303
 30
0.0
 11
576.49079814267225
 21
314.26660745844498
 31
0.0
  0
LINE
  5
726
  8
0
  6
CONTINUOUS
 62
     7
 10
572.77954000535283
 20
406.62419546014303
 30
0.0
 11
572.77954000535283
 21
317.12070269654038
 31
0.0
  0
LINE
  5
727
  8
0
  6
CONTINUOUS
 62
     7
 10
578.77954000535283
 20
311.12070269654038
 30
0.0
 11
572.77954000535283
 21
317.12070269654038
 31
0.0
  0
LINE
  5
728
  8
0
  6
CONTINUOUS
 62
     7
 10
535.69192698440236
 20
437.1383034118233
 30
0.0
 11
594.68426192251491
 21
437.1383034118233
 31
0.0
  0
LINE
  5
729
  8
0
  6
CONTINUOUS
 62
     7
 10
511.91130328761392
 20
490.06275230281182
 30
0.0
 11
511.91130328761392
 21
483.71278602863617
 31
0.0
  0
LINE
  5
72A
  8
0
  6
CONTINUOUS
 62
     7
 10
562.73097470515313
 20
490.06275230281182
 30
0.0
 11
562.73097470515313
 21
483.71278602863617
 31
0.0
  0
LINE
  5
72E
  8
0
  6
CONTINUOUS
 62
     7
 10
531.75494789441291
 20
426.4360902355711
 30
0.0
 11
531.75494789441291
 21
408.21168702868698
 31
0.0
  0
LINE
  5
72F
  8
0
  6
CONTINUOUS
 62
     7
 10
531.75494789441291
 20
408.21168702868698
 30
0.0
 11
533.34243946295726
 21
406.62419546014303
 31
0.0
  0
LINE
  5
731
  8
0
  6
CONTINUOUS
 62
     7
 10
614.87485817235324
 20
437.1383034118233
 30
0.0
 11
637.29138737121377
 21
437.1383034118233
 31
0.0
  0
LINE
  5
732
  8
0
  6
CONTINUOUS
 62
     7
 10
637.29138737121434
 20
432.91305583522927
 30
0.0
 11
630.94142109703978
 21
426.5630895610546
 31
0.0
  0
LINE
  5
734
  8
0
  6
CONTINUOUS
 62
     7
 10
637.29138737121377
 20
437.1383034118233
 30
0.0
 11
637.29138737121571
 21
432.91305583523058
 31
0.0
  0
LINE
  5
735
  8
0
  6
CONTINUOUS
 62
     7
 10
562.73097470515313
 20
490.06275230281182
 30
0.0
 11
511.91130328761392
 21
490.06275230281182
 31
0.0
  0
LINE
  5
737
  8
0
  6
CONTINUOUS
 62
     7
 10
515.08628642470194
 20
493.2377354398995
 30
0.0
 11
511.91130328761392
 21
490.06275230281182
 31
0.0
  0
LINE
  5
738
  8
0
  6
CONTINUOUS
 62
     7
 10
557.28181231659983
 20
547.22003938783598
 30
0.0
 11
557.28181231659983
 21
511.01764100759169
 31
0.0
  0
LINE
  5
739
  8
0
  6
CONTINUOUS
 62
     7
 10
570.30560250204144
 20
493.2377354398995
 30
0.0
 11
562.73097470515313
 21
490.06275230281182
 31
0.0
  0
LINE
  5
73C
  8
0
  6
CONTINUOUS
 62
     7
 10
529.08796205925955
 20
509.43014943904763
 30
0.0
 11
529.08796205925955
 21
493.2377354398995
 31
0.0
  0
LINE
  5
73D
  8
0
  6
CONTINUOUS
 62
     7
 10
530.67545362780311
 20
511.01764100759169
 30
0.0
 11
529.08796205925955
 21
509.43014943904763
 31
0.0
  0
LINE
  5
73E
  8
0
  6
CONTINUOUS
 62
     7
 10
576.20471181364326
 20
493.2377354398995
 30
0.0
 11
570.30560250204144
 21
493.2377354398995
 31
0.0
  0
POLYLINE
  5
73F
  8
0
  6
CONTINUOUS
 62
     7
 66
     1
 10
0.0
 20
0.0
 30
0.0
 70
   128
  0
VERTEX
  5
740
  8
0
 10
573.63304360560085
 20
551.02242853489849
 30
0.0
  0
VERTEX
  5
741
  8
0
 10
565.41914667429216
 20
549.55378645707162
 30
0.0
  0
VERTEX
  5
742
  8
0
 10
557.28181231659983
 20
547.22003938783598
 30
0.0
  0
SEQEND
  5
743
  8
0
  0
LINE
  5
745
  8
0
  6
CONTINUOUS
 62
     7
 10
557.28181231659983
 20
547.22003938783598
 30
0.0
 11
557.28181231659926
 21
551.02242853489849
 31
0.0
  0
LINE
  5
746
  8
0
  6
CONTINUOUS
 62
     7
 10
576.20471181364326
 20
551.02242853489849
 30
0.0
 11
573.63304360560085
 21
551.02242853489849
 31
0.0
  0
LINE
  5
747
  8
3
 10
633.06832195219613
 20
406.62419546014303
 30
0.0
 11
633.06832195219613
 21
314.26660745844498
 31
0.0
  0
LINE
  5
748
  8
0
  6
CONTINUOUS
 62
     7
 10
636.77958008951509
 20
317.12070269654032
 30
0.0
 11
636.77958008951509
 21
406.62419546014303
 31
0.0
  0
LINE
  5
749
  8
0
 10
636.77958008951509
 20
317.12070269654038
 30
0.0
 11
630.77958008951498
 21
311.12070269654038
 31
0.0
  0
LINE
  5
74A
  8
0
  6
CONTINUOUS
 62
     7
 10
697.64781680725355
 20
429.61107337265912
 30
0.0
 11
697.64781680725355
 21
490.06275230281182
 31
0.0
  0
LINE
  5
74B
  8
0
  6
CONTINUOUS
 62
     7
 10
646.82814538971479
 20
429.61107337265912
 30
0.0
 11
646.82814538971479
 21
490.06275230281182
 31
0.0
  0
LINE
  5
74C
  8
0
  6
CONTINUOUS
 62
     7
 10
594.68426192251457
 20
473.13757217786753
 30
0.0
 11
535.69192698440236
 21
473.13757217786753
 31
0.0
  0
LINE
  5
74D
  8
0
  6
CONTINUOUS
 62
     7
 10
677.8041722004541
 20
408.21168702868698
 30
0.0
 11
677.8041722004541
 21
426.4360902355711
 31
0.0
  0
LINE
  5
74E
  8
0
  6
CONTINUOUS
 62
     7
 10
676.21668063191055
 20
406.62419546014303
 30
0.0
 11
677.8041722004541
 21
408.21168702868698
 31
0.0
  0
LINE
  5
74F
  8
0
  6
CONTINUOUS
 62
     7
 10
697.64781680725355
 20
429.61107337265912
 30
0.0
 11
646.82814538971479
 21
429.61107337265912
 31
0.0
  0
LINE
  5
750
  8
0
  6
CONTINUOUS
 62
     7
 10
694.47283367016553
 20
426.4360902355711
 30
0.0
 11
639.25351759282648
 21
426.4360902355711
 31
0.0
  0
LINE
  5
751
  8
0
  6
CONTINUOUS
 62
     7
 10
639.25351759282648
 20
426.4360902355711
 30
0.0
 11
646.82814538971479
 21
429.61107337265912
 31
0.0
  0
LINE
  5
752
  8
0
  6
CONTINUOUS
 62
     7
 10
637.29138737121377
 20
473.13757217786753
 30
0.0
 11
614.87485817235336
 21
473.13757217786753
 31
0.0
  0
LINE
  5
753
  8
0
  6
CONTINUOUS
 62
     7
 10
630.94142109703978
 20
483.71278602863617
 30
0.0
 11
637.29138737121377
 21
477.36281975446212
 31
0.0
  0
LINE
  5
754
  8
0
  6
CONTINUOUS
 62
     7
 10
637.29138737121377
 20
477.36281975446212
 30
0.0
 11
637.29138737121377
 21
473.13757217786753
 31
0.0
  0
LINE
  5
755
  8
0
  6
CONTINUOUS
 62
     7
 10
630.81442177155623
 20
426.4360902355711
 30
0.0
 11
639.25351759282648
 21
426.4360902355711
 31
0.0
  0
LINE
  5
756
  8
0
  6
CONTINUOUS
 62
     7
 10
694.47283367016553
 20
426.4360902355711
 30
0.0
 11
697.64781680725355
 21
429.61107337265912
 31
0.0
  0
LINE
  5
757
  8
0
  6
CONTINUOUS
 62
     7
 10
652.27730777826798
 20
547.22003938783598
 30
0.0
 11
652.27730777826798
 21
511.01764100759169
 31
0.0
  0
LINE
  5
758
  8
0
  6
CONTINUOUS
 62
     7
 10
697.64781680725355
 20
490.06275230281182
 30
0.0
 11
646.82814538971479
 21
490.06275230281182
 31
0.0
  0
LINE
  5
759
  8
0
  6
CONTINUOUS
 62
     7
 10
694.47283367016553
 20
493.2377354398995
 30
0.0
 11
639.25351759282648
 21
493.2377354398995
 31
0.0
  0
LINE
  5
75A
  8
0
  6
CONTINUOUS
 62
     7
 10
680.47115803560837
 20
509.43014943904763
 30
0.0
 11
529.08796205925978
 21
509.43014943904763
 31
0.0
  0
LINE
  5
75B
  8
0
  6
CONTINUOUS
 62
     7
 10
678.88366646706424
 20
511.01764100759169
 30
0.0
 11
530.67545362780311
 21
511.01764100759169
 31
0.0
  0
LINE
  5
75C
  8
0
  6
CONTINUOUS
 62
     7
 10
646.82814538971479
 20
490.06275230281182
 30
0.0
 11
639.25351759282648
 21
493.2377354398995
 31
0.0
  0
LINE
  5
75D
  8
0
  6
CONTINUOUS
 62
     7
 10
639.25351759282648
 20
493.2377354398995
 30
0.0
 11
515.08628642470194
 21
493.2377354398995
 31
0.0
  0
LINE
  5
75E
  8
0
  6
CONTINUOUS
 62
     7
 10
680.47115803560837
 20
493.2377354398995
 30
0.0
 11
680.47115803560837
 21
509.43014943904763
 31
0.0
  0
LINE
  5
75F
  8
0
  6
CONTINUOUS
 62
     7
 10
697.64781680725355
 20
490.06275230281182
 30
0.0
 11
694.47283367016553
 21
493.2377354398995
 31
0.0
  0
LINE
  5
760
  8
0
  6
CONTINUOUS
 62
     7
 10
680.47115803560837
 20
509.43014943904763
 30
0.0
 11
678.88366646706424
 21
511.01764100759169
 31
0.0
  0
POLYLINE
  5
761
  8
0
  6
CONTINUOUS
 62
     7
 66
     1
 10
0.0
 20
0.0
 30
0.0
 70
   128
  0
VERTEX
  5
762
  8
0
 10
652.27730777826798
 20
547.22003938783598
 30
0.0
  0
VERTEX
  5
763
  8
0
 10
644.20592290830064
 20
549.53815705950046
 30
0.0
  0
VERTEX
  5
764
  8
0
 10
635.92607648926696
 20
551.02242853489849
 30
0.0
  0
SEQEND
  5
765
  8
0
  0
LINE
  5
766
  8
0
  6
CONTINUOUS
 62
     7
 10
652.27730777826798
 20
551.02242853489849
 30
0.0
 11
557.28181231659926
 21
551.02242853489849
 31
0.0
  0
LINE
  5
767
  8
0
  6
CONTINUOUS
 62
     7
 10
635.92607648926696
 20
551.02242853489849
 30
0.0
 11
633.35440828122501
 21
551.02242853489849
 31
0.0
  0
LINE
  5
768
  8
0
  6
CONTINUOUS
 62
     7
 10
652.27730777826798
 20
551.02242853489849
 30
0.0
 11
652.27730777826798
 21
547.22003938783598
 31
0.0
  0
ARC
  5
769
  8
0
  6
CONTINUOUS
 62
     7
 10
265.8183603319348
 20
455.13793779484507
 30
0.0
 40
28.574848233790672
 50
90.0
 51
270.0000000000004
  0
LINE
  5
76A
  8
0
  6
CONTINUOUS
 62
     7
 10
265.8183603319348
 20
426.5630895610546
 30
0.0
 11
371.38654964010613
 21
426.5630895610546
 31
0.0
  0
LINE
  5
76B
  8
0
  6
CONTINUOUS
 62
     7
 10
371.38654964010613
 20
483.71278602863617
 30
0.0
 11
265.8183603319348
 21
483.71278602863578
 31
0.0
  0
LINE
  5
7A5
  8
0
 10
604.77956004743385
 20
547.22003938783587
 30
0.0
 11
604.77956004743373
 21
511.01764100759169
 31
0.0
  0
POLYLINE
  5
7A8
  8
0
  6
CONTINUOUS
 62
     7
 66
     1
 10
0.0
 20
0.0
 30
0.0
 70
   128
  0
VERTEX
  5
7A9
  8
0
 10
604.77956004743373
 20
547.22003938783598
 30
0.0
  0
VERTEX
  5
7AA
  8
0
 10
612.85094491740108
 20
549.53815705950046
 30
0.0
  0
VERTEX
  5
7AB
  8
0
 10
621.13079133643487
 20
551.02242853489849
 30
0.0
  0
SEQEND
  5
7AC
  8
0
  0
POLYLINE
  5
7AD
  8
0
  6
CONTINUOUS
 62
     7
 66
     1
 10
0.0
 20
0.0
 30
0.0
 70
   128
  0
VERTEX
  5
7AE
  8
0
 10
604.77956004743373
 20
547.22003938783598
 30
0.0
  0
VERTEX
  5
7AF
  8
0
 10
596.70817517746627
 20
549.53815705950046
 30
0.0
  0
VERTEX
  5
7B0
  8
0
 10
588.4283287584326
 20
551.02242853489849
 30
0.0
  0
SEQEND
  5
7B1
  8
0
  0
LINE
  5
7B3
  8
1
 10
604.77956004743419
 20
286.12070269654038
 30
0.0
 11
604.77956004743385
 21
576.02242853489827
 31
0.0
  0
LINE
  5
88C
  8
1
 10
604.77956004743373
 20
1206.011485889672
 30
0.0
 11
604.77956004743373
 21
858.83306425824935
 31
0.0
  0
LINE
  5
88D
  8
1
 10
212.24351209814401
 20
1032.4222750739609
 30
0.0
 11
722.64781680725355
 21
1032.4222750739609
 31
0.0
  0
LINE
  5
890
  8
0
  6
CONTINUOUS
 62
     7
 10
623.89295853270232
 20
883.83306425824935
 30
0.0
 11
585.66616156216458
 21
883.83306425824935
 31
0.0
  0
LINE
  5
891
  8
0
  6
CONTINUOUS
 62
     7
 10
625.41695043850473
 20
885.35705616405141
 30
0.0
 11
584.14216965636274
 21
885.35705616405141
 31
0.0
  0
LINE
  5
893
  8
0
  6
CONTINUOUS
 62
     7
 10
625.41695043850473
 20
885.35705616405141
 30
0.0
 11
625.41695043850473
 21
904.66095363754562
 31
0.0
  0
LINE
  5
894
  8
0
  6
CONTINUOUS
 62
     7
 10
623.89295853270232
 20
883.83306425824935
 30
0.0
 11
625.41695043850473
 21
885.35705616405141
 31
0.0
  0
LINE
  5
895
  8
0
  6
CONTINUOUS
 62
     7
 10
584.14216965636274
 20
904.66095363754562
 30
0.0
 11
584.14216965636274
 21
885.35705616405141
 31
0.0
  0
LINE
  5
896
  8
0
  6
CONTINUOUS
 62
     7
 10
584.14216965636274
 20
885.35705616405141
 30
0.0
 11
585.66616156216458
 21
883.83306425824935
 31
0.0
  0
ARC
  5
898
  8
0
  6
CONTINUOUS
 62
     7
 10
604.77956004743419
 20
1032.4222750739609
 30
0.0
 40
48.259743683735351
 50
310.19517203746409
 51
349.80482796253722
  0
LINE
  5
899
  8
0
  6
CONTINUOUS
 62
     7
 10
652.27730777826832
 20
1023.880213208236
 30
0.0
 11
652.27730777826798
 21
1004.999437635663
 31
0.0
  0
ARC
  5
89A
  8
0
  6
CONTINUOUS
 62
     7
 10
604.77956004743373
 20
1032.4222750739609
 30
0.0
 40
92.868256759819843
 50
296.92197592990641
 51
63.078024070095168
  0
ARC
  5
89B
  8
0
  6
CONTINUOUS
 62
     7
 10
604.77956004743373
 20
1032.4222750739609
 30
0.0
 40
89.693273622731937
 50
292.60363407683451
 51
67.396365923167011
  0
LINE
  5
89F
  8
0
  6
CONTINUOUS
 62
     7
 10
646.82814538971445
 20
949.6187148587095
 30
0.0
 11
562.7309747051529
 21
949.6187148587095
 31
0.0
  0
LINE
  5
8A0
  8
0
  6
CONTINUOUS
 62
     7
 10
652.27730777826798
 20
1004.999437635663
 30
0.0
 11
604.77956004743373
 21
977.57660019736431
 31
0.0
  0
LINE
  5
8A1
  8
0
  6
CONTINUOUS
 62
     7
 10
635.92607648926673
 20
995.55904984937592
 30
0.0
 11
633.35440828122523
 21
994.0742965171969
 31
0.0
  0
LINE
  5
8A2
  8
0
  6
CONTINUOUS
 62
     7
 10
652.27730777826798
 20
1059.845112512259
 30
0.0
 11
652.27730777826832
 21
1040.9643369396849
 31
0.0
  0
ARC
  5
8A3
  8
0
  6
CONTINUOUS
 62
     7
 10
604.77956004743419
 20
1032.4222750739609
 30
0.0
 40
48.259743683735309
 50
10.19517203746439
 51
49.80482796253709
  0
LINE
  5
8A4
  8
0
  6
CONTINUOUS
 62
     7
 10
652.27730777826832
 20
1040.9643369396849
 30
0.0
 11
652.27730777826832
 21
1023.880213208236
 31
0.0
  0
LINE
  5
8A5
  8
0
  6
CONTINUOUS
 62
     7
 10
604.77956004743373
 20
1087.2679499505571
 30
0.0
 11
652.27730777826798
 21
1059.845112512259
 31
0.0
  0
LINE
  5
8A6
  8
0
  6
CONTINUOUS
 62
     7
 10
633.35440828122523
 20
1070.7702536307249
 30
0.0
 11
635.92607648926673
 21
1069.2855002985459
 31
0.0
  0
LINE
  5
8A9
  8
0
  6
CONTINUOUS
 62
     7
 10
557.2818123165996
 20
1004.999437635663
 30
0.0
 11
557.2818123165996
 21
1023.880213208236
 31
0.0
  0
ARC
  5
8AA
  8
0
  6
CONTINUOUS
 62
     7
 10
604.77956004743419
 20
1032.4222750739609
 30
0.0
 40
48.259743683735493
 50
190.19517203746349
 51
229.80482796253651
  0
ARC
  5
8AD
  8
0
  6
CONTINUOUS
 62
     7
 10
604.77956004743373
 20
1032.4222750739609
 30
0.0
 40
92.868256759819758
 50
116.9219759299054
 51
243.0780240700945
  0
ARC
  5
8AE
  8
0
  6
CONTINUOUS
 62
     7
 10
604.77956004743373
 20
1032.4222750739609
 30
0.0
 40
89.693273622731937
 50
112.6036340768338
 51
247.3963659231662
  0
LINE
  5
8AF
  8
0
  6
CONTINUOUS
 62
     7
 10
604.77956004743339
 20
977.57660019736477
 30
0.0
 11
557.2818123165996
 21
1004.999437635663
 31
0.0
  0
LINE
  5
8B2
  8
0
  6
CONTINUOUS
 62
     7
 10
576.20471181364405
 20
994.07429651719599
 30
0.0
 11
573.63304360560119
 21
995.55904984937592
 31
0.0
  0
LINE
  5
8B3
  8
0
  6
CONTINUOUS
 62
     7
 10
557.2818123165996
 20
1059.845112512259
 30
0.0
 11
604.77956004743339
 21
1087.2679499505571
 31
0.0
  0
ARC
  5
8B6
  8
0
  6
CONTINUOUS
 62
     7
 10
604.77956004743419
 20
1032.4222750739609
 30
0.0
 40
48.259743683735493
 50
90.000000000000554
 51
109.8048279625373
  0
LINE
  5
8B7
  8
0
  6
CONTINUOUS
 62
     7
 10
573.63304360560119
 20
1069.2855002985459
 30
0.0
 11
576.20471181364405
 21
1070.7702536307261
 31
0.0
  0
LINE
  5
8B8
  8
0
  6
CONTINUOUS
 62
     7
 10
562.7309747051529
 20
1115.225835289212
 30
0.0
 11
646.82814538971479
 21
1115.225835289212
 31
0.0
  0
LINE
  5
8BA
  8
0
  6
CONTINUOUS
 62
     7
 10
557.2818123165996
 20
1040.9643369396849
 30
0.0
 11
557.2818123165996
 21
1059.845112512259
 31
0.0
  0
LINE
  5
8BB
  8
0
  6
CONTINUOUS
 62
     7
 10
557.2818123165996
 20
1023.880213208236
 30
0.0
 11
557.2818123165996
 21
1040.9643369396849
 31
0.0
  0
LINE
  5
8BE
  8
0
  6
CONTINUOUS
 62
     7
 10
625.41695043850473
 20
1179.4874939838701
 30
0.0
 11
584.14216965636274
 21
1179.4874939838701
 31
0.0
  0
LINE
  5
8BF
  8
0
  6
CONTINUOUS
 62
     7
 10
623.89295853270232
 20
1181.011485889672
 30
0.0
 11
585.66616156216458
 21
1181.011485889672
 31
0.0
  0
LINE
  5
8C0
  8
0
  6
CONTINUOUS
 62
     7
 10
625.41695043850473
 20
1160.183596510376
 30
0.0
 11
625.41695043850473
 21
1179.4874939838701
 31
0.0
  0
LINE
  5
8C1
  8
0
  6
CONTINUOUS
 62
     7
 10
625.41695043850473
 20
1179.4874939838701
 30
0.0
 11
623.89295853270232
 21
1181.011485889672
 31
0.0
  0
LINE
  5
8C2
  8
0
  6
CONTINUOUS
 62
     7
 10
584.14216965636274
 20
1179.4874939838701
 30
0.0
 11
584.14216965636274
 21
1160.183596510376
 31
0.0
  0
LINE
  5
8C3
  8
0
  6
CONTINUOUS
 62
     7
 10
586.7799256644123
 20
1160.183596510376
 30
0.0
 11
584.14216965636274
 21
1160.183596510376
 31
0.0
  0
LINE
  5
8C4
  8
0
  6
CONTINUOUS
 62
     7
 10
585.66616156216458
 20
1181.011485889672
 30
0.0
 11
584.14216965636274
 21
1179.4874939838701
 31
0.0
  0
LINE
  5
907
  8
1
 10
371.3865496401059
 20
1191.5653126159229
 30
0.0
 11
371.3865496401059
 21
873.27923753199912
 31
0.0
  0
ARC
  5
908
  8
0
  6
CONTINUOUS
 62
     7
 10
371.3865496401059
 20
1032.42227507396
 30
0.0
 40
134.14303754196189
 50
90.00000000000081
 51
270.0000000000004
  0
ARC
  5
909
  8
0
  6
CONTINUOUS
 62
     7
 10
371.3865496401059
 20
1032.42227507396
 30
0.0
 40
76.993341074380439
 50
90.00000000000081
 51
270.0000000000004
  0
LINE
  5
90A
  8
0
  6
CONTINUOUS
 62
     7
 10
371.38654964010698
 20
1109.4156161483411
 30
0.0
 11
544.37532967557695
 21
1109.4156161483411
 31
0.0
  0
LINE
  5
90B
  8
0
  6
CONTINUOUS
 62
     7
 10
518.85556289114015
 20
1166.5653126159229
 30
0.0
 11
371.38654964010789
 21
1166.5653126159229
 31
0.0
  0
LINE
  5
90C
  8
0
  6
CONTINUOUS
 62
     7
 10
371.3865496401059
 20
898.27923753199912
 30
0.0
 11
518.88402712421043
 21
898.27923753199912
 31
0.0
  0
LINE
  5
90D
  8
0
  6
CONTINUOUS
 62
     7
 10
544.32743013142465
 20
955.42893399958041
 30
0.0
 11
371.3865496401059
 21
955.42893399958041
 31
0.0
  0
POLYLINE
  5
90F
  8
0
  6
CONTINUOUS
 62
     7
 66
     1
 10
0.0
 20
0.0
 30
0.0
 70
   128
  0
VERTEX
  5
910
  8
0
 10
535.69192698440224
 20
904.66095363754562
 30
0.0
  0
VERTEX
  5
911
  8
0
 10
531.26218558585936
 20
904.27169705148754
 30
0.0
  0
VERTEX
  5
912
  8
0
 10
528.75143906532071
 20
903.69266841806109
 30
0.0
  0
VERTEX
  5
913
  8
0
 10
526.43869378715794
 20
902.91549240837071
 30
0.0
  0
VERTEX
  5
914
  8
0
 10
524.41861279167517
 20
902.02115091518124
 30
0.0
  0
VERTEX
  5
915
  8
0
 10
522.696704249405
 20
901.0848676131875
 30
0.0
  0
VERTEX
  5
916
  8
0
 10
521.29381878734171
 20
900.1860085339348
 30
0.0
  0
VERTEX
  5
917
  8
0
 10
520.21999132801943
 20
899.4048804871336
 30
0.0
  0
VERTEX
  5
918
  8
0
 10
519.43003087425825
 20
898.77373576841865
 30
0.0
  0
VERTEX
  5
919
  8
0
 10
518.98066689615712
 20
898.38925973397386
 30
0.0
  0
VERTEX
  5
91A
  8
0
 10
518.88402712421043
 20
898.3056316060057
 30
0.0
  0
SEQEND
  5
91B
  8
0
  0
POLYLINE
  5
91D
  8
0
  6
CONTINUOUS
 62
     7
 66
     1
 10
0.0
 20
0.0
 30
0.0
 70
   128
  0
VERTEX
  5
91E
  8
0
 10
535.69192698440224
 20
1160.183596510376
 30
0.0
  0
VERTEX
  5
91F
  8
0
 10
531.28953493116092
 20
1160.5680245503279
 30
0.0
  0
VERTEX
  5
920
  8
0
 10
528.77695573300002
 20
1161.144648991228
 30
0.0
  0
VERTEX
  5
921
  8
0
 10
526.46166921409781
 20
1161.920082972056
 30
0.0
  0
VERTEX
  5
922
  8
0
 10
524.43845941389304
 20
1162.813585656316
 30
0.0
  0
VERTEX
  5
923
  8
0
 10
522.71309873453049
 20
1163.749928585805
 30
0.0
  0
VERTEX
  5
924
  8
0
 10
521.30696182161284
 20
1164.6495096026631
 30
0.0
  0
VERTEX
  5
925
  8
0
 10
520.22982298117745
 20
1165.4321220306599
 30
0.0
  0
VERTEX
  5
926
  8
0
 10
519.43656944083227
 20
1166.0653707950839
 30
0.0
  0
VERTEX
  5
927
  8
0
 10
518.98381244659606
 20
1166.4525427707481
 30
0.0
  0
VERTEX
  5
928
  8
0
 10
518.85556289114015
 20
1166.5653126159229
 30
0.0
  0
SEQEND
  5
929
  8
0
  0
LINE
  5
92A
  8
0
  6
CONTINUOUS
 62
     7
 10
637.29138737121446
 20
1120.03004753103
 30
0.0
 11
637.29138737121536
 21
1155.950881233234
 31
0.0
  0
POLYLINE
  5
92B
  8
0
  6
CONTINUOUS
 62
     7
 66
     1
 10
0.0
 20
0.0
 30
0.0
 70
   128
  0
VERTEX
  5
92C
  8
0
 10
637.29138737121446
 20
1120.03004753103
 30
0.0
  0
VERTEX
  5
92D
  8
0
 10
636.06436847496889
 20
1121.6647087233259
 30
0.0
  0
VERTEX
  5
92E
  8
0
 10
634.95734002371717
 20
1123.3828998050919
 30
0.0
  0
VERTEX
  5
92F
  8
0
 10
633.97596607161404
 20
1125.1758297399949
 30
0.0
  0
VERTEX
  5
930
  8
0
 10
633.12526776802986
 20
1127.0343250942051
 30
0.0
  0
VERTEX
  5
931
  8
0
 10
632.40959766709818
 20
1128.948876971793
 30
0.0
  0
VERTEX
  5
932
  8
0
 10
631.83261745809557
 20
1130.909689666508
 30
0.0
  0
VERTEX
  5
933
  8
0
 10
631.39727923059706
 20
1132.9067307810119
 30
0.0
  0
VERTEX
  5
934
  8
0
 10
631.10581037026122
 20
1134.9297825571159
 30
0.0
  0
VERTEX
  5
935
  8
0
 10
630.95970216252636
 20
1136.9684941544181
 30
0.0
  0
VERTEX
  5
936
  8
0
 10
630.95970216252715
 20
1139.0124346098471
 30
0.0
  0
VERTEX
  5
937
  8
0
 10
631.10581037026122
 20
1141.051146207149
 30
0.0
  0
VERTEX
  5
938
  8
0
 10
631.39727923059706
 20
1143.0741979832519
 30
0.0
  0
VERTEX
  5
939
  8
0
 10
631.83261745809659
 20
1145.071239097756
 30
0.0
  0
VERTEX
  5
93A
  8
0
 10
632.40959766709909
 20
1147.032051792472
 30
0.0
  0
VERTEX
  5
93B
  8
0
 10
633.12526776803088
 20
1148.9466036700589
 30
0.0
  0
VERTEX
  5
93C
  8
0
 10
633.97596607161495
 20
1150.8050990242691
 30
0.0
  0
VERTEX
  5
93D
  8
0
 10
634.95734002371819
 20
1152.598028959173
 30
0.0
  0
VERTEX
  5
93E
  8
0
 10
636.0643684749698
 20
1154.3162200409381
 30
0.0
  0
VERTEX
  5
93F
  8
0
 10
637.29138737121536
 20
1155.9508812332331
 30
0.0
  0
SEQEND
  5
940
  8
0
  0
LINE
  5
941
  8
0
  6
CONTINUOUS
 62
     7
 10
637.29138737121536
 20
1160.183596510376
 30
0.0
 11
535.69192698440077
 21
1160.183596510376
 31
0.0
  0
LINE
  5
942
  8
0
  6
CONTINUOUS
 62
     7
 10
637.29138737121536
 20
1155.950881233234
 30
0.0
 11
637.29138737121536
 21
1160.183596510376
 31
0.0
  0
POLYLINE
  5
944
  8
0
  6
CONTINUOUS
 62
     7
 66
     1
 10
0.0
 20
0.0
 30
0.0
 70
   128
  0
VERTEX
  5
945
  8
0
 10
544.37532967557695
 20
1109.458377660231
 30
0.0
  0
VERTEX
  5
946
  8
0
 10
544.38120064581028
 20
1109.4643910482789
 30
0.0
  0
VERTEX
  5
947
  8
0
 10
544.77941453228664
 20
1109.8034175543571
 30
0.0
  0
VERTEX
  5
948
  8
0
 10
545.60481434459609
 20
1110.46729918081
 30
0.0
  0
VERTEX
  5
949
  8
0
 10
546.87550235990068
 20
1111.3827264482029
 30
0.0
  0
VERTEX
  5
94A
  8
0
 10
548.5045251853237
 20
1112.394658793158
 30
0.0
  0
VERTEX
  5
94B
  8
0
 10
550.53516464203744
 20
1113.4361484313899
 30
0.0
  0
VERTEX
  5
94C
  8
0
 10
552.71639419542555
 20
1114.3115938589549
 30
0.0
  0
VERTEX
  5
94D
  8
0
 10
555.14365187466967
 20
1115.0275451010859
 30
0.0
  0
VERTEX
  5
94E
  8
0
 10
557.6622327976163
 20
1115.499693186885
 30
0.0
  0
VERTEX
  5
94F
  8
0
 10
560.27504980693243
 20
1115.720697866594
 30
0.0
  0
VERTEX
  5
950
  8
0
 10
561.09179208110504
 20
1115.733832591146
 30
0.0
  0
SEQEND
  5
951
  8
0
  0
LINE
  5
953
  8
0
  6
CONTINUOUS
 62
     7
 10
561.09179208110504
 20
1115.733832591146
 30
0.0
 11
637.29138737121446
 21
1115.733832591146
 31
0.0
  0
LINE
  5
954
  8
0
  6
CONTINUOUS
 62
     7
 10
637.29138737121446
 20
1115.733832591146
 30
0.0
 11
637.29138737121446
 21
1120.03004753103
 31
0.0
  0
POLYLINE
  5
955
  8
0
  6
CONTINUOUS
 62
     7
 66
     1
 10
0.0
 20
0.0
 30
0.0
 70
   128
  0
VERTEX
  5
956
  8
0
 10
544.32743013142465
 20
955.42893399958018
 30
0.0
  0
VERTEX
  5
957
  8
0
 10
544.50918562522986
 20
955.26933212233371
 30
0.0
  0
VERTEX
  5
958
  8
0
 10
545.0611917280487
 20
954.80847618611585
 30
0.0
  0
VERTEX
  5
959
  8
0
 10
546.00894896163004
 20
954.07315794189674
 30
0.0
  0
VERTEX
  5
95A
  8
0
 10
547.36950835890616
 20
953.13648439464691
 30
0.0
  0
VERTEX
  5
95B
  8
0
 10
549.10252575655682
 20
952.11952123034894
 30
0.0
  0
VERTEX
  5
95C
  8
0
 10
551.21460688745776
 20
951.10984848591215
 30
0.0
  0
VERTEX
  5
95D
  8
0
 10
553.45948198846668
 20
950.28618992189433
 30
0.0
  0
VERTEX
  5
95E
  8
0
 10
555.92483649817063
 20
949.64181274150451
 30
0.0
  0
VERTEX
  5
95F
  8
0
 10
558.47263312725204
 20
949.24762768965047
 30
0.0
  0
VERTEX
  5
960
  8
0
 10
561.09179208110504
 20
949.11071755677528
 30
0.0
  0
SEQEND
  5
961
  8
0
  0
LINE
  5
962
  8
0
  6
CONTINUOUS
 62
     7
 10
561.09179208110504
 20
949.11071755677574
 30
0.0
 11
637.29138737121355
 21
949.11071755677574
 31
0.0
  0
LINE
  5
963
  8
0
  6
CONTINUOUS
 62
     7
 10
637.29138737121355
 20
908.89366891469012
 30
0.0
 11
637.29138737121536
 21
944.8145026168894
 31
0.0
  0
POLYLINE
  5
964
  8
0
  6
CONTINUOUS
 62
     7
 66
     1
 10
0.0
 20
0.0
 30
0.0
 70
   128
  0
VERTEX
  5
965
  8
0
 10
637.29138737121446
 20
944.81450261689008
 30
0.0
  0
VERTEX
  5
966
  8
0
 10
636.06436847496889
 20
943.179841424595
 30
0.0
  0
VERTEX
  5
967
  8
0
 10
634.95734002371717
 20
941.4616503428291
 30
0.0
  0
VERTEX
  5
968
  8
0
 10
633.97596607161404
 20
939.66872040792578
 30
0.0
  0
VERTEX
  5
969
  8
0
 10
633.12526776802986
 20
937.81022505371595
 30
0.0
  0
VERTEX
  5
96A
  8
0
 10
632.40959766709818
 20
935.89567317612875
 30
0.0
  0
VERTEX
  5
96B
  8
0
 10
631.83261745809557
 20
933.93486048141324
 30
0.0
  0
VERTEX
  5
96C
  8
0
 10
631.39727923059706
 20
931.93781936690948
 30
0.0
  0
VERTEX
  5
96D
  8
0
 10
631.10581037026122
 20
929.91476759080615
 30
0.0
  0
VERTEX
  5
96E
  8
0
 10
630.95970216252715
 20
927.87605599350468
 30
0.0
  0
VERTEX
  5
96F
  8
0
 10
630.95970216252636
 20
925.83211553807541
 30
0.0
  0
VERTEX
  5
970
  8
0
 10
631.10581037026122
 20
923.7934039407736
 30
0.0
  0
VERTEX
  5
971
  8
0
 10
631.39727923059706
 20
921.77035216467061
 30
0.0
  0
VERTEX
  5
972
  8
0
 10
631.83261745809557
 20
919.77331105016685
 30
0.0
  0
VERTEX
  5
973
  8
0
 10
632.40959766709818
 20
917.81249835545088
 30
0.0
  0
VERTEX
  5
974
  8
0
 10
633.12526776802986
 20
915.89794647786368
 30
0.0
  0
VERTEX
  5
975
  8
0
 10
633.97596607161404
 20
914.03945112365409
 30
0.0
  0
VERTEX
  5
976
  8
0
 10
634.95734002371626
 20
912.24652118875065
 30
0.0
  0
VERTEX
  5
977
  8
0
 10
636.06436847496889
 20
910.52833010698475
 30
0.0
  0
VERTEX
  5
978
  8
0
 10
637.29138737121355
 20
908.89366891468956
 30
0.0
  0
SEQEND
  5
979
  8
0
  0
LINE
  5
97A
  8
0
  6
CONTINUOUS
 62
     7
 10
637.29138737121355
 20
949.11071755677574
 30
0.0
 11
637.29138737121536
 21
944.8145026168894
 31
0.0
  0
LINE
  5
97B
  8
0
  6
CONTINUOUS
 62
     7
 10
637.29138737121355
 20
904.66095363754573
 30
0.0
 11
535.69192698439144
 21
904.66095363754471
 31
0.0
  0
LINE
  5
97C
  8
0
  6
CONTINUOUS
 62
     7
 10
637.29138737121355
 20
908.89366891469012
 30
0.0
 11
637.29138737121355
 21
904.66095363754573
 31
0.0
  0
CIRCLE
  5
981
  8
0
 10
604.77956004743419
 20
1032.4222750739609
 30
0.0
 40
74.104106419630597
  0
CIRCLE
  5
982
  8
0
 10
604.77956004743373
 20
1032.4222750739609
 30
0.0
 40
75.691597988174578
  0
ARC
  5
983
  8
0
  6
CONTINUOUS
 62
     7
 10
604.77956004743419
 20
1032.4222750739609
 30
0.0
 40
48.259743683735309
 50
70.195172037462029
 51
90.000000000000554
  0
ARC
  5
984
  8
0
  6
CONTINUOUS
 62
     7
 10
604.77956004743419
 20
1032.4222750739609
 30
0.0
 40
48.259743683735493
 50
130.19517203746281
 51
169.80482796253651
  0
ARC
  5
985
  8
0
  6
CONTINUOUS
 62
     7
 10
604.77956004743419
 20
1032.4222750739609
 30
0.0
 40
48.259743683735309
 50
269.99999999999949
 51
289.80482796253801
  0
ARC
  5
986
  8
0
  6
CONTINUOUS
 62
     7
 10
604.77956004743419
 20
1032.4222750739609
 30
0.0
 40
48.259743683735493
 50
250.1951720374627
 51
269.99999999999949
  0
TEXT
  5
A59
  8
0
 62
     3
 10
0.0
 20
0.0
 30
0.0
 40
10.0
  1
HRB64
  7
STANDARD1
  0
ENDSEC
  0
EOF
