  0
SECTION
  2
HEADER
  9
$ACADVER
  1
AC1009
  9
$INSBASE
 10
0.0
 20
0.0
 30
0.0
  9
$EXTMIN
 10
0.0
 20
-2.960436562073669
 30
0.0
  9
$EXTMAX
 10
233.76976548854711
 20
225.38735461294411
 30
0.0
  9
$LIMMIN
 10
0.0
 20
0.0
  9
$LIMMAX
 10
375.0
 20
278.0
  9
$ORTHOMODE
 70
     1
  9
$REGENMODE
 70
     1
  9
$FILLMODE
 70
     1
  9
$QTEXTMODE
 70
     0
  9
$MIRRTEXT
 70
     0
  9
$DRAGMODE
 70
     2
  9
$LTSCALE
 40
10.0
  9
$OSMODE
 70
    55
  9
$ATTMODE
 70
     1
  9
$TEXTSIZE
 40
0.2
  9
$TRACEWID
 40
0.05
  9
$TEXTSTYLE
  7
STANDARD
  9
$CLAYER
  8
0
  9
$CELTYPE
  6
BYLAYER
  9
$CECOLOR
 62
   256
  9
$DIMSCALE
 40
1.0
  9
$DIMASZ
 40
3.0
  9
$DIMEXO
 40
1.0
  9
$DIMDLI
 40
6.0
  9
$DIMRND
 40
0.0
  9
$DIMDLE
 40
0.0
  9
$DIMEXE
 40
1.0
  9
$DIMTP
 40
495.0
  9
$DIMTM
 40
0.0
  9
$DIMTXT
 40
3.0
  9
$DIMCEN
 40
0.0
  9
$DIMTSZ
 40
0.0
  9
$DIMTOL
 70
     0
  9
$DIMLIM
 70
     0
  9
$DIMTIH
 70
     0
  9
$DIMTOH
 70
     0
  9
$DIMSE1
 70
     0
  9
$DIMSE2
 70
     0
  9
$DIMTAD
 70
     1
  9
$DIMZIN
 70
     0
  9
$DIMBLK
  1

  9
$DIMASO
 70
     0
  9
$DIMSHO
 70
     0
  9
$DIMPOST
  1

  9
$DIMAPOST
  1

  9
$DIMALT
 70
     0
  9
$DIMALTD
 70
     2
  9
$DIMALTF
 40
25.399999999999999
  9
$DIMLFAC
 40
1.0
  9
$DIMTOFL
 70
     1
  9
$DIMTVP
 40
0.0
  9
$DIMTIX
 70
     1
  9
$DIMSOXD
 70
     0
  9
$DIMSAH
 70
     0
  9
$DIMBLK1
  1

  9
$DIMBLK2
  1

  9
$DIMSTYLE
  2
STANDARD
  9
$DIMCLRD
 70
     0
  9
$DIMCLRE
 70
     0
  9
$DIMCLRT
 70
     4
  9
$DIMTFAC
 40
1.0
  9
$DIMGAP
 40
1.0
  9
$LUNITS
 70
     2
  9
$LUPREC
 70
     4
  9
$SKETCHINC
 40
0.1
  9
$FILLETRAD
 40
0.0
  9
$AUNITS
 70
     0
  9
$AUPREC
 70
     0
  9
$MENU
  1
C:\R13\WIN\SUPPORT\ACAD-I
  9
$ELEVATION
 40
0.0
  9
$PELEVATION
 40
0.0
  9
$THICKNESS
 40
0.0
  9
$LIMCHECK
 70
     0
  9
$BLIPMODE
 70
     0
  9
$CHAMFERA
 40
0.0
  9
$CHAMFERB
 40
0.0
  9
$SKPOLY
 70
     0
  9
$TDCREATE
 40
2450834.4199027782
  9
$TDUPDATE
 40
2456598.689512453
  9
$TDINDWG
 40
0.2006157523
  9
$TDUSRTIMER
 40
0.2006157523
  9
$USRTIMER
 70
     1
  9
$ANGBASE
 50
0.0
  9
$ANGDIR
 70
     0
  9
$PDMODE
 70
     0
  9
$PDSIZE
 40
0.0
  9
$PLINEWID
 40
0.0
  9
$COORDS
 70
     1
  9
$SPLFRAME
 70
     0
  9
$SPLINETYPE
 70
     6
  9
$SPLINESEGS
 70
     8
  9
$ATTDIA
 70
     0
  9
$ATTREQ
 70
     1
  9
$HANDLING
 70
     1
  9
$HANDSEED
  5
B7E
  9
$SURFTAB1
 70
     6
  9
$SURFTAB2
 70
     6
  9
$SURFTYPE
 70
     6
  9
$SURFU
 70
     6
  9
$SURFV
 70
     6
  9
$UCSNAME
  2

  9
$UCSORG
 10
0.0
 20
0.0
 30
0.0
  9
$UCSXDIR
 10
1.0
 20
0.0
 30
0.0
  9
$UCSYDIR
 10
0.0
 20
1.0
 30
0.0
  9
$PUCSNAME
  2

  9
$PUCSORG
 10
0.0
 20
0.0
 30
0.0
  9
$PUCSXDIR
 10
1.0
 20
0.0
 30
0.0
  9
$PUCSYDIR
 10
0.0
 20
1.0
 30
0.0
  9
$USERI1
 70
     4
  9
$USERI2
 70
     1
  9
$USERI3
 70
     0
  9
$USERI4
 70
     0
  9
$USERI5
 70
     0
  9
$USERR1
 40
1.0
  9
$USERR2
 40
3.0
  9
$USERR3
 40
3.0
  9
$USERR4
 40
3.0
  9
$USERR5
 40
10.0
  9
$WORLDVIEW
 70
     1
  9
$SHADEDGE
 70
     3
  9
$SHADEDIF
 70
    70
  9
$TILEMODE
 70
     1
  9
$MAXACTVP
 70
    16
  9
$PLIMCHECK
 70
     0
  9
$PEXTMIN
 10
1.0000000000000000E+020
 20
1.0000000000000000E+020
 30
1.0000000000000000E+020
  9
$PEXTMAX
 10
-1.0000000000000000E+020
 20
-1.0000000000000000E+020
 30
-1.0000000000000000E+020
  9
$PLIMMIN
 10
0.0
 20
0.0
  9
$PLIMMAX
 10
12.0
 20
9.0
  9
$UNITMODE
 70
     0
  9
$VISRETAIN
 70
     0
  9
$PLINEGEN
 70
     0
  9
$PSLTSCALE
 70
     0
  0
ENDSEC
  0
SECTION
  2
TABLES
  0
TABLE
  2
VPORT
 70
     1
  0
VPORT
  2
*ACTIVE
 70
     0
 10
0.0
 20
0.0
 11
1.0
 21
1.0
 12
187.49427839065231
 22
180.1290430320056
 13
0.0
 23
0.0
 14
10.0
 24
10.0
 15
10.0
 25
10.0
 16
0.0
 26
0.0
 36
1.0
 17
0.0
 27
0.0
 37
0.0
 40
369.4434036391122
 41
1.7807262569832401
 42
50.0
 43
0.0
 44
0.0
 50
0.0
 51
0.0
 71
     0
 72
   100
 73
     1
 74
     0
 75
     0
 76
     0
 77
     0
 78
     0
  0
ENDTAB
  0
TABLE
  2
LTYPE
 70
     4
  0
LTYPE
  2
CONTINUOUS
 70
     0
  3
Solid Line
 72
    65
 73
     0
 40
0.0
  0
LTYPE
  2
CENTER
 70
     0
  3
____ _ ____ _ ____ _ ____ _ ____ _ ____ _ ____
 72
    65
 73
     4
 40
2.0
 49
1.25
 49
-0.25
 49
0.25
 49
-0.25
  0
LTYPE
  2
HIDDEN
 70
     0
  3
__ __ __ __ __ __ __ __ __ __ __ __ __ __ __ __
 72
    65
 73
     2
 40
0.375
 49
0.25
 49
-0.125
  0
LTYPE
  2
PHANTOM2
 70
     0
  3
___ _ _ ___ _ _ ___ _ _ ___ _ _
 72
    65
 73
     6
 40
1.25
 49
0.625
 49
-0.125
 49
0.125
 49
-0.125
 49
0.125
 49
-0.125
  0
ENDTAB
  0
TABLE
  2
LAYER
 70
     4
  0
LAYER
  2
0
 70
     0
 62
     7
  6
CONTINUOUS
  0
LAYER
  2
1
 70
     0
 62
     1
  6
CENTER
  0
LAYER
  2
3
 70
     0
 62
     3
  6
CONTINUOUS
  0
LAYER
  2
2
 70
     0
 62
     2
  6
HIDDEN
  0
ENDTAB
  0
TABLE
  2
STYLE
 70
     3
  0
STYLE
  2
STANDARD
 70
     0
 40
0.0
 41
1.0
 50
0.0
 71
     0
 42
0.2
  3
SIMPLEX
  4
BIGFONT
  0
STYLE
  2
ROMANS
 70
     0
 40
0.0
 41
1.0
 50
0.0
 71
     0
 42
0.18
  3
romans
  4

  0
STYLE
  2
STANDARD1
 70
     0
 40
0.0
 41
1.0
 50
0.0
 71
     0
 42
3.0
  3
txt
  4

  0
ENDTAB
  0
TABLE
  2
VIEW
 70
     0
  0
ENDTAB
  0
TABLE
  2
UCS
 70
     0
  0
ENDTAB
  0
TABLE
  2
APPID
 70
    40
  0
APPID
  2
ACAD
 70
     0
  0
APPID
  2
GENIUS_GENOBJ_13
 70
     0
  0
APPID
  2
GENIUS_GENODEF_13
 70
     0
  0
APPID
  2
GENIUS_GENOENT_13
 70
     0
  0
APPID
  2
GENIUS_GENOLIS_13
 70
     0
  0
APPID
  2
GENIUS_GENOREF_13
 70
     0
  0
APPID
  2
GENIUS_GENOBJ-N-TIT_13
 70
     0
  0
APPID
  2
GENIUS_GENTITLE_13
 70
     0
  0
APPID
  2
GENIUS_GENZVEED_13
 70
     0
  0
APPID
  2
GENIUS_GENOBJ-N-FIL_13
 70
     0
  0
APPID
  2
GENIUS_GENOBJ-N-CRS_13
 70
     0
  0
APPID
  2
GENIUS_GEFINERT_13
 70
     0
  0
APPID
  2
GENIUS_GENOBJ-F-INER_13
 70
     0
  0
APPID
  2
GENIUS_GENOBJ-N-ZOO_13
 70
     0
  0
APPID
  2
GENIUS_GENZOO_13
 70
     0
  0
APPID
  2
GENIUS_GENOBJ-F-TOL_13
 70
     0
  0
APPID
  2
GENIUS_GENOBJ-N-RSSYM_13
 70
     0
  0
APPID
  2
GENIUS_GENSYMENT_13
 70
     0
  0
APPID
  2
GENIUS_GENBH_13
 70
     0
  0
APPID
  2
GENIUS_GENOBJ-NBEHI-BHF_13
 70
     0
  0
APPID
  2
GENIUS_GENOBJ-NBEHI-BHB_13
 70
     0
  0
APPID
  2
GENIUS_GENOBJ-F-PART_13
 70
     0
  0
APPID
  2
GENIUS_GEFSTDP_13
 70
     0
  0
APPID
  2
GENIUS_GENOBJ-N-LEADER_13
 70
     0
  0
APPID
  2
GENIUS_GENOBJ-N-REV_13
 70
     0
  0
APPID
  2
GENIUS_GENCFG_13
 70
     0
  0
APPID
  2
GENIUS_GENCFG0_13
 70
     0
  0
APPID
  2
GENIUS_GENCFG1_13
 70
     0
  0
APPID
  2
GENIUS_GENCFG2_13
 70
     0
  0
APPID
  2
GENIUS_GENCFG3_13
 70
     0
  0
APPID
  2
GENIUS_GEVCFG0_13
 70
     0
  0
APPID
  2
GENIUS_GENCFG4_13
 70
     0
  0
APPID
  2
GENIUS_GENOBJ-N-REC_13
 70
     0
  0
APPID
  2
GENIUS_GENFIL_13
 70
     0
  0
APPID
  2
GENIUS_GENOBJ-N-CHA_13
 70
     0
  0
APPID
  2
GENIUS_GENREC_13
 70
     0
  0
APPID
  2
MCAD_NO_VIS
 70
     0
  0
APPID
  2
ACAD_TEMP_GRAPHIC
 70
     0
  0
APPID
  2
ACAD_MLEADERVER
 70
     0
  0
APPID
  2
ACAD_NAV_VCDISPLAY
 70
     0
  0
ENDTAB
  0
TABLE
  2
DIMSTYLE
 70
     1
  0
DIMSTYLE
  2
STANDARD
 70
     0
  3

  4

  5

  6

  7

 40
1.0
 41
0.18
 42
0.0625
 43
0.38
 44
0.18
 45
0.0
 46
0.0
 47
0.0
 48
0.0
140
0.18
141
0.09
142
0.0
143
25.399999999999999
144
1.0
145
0.0
146
1.0
147
0.09
 71
     0
 72
     0
 73
     1
 74
     1
 75
     0
 76
     0
 77
     0
 78
     0
170
     0
171
     2
172
     0
173
     0
174
     0
175
     0
176
     0
177
     0
178
     0
  0
ENDTAB
  0
ENDSEC
  0
SECTION
  2
BLOCKS
  0
BLOCK
  8
0
  2
$MODEL_SPACE
 70
     0
 10
0.0
 20
0.0
 30
0.0
  3
$MODEL_SPACE
  1

  0
ENDBLK
  5
A34
  8
0
  0
BLOCK
 67
     1
  8
0
  2
$PAPER_SPACE
 70
     0
 10
0.0
 20
0.0
 30
0.0
  3
$PAPER_SPACE
  1

  0
ENDBLK
  5
A32
 67
     1
  8
0
  0
BLOCK
  8
0
  2
STDGX5
 70
     0
 10
0.0
 20
0.0
 30
0.0
  3
STDGX5
  1

  0
ENDBLK
  5
4F
  8
0
  0
ENDSEC
  0
SECTION
  2
ENTITIES
  0
INSERT
  5
DE
  8
0
  2
STDGX5
 10
0.0
 20
0.0
 30
0.0
  0
INSERT
  5
DF
  8
0
  2
STDGX5
 10
0.0
 20
0.0
 30
0.0
  0
INSERT
  5
15C
  8
0
  2
STDGX5
 10
275.0
 20
0.0
 30
0.0
  0
INSERT
  5
15D
  8
0
  2
STDGX5
 10
275.0
 20
0.0
 30
0.0
  0
INSERT
  5
314
  8
0
  2
STDGX5
 10
0.0
 20
0.0
 30
0.0
  0
INSERT
  5
315
  8
0
  2
STDGX5
 10
0.0
 20
0.0
 30
0.0
  0
INSERT
  5
316
  8
0
  2
STDGX5
 10
275.0
 20
0.0
 30
0.0
  0
INSERT
  5
317
  8
0
  2
STDGX5
 10
275.0
 20
0.0
 30
0.0
  0
INSERT
  5
4EF
  8
0
  2
STDGX5
 10
0.0
 20
0.0
 30
0.0
  0
INSERT
  5
4F0
  8
0
  2
STDGX5
 10
0.0
 20
0.0
 30
0.0
  0
INSERT
  5
4F1
  8
0
  2
STDGX5
 10
275.0
 20
0.0
 30
0.0
  0
INSERT
  5
4F2
  8
0
  2
STDGX5
 10
275.0
 20
0.0
 30
0.0
  0
ARC
  5
91C
  8
0
 10
190.3697654885471
 20
193.9136967800419
 30
0.0
 40
38.400000000000013
 50
319.18399797229768
 51
0.0
  0
ARC
  5
91D
  8
0
 10
190.3697654885471
 20
193.9136967800419
 30
0.0
 40
38.400000000000013
 50
0.0
 51
40.816002027702282
  0
TEXT
  5
91E
  8
3
 10
218.8081892962081
 20
185.46688128608619
 30
0.0
 40
4.6079999999999988
  1
N
 50
248.7906045627409
  7
ROMANS
 72
     1
 11
217.93496189954371
 21
183.2166611709028
 31
0.0
  0
TEXT
  5
91F
  8
3
 10
219.86832347066741
 20
190.84610538360579
 30
0.0
 40
4.6079999999999988
  1
E
 50
259.60747804300172
  7
ROMANS
 72
     1
 11
219.45270313328101
 21
188.5799024502499
 31
0.0
  0
TEXT
  5
920
  8
3
 10
219.91989050328689
 20
196.43662198964699
 30
0.0
 40
4.6079999999999988
  1
G
 50
270.42435152326249
  7
ROMANS
 72
     1
 11
219.9369545345202
 21
194.13268518086991
 31
0.0
  0
TEXT
  5
921
  8
3
 10
218.8999780412355
 20
202.0450934836521
 30
0.0
 40
4.6079999999999988
  1
R
 50
281.24122500352331
  7
ROMANS
 72
     1
 11
219.37050776943769
 21
199.6776859505182
 31
0.0
  0
TEXT
  5
922
  8
3
 10
216.90823275525429
 20
207.153213203761
 30
0.0
 40
4.6079999999999988
  1
E
 50
292.05809848378408
  7
ROMANS
 72
     1
 11
217.77349206223781
 21
205.0178578863306
 31
0.0
  0
ARC
  5
923
  8
0
 10
204.9005661327262
 20
181.36396241476029
 30
0.0
 40
19.199999999999999
 50
260.00000000000023
 51
319.18399797229768
  0
LINE
  5
924
  8
0
 10
154.05841715147889
 20
170.832614089147
 30
0.0
 11
201.56652112152099
 21
162.45565355692599
 31
0.0
  0
TEXT
  5
925
  8
3
 10
132.42416548854729
 20
195.9406329884448
 30
0.0
 40
1.792
  1
M8 X 1.25
  7
ROMANS
 72
     1
 11
139.97616548854731
 21
195.9406329884448
 31
0.0
  0
LINE
  5
926
  8
0
 10
128.89104032010641
 20
193.9136967800419
 30
0.0
 11
134.4336029043269
 21
184.31369678004191
 31
0.0
  0
LINE
  5
927
  8
0
 10
134.4336029043269
 20
203.5136967800419
 30
0.0
 11
128.89104032010641
 21
193.9136967800419
 31
0.0
  0
CIRCLE
  5
928
  8
0
 10
139.97616548854731
 20
193.9136967800419
 30
0.0
 40
9.3439999999999994
  0
LINE
  5
929
  8
0
 10
129.16016548854731
 20
206.713696780042
 30
0.0
 11
162.77296548854719
 21
206.713696780042
 31
0.0
  0
LINE
  5
92A
  8
0
 10
129.16016548854731
 20
181.11369678004189
 30
0.0
 11
162.77296548854719
 21
181.11369678004189
 31
0.0
  0
LINE
  5
92B
  8
0
 10
127.1121654885474
 20
183.16169678004229
 30
0.0
 11
127.1121654885474
 21
204.6656967800416
 31
0.0
  0
LINE
  5
92C
  8
0
 10
127.1121654885474
 20
183.16169678004229
 30
0.0
 11
129.16016548854731
 21
181.11369678004189
 31
0.0
  0
LINE
  5
92D
  8
0
 10
129.16016548854731
 20
206.713696780042
 30
0.0
 11
127.1121654885474
 21
204.6656967800416
 31
0.0
  0
LINE
  5
92E
  8
0
 10
159.9697654885473
 20
209.9136967800419
 30
0.0
 11
196.36659728885229
 21
216.3314402387434
 31
0.0
  0
LINE
  5
92F
  8
0
 10
154.05841715147889
 20
216.99477947093689
 30
0.0
 11
201.56652112152099
 21
225.3717400031579
 31
0.0
  0
LINE
  5
930
  8
0
 10
159.9697654885473
 20
177.9136967800419
 30
0.0
 11
196.36659728885229
 21
171.49595332134049
 31
0.0
  0
LINE
  5
931
  8
0
 10
156.76976548854731
 20
193.9136967800419
 30
0.0
 11
156.76976548854731
 21
206.713696780042
 31
0.0
  0
LINE
  5
932
  8
0
 10
151.06129065698809
 20
193.9136967800419
 30
0.0
 11
145.5187280727676
 21
203.5136967800419
 31
0.0
  0
LINE
  5
933
  8
0
 10
162.77296548854719
 20
181.11369678004189
 30
0.0
 11
162.77296548854719
 21
206.713696780042
 31
0.0
  0
LINE
  5
934
  8
0
 10
145.5187280727676
 20
184.31369678004191
 30
0.0
 11
151.06129065698809
 21
193.9136967800419
 31
0.0
  0
LINE
  5
935
  8
0
 10
134.4336029043269
 20
184.31369678004191
 30
0.0
 11
145.5187280727676
 21
184.31369678004191
 31
0.0
  0
ARC
  5
936
  8
0
 10
155.16976548854711
 20
177.13538370842511
 30
0.0
 40
6.4000000000000004
 50
180.0
 51
260.0
  0
LINE
  5
937
  8
0
 10
148.76976548854711
 20
181.11369678004189
 30
0.0
 11
148.76976548854711
 21
177.13538370842511
 31
0.0
  0
TEXT
  5
938
  8
3
 10
135.154832155214
 20
190.5090559419456
 30
0.0
 40
1.792
  1
5 N m
  7
ROMANS
 72
     1
 11
139.97616548854731
 21
190.5090559419456
 31
0.0
  0
TEXT
  5
939
  8
3
 10
134.8561654885473
 20
198.60099724566319
 30
0.0
 40
1.792
  1
325 Kg
  7
ROMANS
 72
     1
 11
139.97616548854731
 21
198.60099724566319
 31
0.0
  0
TEXT
  5
93A
  8
3
 10
134.81349882188059
 20
193.05857166710121
 30
0.0
 40
1.792
  1
TORQUE
  7
ROMANS
 72
     1
 11
139.97616548854731
 21
193.05857166710121
 31
0.0
  0
ARC
  5
93B
  8
3
 10
139.14243652910901
 20
187.55472880799499
 30
0.0
 40
1.314239999999999
 50
90.0
 51
270.0
  0
ARC
  5
93C
  8
3
 10
139.14243652910901
 20
187.55472880799499
 30
0.0
 40
1.8902399999999999
 50
90.0
 51
270.0
  0
LINE
  5
93D
  8
3
 10
142.346916529109
 20
188.8689688079954
 30
0.0
 11
142.346916529109
 21
189.44496880799491
 31
0.0
  0
ARC
  5
93E
  8
3
 10
142.346916529109
 20
187.55472880799499
 30
0.0
 40
1.314239999999999
 50
90.0
 51
167.3415880109894
  0
ARC
  5
93F
  8
3
 10
142.346916529109
 20
187.55472880799499
 30
0.0
 40
1.8902399999999999
 50
90.0
 51
270.0
  0
LINE
  5
940
  8
3
 10
139.14243652910901
 20
188.8689688079954
 30
0.0
 11
139.14243652910901
 21
189.44496880799491
 31
0.0
  0
LINE
  5
941
  8
3
 10
141.06462062815629
 20
187.8427288079954
 30
0.0
 11
142.0589165291089
 21
187.8427288079954
 31
0.0
  0
LINE
  5
942
  8
3
 10
141.06462062815629
 20
187.26672880799521
 30
0.0
 11
142.0589165291089
 21
187.26672880799521
 31
0.0
  0
ARC
  5
943
  8
3
 10
142.346916529109
 20
187.55472880799499
 30
0.0
 40
1.314239999999999
 50
192.6584119890106
 51
270.0
  0
LINE
  5
944
  8
3
 10
139.14243652910901
 20
186.24048880799529
 30
0.0
 11
139.14243652910901
 21
185.6644888079951
 31
0.0
  0
LINE
  5
945
  8
3
 10
142.0589165291089
 20
187.26672880799521
 30
0.0
 11
142.0589165291089
 21
187.8427288079954
 31
0.0
  0
LINE
  5
946
  8
3
 10
142.346916529109
 20
186.24048880799529
 30
0.0
 11
142.346916529109
 21
185.6644888079951
 31
0.0
  0
CIRCLE
  5
947
  8
3
 10
141.23394698560639
 20
191.34491726484339
 30
0.0
 40
0.2964951356947495
  0
LINE
  5
948
  8
0
 10
156.76976548854731
 20
193.9136967800419
 30
0.0
 11
156.76976548854731
 21
181.11369678004189
 31
0.0
  0
ARC
  5
949
  8
0
 10
159.9697654885473
 20
181.11369678004189
 30
0.0
 40
3.2000000000000002
 50
180.0
 51
269.9999999999996
  0
LINE
  5
94A
  8
0
 10
145.5187280727676
 20
203.5136967800419
 30
0.0
 11
134.4336029043269
 21
203.5136967800419
 31
0.0
  0
LINE
  5
94B
  8
0
 10
148.76976548854711
 20
206.713696780042
 30
0.0
 11
148.76976548854711
 21
210.69200985165881
 31
0.0
  0
ARC
  5
94C
  8
0
 10
155.16976548854711
 20
210.69200985165881
 30
0.0
 40
6.4000000000000004
 50
100.0
 51
180.0
  0
ARC
  5
94D
  8
0
 10
159.9697654885473
 20
206.713696780042
 30
0.0
 40
3.2000000000000002
 50
90.000000000000384
 51
180.0
  0
ARC
  5
94E
  8
0
 10
190.3697654885471
 20
193.9136967800419
 30
0.0
 40
25.600000000000001
 50
0.0
 51
50.047623467444929
  0
ARC
  5
94F
  8
0
 10
198.58929396298899
 20
184.10149255989671
 30
0.0
 40
12.800000000000001
 50
260.0
 51
309.95237653255509
  0
ARC
  5
950
  8
0
 10
190.3697654885471
 20
193.9136967800419
 30
0.0
 40
25.600000000000001
 50
309.95237653255509
 51
0.0
  0
TEXT
  5
951
  8
3
 10
216.60131252498979
 20
180.09387572943459
 30
0.0
 40
4.6079999999999988
  1
S
 50
237.97373108247999
  7
ROMANS
 72
     1
 11
215.43766521065979
 21
178.2335492194448
 31
0.0
  0
ARC
  5
952
  8
0
 10
198.58929396298899
 20
203.72590100018721
 30
0.0
 40
12.800000000000001
 50
50.047623467444929
 51
100.0
  0
TEXT
  5
953
  8
3
 10
214.36890635818239
 20
211.25345333886949
 30
0.0
 40
4.6079999999999988
  1
J
 50
302.87497196404507
  7
ROMANS
 72
     1
 11
215.20265888403691
 21
209.96343290274021
 31
0.0
  0
ARC
  5
954
  8
0
 10
204.9005661327262
 20
206.46343114532351
 30
0.0
 40
19.199999999999999
 50
40.816002027702282
 51
99.999999999999844
  0
ARC
  5
955
  8
2
 10
219.9697654885473
 20
94.040340376355957
 30
0.0
 40
4.0
 50
85.415114448087309
 51
270.00000000000068
  0
LINE
  5
956
  8
0
 10
219.9697654885473
 20
90.040340376355957
 30
0.0
 11
224.76976548854731
 21
90.040340376355957
 31
0.0
  0
LINE
  5
957
  8
0
 10
152.77616548854729
 20
98.027540376355887
 30
0.0
 11
224.76976548854731
 21
98.027540376355887
 31
0.0
  0
LINE
  5
958
  8
0
 10
148.70576548854731
 20
89.809940376355954
 30
0.0
 11
127.1761654885473
 21
89.809940376355954
 31
0.0
  0
LINE
  5
959
  8
0
 10
148.70576548854731
 20
98.257940376356103
 30
0.0
 11
127.1761654885473
 21
98.257940376356103
 31
0.0
  0
LINE
  5
95A
  8
0
 10
152.77616548854729
 20
99.23074037635601
 30
0.0
 11
128.64816548854739
 21
99.23074037635601
 31
0.0
  0
LINE
  5
95B
  8
0
 10
156.7632195545259
 20
104.03074037635599
 30
0.0
 11
128.64816548854739
 21
104.03074037635599
 31
0.0
  0
LINE
  5
95C
  8
0
 10
152.77616548854729
 20
88.837140376356047
 30
0.0
 11
128.64816548854739
 21
88.837140376356047
 31
0.0
  0
LINE
  5
95D
  8
0
 10
156.7632195545259
 20
84.037140376356035
 30
0.0
 11
128.64816548854739
 21
84.037140376356035
 31
0.0
  0
LINE
  5
95E
  8
0
 10
129.96656548854719
 20
82.808340376355986
 30
0.0
 11
149.98576548854749
 21
82.808340376355986
 31
0.0
  0
LINE
  5
95F
  8
0
 10
129.96656548854719
 20
79.608340376355983
 30
0.0
 11
149.98576548854749
 21
79.608340376355983
 31
0.0
  0
LINE
  5
960
  8
0
 10
149.32016548854739
 20
112.03074037635599
 30
0.0
 11
130.6321654885476
 21
112.03074037635621
 31
0.0
  0
ARC
  5
961
  8
0
 10
131.70973553617841
 20
112.21569749739611
 30
0.0
 40
8.1849571210401457
 50
270.00000000000028
 51
289.43817139999811
  0
ARC
  5
962
  8
0
 10
131.70973553617841
 20
103.84578325531599
 30
0.0
 40
8.1849571210401457
 50
70.561828600001888
 51
89.999999999999716
  0
LINE
  5
963
  8
0
 10
150.3697654885475
 20
79.992340376355983
 30
0.0
 11
129.5825654885472
 21
79.992340376355983
 31
0.0
  0
LINE
  5
964
  8
0
 10
129.5825654885472
 20
82.424340376355971
 30
0.0
 11
150.3697654885475
 21
82.424340376355971
 31
0.0
  0
LINE
  5
965
  8
0
 10
127.1761654885473
 20
98.257940376356103
 30
0.0
 11
127.1761654885473
 21
89.809940376355954
 31
0.0
  0
LINE
  5
966
  8
0
 10
127.1121654885474
 20
87.301140376355974
 30
0.0
 11
127.1121654885474
 21
85.573140376356093
 31
0.0
  0
ARC
  5
967
  8
0
 10
128.64816548854739
 20
85.573140376356093
 30
0.0
 40
1.536
 50
180.0000000000004
 51
270.0
  0
LINE
  5
968
  8
0
 10
129.5825654885472
 20
79.992340376355983
 30
0.0
 11
129.5825654885472
 21
82.424340376355971
 31
0.0
  0
LINE
  5
969
  8
0
 10
129.5825654885472
 20
79.992340376355983
 30
0.0
 11
129.96656548854719
 21
79.608340376355983
 31
0.0
  0
LINE
  5
96A
  8
0
 10
129.96656548854719
 20
82.808340376355986
 30
0.0
 11
129.5825654885472
 21
82.424340376355971
 31
0.0
  0
ARC
  5
96B
  8
0
 10
131.63056548854749
 20
83.192340376356015
 30
0.0
 40
0.384
 50
270.00000000000051
 51
0.0000000000000509
  0
LINE
  5
96C
  8
0
 10
132.0145654885475
 20
84.037140376356035
 30
0.0
 11
132.0145654885475
 21
83.192340376356015
 31
0.0
  0
ARC
  5
96D
  8
0
 10
128.64816548854739
 20
87.301140376355974
 30
0.0
 40
1.536
 50
90.0
 51
180.0000000000002
  0
LINE
  5
96E
  8
0
 10
132.0145654885475
 20
89.809940376355954
 30
0.0
 11
132.0145654885475
 21
88.837140376356047
 31
0.0
  0
LINE
  5
96F
  8
0
 10
128.89104032010661
 20
111.56420729355069
 30
0.0
 11
128.89104032010661
 21
104.49727345916131
 31
0.0
  0
ARC
  5
970
  8
0
 10
128.64816548854739
 20
102.49474037635611
 30
0.0
 40
1.536
 50
90.000000000000028
 51
179.9999999999996
  0
ARC
  5
971
  8
0
 10
128.64816548854739
 20
100.766740376356
 30
0.0
 40
1.536
 50
179.9999999999998
 51
270.0
  0
LINE
  5
972
  8
0
 10
127.1121654885474
 20
100.766740376356
 30
0.0
 11
127.1121654885474
 21
102.49474037635611
 31
0.0
  0
LINE
  5
973
  8
0
 10
132.0145654885475
 20
98.257940376356103
 30
0.0
 11
132.0145654885475
 21
99.23074037635601
 31
0.0
  0
LINE
  5
974
  8
0
 10
130.63216548854751
 20
104.03074037635599
 30
0.0
 11
128.89104032010681
 21
104.49727345916131
 31
0.0
  0
LINE
  5
975
  8
0
 10
130.63216548854751
 20
104.03074037635599
 30
0.0
 11
131.63056548854749
 21
104.03074037635599
 31
0.0
  0
LINE
  5
976
  8
0
 10
130.63216548854751
 20
112.03074037635599
 30
0.0
 11
128.89104032010681
 21
111.56420729355069
 31
0.0
  0
LINE
  5
977
  8
0
 10
219.9697654885473
 20
90.040340376355957
 30
0.0
 11
152.77616548854729
 21
90.040340376355957
 31
0.0
  0
ARC
  5
978
  8
2
 10
152.77616548854729
 20
94.033940376356099
 30
0.0
 40
5.1967999999999996
 50
309.78304546364609
 51
50.216954536353448
  0
ARC
  5
979
  8
0
 10
152.77616548854729
 20
94.033940376356099
 30
0.0
 40
3.9935999999999998
 50
90.0
 51
270.0000000000008
  0
LINE
  5
97A
  8
2
 10
162.77296548854741
 20
90.046886310377545
 30
0.0
 11
162.77296548854741
 21
98.020994442334484
 31
0.0
  0
LINE
  5
97B
  8
1
 10
139.97616548854731
 20
58.232020376356033
 30
0.0
 11
139.97616548854731
 21
117.03074037635611
 31
0.0
  0
ARC
  5
97C
  8
2
 10
152.77616548854729
 20
94.033940376356099
 30
0.0
 40
3.9935999999999998
 50
269.9999999999992
 51
90.0
  0
LINE
  5
97D
  8
0
 10
148.70576548854731
 20
89.809940376355954
 30
0.0
 11
148.70576548854731
 21
98.257940376356103
 31
0.0
  0
ARC
  5
97E
  8
0
 10
152.77616548854729
 20
94.033940376356099
 30
0.0
 40
5.1967999999999996
 50
270.0
 51
309.78304546364723
  0
LINE
  5
97F
  8
0
 10
135.97616548854731
 20
79.608340376355983
 30
0.0
 11
135.97616548854731
 21
64.25602037635602
 31
0.0
  0
LINE
  5
980
  8
0
 10
143.97616548854731
 20
79.608340376355983
 30
0.0
 11
143.97616548854731
 21
64.25602037635602
 31
0.0
  0
LINE
  5
981
  8
3
 10
136.74416548854731
 20
79.608340376355983
 30
0.0
 11
136.74416548854731
 21
63.48802037635599
 31
0.0
  0
LINE
  5
982
  8
3
 10
143.20816548854731
 20
79.608340376355983
 30
0.0
 11
143.20816548854731
 21
63.48802037635599
 31
0.0
  0
LINE
  5
983
  8
0
 10
137.00016548854731
 20
63.232020376356047
 30
0.0
 11
139.97616548854731
 21
63.232020376356047
 31
0.0
  0
LINE
  5
984
  8
0
 10
135.97616548854731
 20
64.25602037635602
 30
0.0
 11
143.97616548854731
 21
64.25602037635602
 31
0.0
  0
LINE
  5
985
  8
0
 10
137.00016548854731
 20
63.232020376356047
 30
0.0
 11
135.97616548854731
 21
64.25602037635602
 31
0.0
  0
LINE
  5
986
  8
0
 10
142.95216548854731
 20
63.232020376356047
 30
0.0
 11
139.97616548854731
 21
63.232020376356047
 31
0.0
  0
LINE
  5
987
  8
0
 10
143.97616548854731
 20
64.25602037635602
 30
0.0
 11
142.95216548854731
 21
63.232020376356047
 31
0.0
  0
ARC
  5
988
  8
0
 10
148.32176548854719
 20
83.192340376356015
 30
0.0
 40
0.384
 50
179.99999999999989
 51
269.99999999999949
  0
LINE
  5
989
  8
0
 10
147.9377654885472
 20
84.037140376356035
 30
0.0
 11
147.9377654885472
 21
83.192340376356015
 31
0.0
  0
LINE
  5
98A
  8
0
 10
150.3697654885475
 20
79.992340376355983
 30
0.0
 11
150.3697654885475
 21
82.424340376355971
 31
0.0
  0
LINE
  5
98B
  8
0
 10
149.98576548854749
 20
79.608340376355983
 30
0.0
 11
150.3697654885475
 21
79.992340376355983
 31
0.0
  0
LINE
  5
98C
  8
0
 10
150.3697654885475
 20
82.424340376355971
 30
0.0
 11
149.98576548854749
 21
82.808340376355986
 31
0.0
  0
LINE
  5
98D
  8
0
 10
147.9377654885472
 20
89.809940376355954
 30
0.0
 11
147.9377654885472
 21
88.837140376356047
 31
0.0
  0
LINE
  5
98E
  8
0
 10
162.54802349649859
 20
89.503828302426186
 30
0.0
 11
157.30627756247699
 21
84.262082368404691
 31
0.0
  0
ARC
  5
98F
  8
0
 10
156.7632195545259
 20
84.805140376356064
 30
0.0
 40
0.768
 50
269.99999999999989
 51
314.99999999999989
  0
ARC
  5
990
  8
0
 10
162.00496548854741
 20
90.046886310377545
 30
0.0
 40
0.768
 50
315.00000000000011
 51
0.0
  0
ARC
  5
991
  8
0
 10
152.77616548854729
 20
94.033940376356099
 30
0.0
 40
5.1967999999999996
 50
50.216954536352191
 51
90.000000000000028
  0
LINE
  5
992
  8
0
 10
151.06129065698829
 20
111.56420729355069
 30
0.0
 11
151.06129065698829
 21
104.49727345916131
 31
0.0
  0
LINE
  5
993
  8
0
 10
145.5187280727678
 20
111.56420729355069
 30
0.0
 11
145.5187280727678
 21
104.49727345916131
 31
0.0
  0
LINE
  5
994
  8
0
 10
134.4336029043271
 20
111.56420729355069
 30
0.0
 11
134.4336029043271
 21
104.49727345916131
 31
0.0
  0
ARC
  5
995
  8
0
 10
139.97616548854731
 20
137.18771708133571
 30
0.0
 40
33.156976704979698
 50
260.3771894464652
 51
279.62281055353492
  0
LINE
  5
996
  8
0
 10
147.93776548854731
 20
98.257940376356103
 30
0.0
 11
147.93776548854731
 21
99.23074037635601
 31
0.0
  0
LINE
  5
997
  8
0
 10
149.32016548854739
 20
104.03074037635599
 30
0.0
 11
151.06129065698829
 21
104.49727345916131
 31
0.0
  0
ARC
  5
998
  8
0
 10
148.2425954409164
 20
112.21569749739611
 30
0.0
 40
8.1849571210401457
 50
250.5618286000022
 51
270.00000000000011
  0
LINE
  5
999
  8
0
 10
149.32016548854759
 20
104.03074037635599
 30
0.0
 11
148.3217654885475
 21
104.03074037635599
 31
0.0
  0
ARC
  5
99A
  8
0
 10
139.97616548854731
 20
78.873763671376423
 30
0.0
 40
33.156976704979698
 50
80.377189446465195
 51
99.622810553534819
  0
LINE
  5
99B
  8
0
 10
139.97616548854731
 20
111.97064971053901
 30
0.0
 11
140.03625615436451
 21
112.03074037635621
 31
0.0
  0
LINE
  5
99C
  8
0
 10
149.32016548854739
 20
112.03074037635599
 30
0.0
 11
151.06129065698829
 21
111.56420729355069
 31
0.0
  0
ARC
  5
99D
  8
0
 10
148.2425954409164
 20
103.84578325531579
 30
0.0
 40
8.1849571210401457
 50
89.999999999999943
 51
109.4381713999978
  0
LINE
  5
99E
  8
0
 10
162.54802349649859
 20
98.564052450285658
 30
0.0
 11
157.30627756247699
 21
103.80579838430729
 31
0.0
  0
ARC
  5
99F
  8
0
 10
162.00496548854741
 20
98.020994442334484
 30
0.0
 40
0.768
 50
0.0
 51
44.999999999999893
  0
ARC
  5
9A0
  8
0
 10
156.7632195545259
 20
103.26274037635589
 30
0.0
 40
0.768
 50
45.000000000000099
 51
90.000000000000057
  0
ARC
  5
9A1
  8
0
 10
224.76976548854731
 20
94.027540376355887
 30
0.0
 40
4.0
 50
0.0000000000001781
 51
89.999999999999915
  0
ARC
  5
9A2
  8
0
 10
224.76976548854731
 20
94.040340376355957
 30
0.0
 40
4.0
 50
270.00000000000011
 51
359.99999999999977
  0
LINE
  5
9B9
  8
1
 10
233.76976321299139
 20
94.033940376356071
 30
0.0
 11
143.78256548854731
 21
94.033940376356099
 31
0.0
  0
LINE
  5
9BA
  8
1
 10
152.77616548854729
 20
103.0275403763561
 30
0.0
 11
152.77616548854729
 21
85.040340376356099
 31
0.0
  0
LINE
  5
9BC
  8
1
 10
233.76976548854711
 20
193.9136967800419
 30
0.0
 11
122.1121654885474
 21
193.9136967800419
 31
0.0
  0
LINE
  5
9BD
  8
1
 10
190.3697654885471
 20
224.5136967800419
 30
0.0
 11
190.3697654885471
 21
163.31369678004191
 31
0.0
  0
TEXT
  5
AE7
  8
0
 62
     3
 10
0.0
 20
0.0
 30
0.0
 40
10.0
  1
HR8SP
  7
STANDARD1
  0
ENDSEC
  0
EOF
