  0
SECTION
  2
HEADER
  9
$ACADVER
  1
AC1009
  9
$INSBASE
 10
0.0
 20
0.0
 30
0.0
  9
$EXTMIN
 10
0.0
 20
-2.960436562073669
 30
0.0
  9
$EXTMAX
 10
239.4070181087047
 20
166.0012819562686
 30
0.0
  9
$LIMMIN
 10
0.0
 20
0.0
  9
$LIMMAX
 10
1125.0
 20
810.0
  9
$ORTHOMODE
 70
     1
  9
$REGENMODE
 70
     1
  9
$FILLMODE
 70
     1
  9
$QTEXTMODE
 70
     0
  9
$MIRRTEXT
 70
     0
  9
$DRAGMODE
 70
     2
  9
$LTSCALE
 40
30.0
  9
$OSMODE
 70
    55
  9
$ATTMODE
 70
     1
  9
$TEXTSIZE
 40
0.2
  9
$TRACEWID
 40
0.05
  9
$TEXTSTYLE
  7
STANDARD
  9
$CLAYER
  8
0
  9
$CELTYPE
  6
BYLAYER
  9
$CECOLOR
 62
   256
  9
$DIMSCALE
 40
3.0
  9
$DIMASZ
 40
3.0
  9
$DIMEXO
 40
2.0
  9
$DIMDLI
 40
0.38
  9
$DIMRND
 40
0.0
  9
$DIMDLE
 40
0.0
  9
$DIMEXE
 40
2.0
  9
$DIMTP
 40
0.0
  9
$DIMTM
 40
0.0
  9
$DIMTXT
 40
3.2000000000000002
  9
$DIMCEN
 40
0.0
  9
$DIMTSZ
 40
0.0
  9
$DIMTOL
 70
     0
  9
$DIMLIM
 70
     0
  9
$DIMTIH
 70
     0
  9
$DIMTOH
 70
     0
  9
$DIMSE1
 70
     0
  9
$DIMSE2
 70
     0
  9
$DIMTAD
 70
     1
  9
$DIMZIN
 70
     0
  9
$DIMBLK
  1

  9
$DIMASO
 70
     0
  9
$DIMSHO
 70
     0
  9
$DIMPOST
  1

  9
$DIMAPOST
  1

  9
$DIMALT
 70
     0
  9
$DIMALTD
 70
     2
  9
$DIMALTF
 40
25.399999999999999
  9
$DIMLFAC
 40
1.0
  9
$DIMTOFL
 70
     1
  9
$DIMTVP
 40
1.6000000000000001
  9
$DIMTIX
 70
     1
  9
$DIMSOXD
 70
     0
  9
$DIMSAH
 70
     0
  9
$DIMBLK1
  1

  9
$DIMBLK2
  1

  9
$DIMSTYLE
  2
STANDARD
  9
$DIMCLRD
 70
     0
  9
$DIMCLRE
 70
     0
  9
$DIMCLRT
 70
     0
  9
$DIMTFAC
 40
1.0
  9
$DIMGAP
 40
0.09
  9
$LUNITS
 70
     2
  9
$LUPREC
 70
     4
  9
$SKETCHINC
 40
0.1
  9
$FILLETRAD
 40
0.0
  9
$AUNITS
 70
     0
  9
$AUPREC
 70
     4
  9
$MENU
  1
E:\r13\win\SUPPORT\ACAD
  9
$ELEVATION
 40
0.0
  9
$PELEVATION
 40
0.0
  9
$THICKNESS
 40
0.0
  9
$LIMCHECK
 70
     0
  9
$BLIPMODE
 70
     0
  9
$CHAMFERA
 40
0.0
  9
$CHAMFERB
 40
0.0
  9
$SKPOLY
 70
     0
  9
$TDCREATE
 40
2449840.6097916672
  9
$TDUPDATE
 40
2456598.6894620829
  9
$TDINDWG
 40
0.0465245139
  9
$TDUSRTIMER
 40
0.0465245139
  9
$USRTIMER
 70
     1
  9
$ANGBASE
 50
0.0
  9
$ANGDIR
 70
     0
  9
$PDMODE
 70
     0
  9
$PDSIZE
 40
0.0
  9
$PLINEWID
 40
0.0
  9
$COORDS
 70
     1
  9
$SPLFRAME
 70
     0
  9
$SPLINETYPE
 70
     6
  9
$SPLINESEGS
 70
     8
  9
$ATTDIA
 70
     0
  9
$ATTREQ
 70
     1
  9
$HANDLING
 70
     1
  9
$HANDSEED
  5
14AA
  9
$SURFTAB1
 70
     6
  9
$SURFTAB2
 70
     6
  9
$SURFTYPE
 70
     6
  9
$SURFU
 70
     6
  9
$SURFV
 70
     6
  9
$UCSNAME
  2

  9
$UCSORG
 10
0.0
 20
0.0
 30
0.0
  9
$UCSXDIR
 10
1.0
 20
0.0
 30
0.0
  9
$UCSYDIR
 10
0.0
 20
1.0
 30
0.0
  9
$PUCSNAME
  2

  9
$PUCSORG
 10
0.0
 20
0.0
 30
0.0
  9
$PUCSXDIR
 10
1.0
 20
0.0
 30
0.0
  9
$PUCSYDIR
 10
0.0
 20
1.0
 30
0.0
  9
$USERI1
 70
     0
  9
$USERI2
 70
     1
  9
$USERI3
 70
     0
  9
$USERI4
 70
     0
  9
$USERI5
 70
     0
  9
$USERR1
 40
0.0
  9
$USERR2
 40
0.0
  9
$USERR3
 40
0.0
  9
$USERR4
 40
0.0
  9
$USERR5
 40
0.0
  9
$WORLDVIEW
 70
     1
  9
$SHADEDGE
 70
     3
  9
$SHADEDIF
 70
    70
  9
$TILEMODE
 70
     1
  9
$MAXACTVP
 70
    16
  9
$PLIMCHECK
 70
     0
  9
$PEXTMIN
 10
1.0000000000000000E+020
 20
1.0000000000000000E+020
 30
1.0000000000000000E+020
  9
$PEXTMAX
 10
-1.0000000000000000E+020
 20
-1.0000000000000000E+020
 30
-1.0000000000000000E+020
  9
$PLIMMIN
 10
0.0
 20
0.0
  9
$PLIMMAX
 10
12.0
 20
9.0
  9
$UNITMODE
 70
     0
  9
$VISRETAIN
 70
     0
  9
$PLINEGEN
 70
     0
  9
$PSLTSCALE
 70
     0
  0
ENDSEC
  0
SECTION
  2
TABLES
  0
TABLE
  2
VPORT
 70
     1
  0
VPORT
  2
*ACTIVE
 70
     0
 10
0.0
 20
0.0
 11
1.0
 21
1.0
 12
562.48283517195705
 22
526.81678278193976
 13
0.0
 23
0.0
 14
30.0
 24
30.0
 15
30.0
 25
30.0
 16
0.0
 26
0.0
 36
1.0
 17
0.0
 27
0.0
 37
0.0
 40
1068.9603418992519
 41
1.7807262569832401
 42
50.0
 43
0.0
 44
0.0
 50
0.0
 51
0.0
 71
     0
 72
   500
 73
     1
 74
     0
 75
     0
 76
     0
 77
     0
 78
     2
  0
ENDTAB
  0
TABLE
  2
LTYPE
 70
     4
  0
LTYPE
  2
CONTINUOUS
 70
     0
  3
Solid Line
 72
    65
 73
     0
 40
0.0
  0
LTYPE
  2
CENTER
 70
     0
  3
____ _ ____ _ ____ _ ____ _ ____ _ ____ _ ____
 72
    65
 73
     4
 40
2.0
 49
1.25
 49
-0.25
 49
0.25
 49
-0.25
  0
LTYPE
  2
HIDDEN
 70
     0
  3
_ _ _ _ _ _ _ _ _ _ _ _ _ _ _ _ _ _ _ _ _ _ _
 72
    65
 73
     2
 40
0.375
 49
0.25
 49
-0.125
  0
LTYPE
  2
PHANTOM2
 70
     0
  3
___ _ _ ___ _ _ ___ _ _ ___ _ _
 72
    65
 73
     6
 40
1.25
 49
0.625
 49
-0.125
 49
0.125
 49
-0.125
 49
0.125
 49
-0.125
  0
ENDTAB
  0
TABLE
  2
LAYER
 70
     4
  0
LAYER
  2
0
 70
     0
 62
     7
  6
CONTINUOUS
  0
LAYER
  2
1
 70
     0
 62
     1
  6
CENTER
  0
LAYER
  2
2
 70
     0
 62
     2
  6
HIDDEN
  0
LAYER
  2
3
 70
     0
 62
     3
  6
CONTINUOUS
  0
ENDTAB
  0
TABLE
  2
STYLE
 70
     2
  0
STYLE
  2
STANDARD
 70
     0
 40
0.0
 41
1.0
 50
0.0
 71
     0
 42
0.2
  3
TXT
  4
BIGFONT
  0
STYLE
  2
STANDARD1
 70
     0
 40
0.0
 41
1.0
 50
0.0
 71
     0
 42
3.0
  3
txt
  4

  0
ENDTAB
  0
TABLE
  2
VIEW
 70
     1
  0
VIEW
  2
ALL
 70
     0
 40
810.0
 10
662.97478991596643
 20
405.0
 41
0.0
 11
0.0
 21
0.0
 31
1.0
 12
0.0
 22
0.0
 32
0.0
 42
0.0
 43
0.0
 44
0.0
 50
0.0
 71
     0
  0
ENDTAB
  0
TABLE
  2
UCS
 70
     0
  0
ENDTAB
  0
TABLE
  2
APPID
 70
     3
  0
APPID
  2
ACAD
 70
     0
  0
APPID
  2
ACAD_MLEADERVER
 70
     0
  0
APPID
  2
ACAD_NAV_VCDISPLAY
 70
     0
  0
ENDTAB
  0
TABLE
  2
DIMSTYLE
 70
     1
  0
DIMSTYLE
  2
STANDARD
 70
     0
  3

  4

  5

  6

  7

 40
1.0
 41
0.18
 42
0.0625
 43
0.38
 44
0.18
 45
0.0
 46
0.0
 47
0.0
 48
0.0
140
0.18
141
0.09
142
0.0
143
25.399999999999999
144
1.0
145
0.0
146
1.0
147
0.09
 71
     0
 72
     0
 73
     1
 74
     1
 75
     0
 76
     0
 77
     0
 78
     0
170
     0
171
     2
172
     0
173
     0
174
     0
175
     0
176
     0
177
     0
178
     0
  0
ENDTAB
  0
ENDSEC
  0
SECTION
  2
BLOCKS
  0
BLOCK
  8
0
  2
$MODEL_SPACE
 70
     0
 10
0.0
 20
0.0
 30
0.0
  3
$MODEL_SPACE
  1

  0
ENDBLK
  5
1D4
  8
0
  0
BLOCK
 67
     1
  8
0
  2
$PAPER_SPACE
 70
     0
 10
0.0
 20
0.0
 30
0.0
  3
$PAPER_SPACE
  1

  0
ENDBLK
  5
1D2
 67
     1
  8
0
  0
ENDSEC
  0
SECTION
  2
ENTITIES
  0
LINE
  5
FEC
  8
0
 10
126.51451810870481
 20
28.66062395626853
 30
0.0
 11
133.7785181087047
 21
28.66062395626853
 31
0.0
  0
LINE
  5
FED
  8
1
 10
146.70701810870489
 20
8.6606239562685232
 30
0.0
 11
146.70701810870489
 21
97.787216956268594
 31
0.0
  0
LINE
  5
FEE
  8
0
 10
133.7785181087047
 20
28.66062395626853
 30
0.0
 11
133.7785181087047
 21
53.298623956268557
 31
0.0
  0
LINE
  5
FEF
  8
0
 10
126.51451810870481
 20
28.66062395626853
 30
0.0
 11
126.51451810870481
 21
40.598623956268511
 31
0.0
  0
LINE
  5
FF0
  8
0
 10
126.51451810870481
 20
40.598623956268511
 30
0.0
 11
125.86651810870489
 21
41.246623956268529
 31
0.0
  0
LINE
  5
FF1
  8
0
 10
133.7785181087047
 20
53.298623956268557
 30
0.0
 11
135.3915181087047
 21
54.91162395626862
 31
0.0
  0
LINE
  5
FF2
  8
0
 10
135.3915181087047
 20
72.082123956268561
 30
0.0
 11
135.3915181087047
 21
54.91162395626862
 31
0.0
  0
LINE
  5
FF3
  8
0
 10
125.86651810870489
 20
72.082123956268561
 30
0.0
 11
125.86651810870489
 21
41.246623956268529
 31
0.0
  0
LINE
  5
FF4
  8
0
 10
167.54751810870491
 20
72.082123956268561
 30
0.0
 11
167.54751810870491
 21
41.246623956268529
 31
0.0
  0
LINE
  5
FF5
  8
0
 10
158.02251810870479
 20
72.082123956268561
 30
0.0
 11
158.02251810870479
 21
54.91162395626862
 31
0.0
  0
LINE
  5
FF6
  8
0
 10
159.6355181087049
 20
53.298623956268557
 30
0.0
 11
158.02251810870479
 21
54.91162395626862
 31
0.0
  0
LINE
  5
FF7
  8
0
 10
166.8995181087048
 20
40.598623956268511
 30
0.0
 11
167.54751810870491
 21
41.246623956268529
 31
0.0
  0
LINE
  5
FF8
  8
0
 10
166.8995181087048
 20
28.66062395626853
 30
0.0
 11
166.8995181087048
 21
40.598623956268511
 31
0.0
  0
LINE
  5
FF9
  8
0
 10
159.6355181087049
 20
28.66062395626853
 30
0.0
 11
159.6355181087049
 21
53.298623956268557
 31
0.0
  0
ARC
  5
FFA
  8
0
 10
146.70701810870489
 20
72.082123956268561
 30
0.0
 40
20.840499999999999
 50
0.0
 51
180.0
  0
ARC
  5
FFB
  8
0
 10
146.70701810870489
 20
72.082123956268561
 30
0.0
 40
11.3155
 50
0.0
 51
180.0
  0
LINE
  5
FFC
  8
0
 10
159.6355181087049
 20
28.66062395626853
 30
0.0
 11
166.8995181087048
 21
28.66062395626853
 31
0.0
  0
LINE
  5
FFD
  8
1
 10
171.54751810870491
 20
72.082123956268561
 30
0.0
 11
121.86651810870489
 21
72.082123956268561
 31
0.0
  0
ARC
  5
FFE
  8
1
 10
146.70701810870489
 20
72.082123956268561
 30
0.0
 40
16.077999999999999
 50
0.0
 51
180.0
  0
LINE
  5
FFF
  8
1
 10
130.62901810870471
 20
72.082123956268561
 30
0.0
 11
130.62901810870471
 21
26.325916956268539
 31
0.0
  0
LINE
  5
1000
  8
1
 10
162.78501810870489
 20
72.082123956268561
 30
0.0
 11
162.78501810870489
 21
26.325916956268539
 31
0.0
  0
ARC
  5
1001
  8
0
 10
226.70701810870469
 20
88.160123956268535
 30
0.0
 40
4.7625000000000002
 50
0.0
 51
180.0
  0
LINE
  5
1002
  8
0
 10
221.9445181087049
 20
88.160123956268535
 30
0.0
 11
221.9445181087049
 21
33.423123956268569
 31
0.0
  0
LINE
  5
1003
  8
0
 10
231.4695181087047
 20
88.160123956268535
 30
0.0
 11
231.4695181087047
 21
33.423123956268569
 31
0.0
  0
ARC
  5
1004
  8
0
 10
226.70701810870469
 20
33.423123956268569
 30
0.0
 40
4.7625000000000002
 50
180.0
 51
0.0
  0
ARC
  5
1005
  8
2
 10
226.70701810870469
 20
88.160123956268535
 30
0.0
 40
4.7625000000000002
 50
180.0
 51
0.0
  0
LINE
  5
1006
  8
1
 10
226.70701810870469
 20
8.6606239562685232
 30
0.0
 11
226.70701810870469
 21
97.787216956268594
 31
0.0
  0
LINE
  5
1007
  8
0
 10
224.30862410870481
 20
40.598623956268511
 30
0.0
 11
229.10541210870471
 21
40.598623956268511
 31
0.0
  0
LINE
  5
1008
  8
0
 10
224.30862410870481
 20
29.308623956268551
 30
0.0
 11
224.30862410870481
 21
30.61169095626861
 31
0.0
  0
LINE
  5
1009
  8
0
 10
229.10541210870471
 20
29.308623956268551
 30
0.0
 11
229.10541210870471
 21
30.61169095626861
 31
0.0
  0
POLYLINE
  5
100A
  8
0
 66
     1
 10
0.0
 20
0.0
 30
0.0
  0
VERTEX
  5
100B
  8
0
 10
226.70701810870469
 20
41.246623956268529
 30
0.0
 42
0.027869
  0
VERTEX
  5
100C
  8
0
 10
225.7208711087049
 20
41.191614956268609
 30
0.0
 42
0.038126
  0
VERTEX
  5
100D
  8
0
 10
225.01109710870469
 20
41.056828956268532
 30
0.0
 42
0.078685
 70
     2
 50
195.119227
  0
VERTEX
  5
100E
  8
0
 10
224.4113891087047
 20
40.788348956268571
 30
0.0
 42
0.253432
 50
195.119227
  0
VERTEX
  5
100F
  8
0
 10
224.30862410870481
 20
40.598623956268511
 30
0.0
 42
0.253432
  0
SEQEND
  5
1010
  8
0
  0
POLYLINE
  5
1011
  8
0
 66
     1
 10
0.0
 20
0.0
 30
0.0
  0
VERTEX
  5
1012
  8
0
 10
229.10541210870471
 20
40.598623956268511
 30
0.0
 42
0.253432
  0
VERTEX
  5
1013
  8
0
 10
229.00264710870491
 20
40.788348956268571
 30
0.0
 42
0.078685
  0
VERTEX
  5
1014
  8
0
 10
228.40293910870469
 20
41.056828956268532
 30
0.0
 42
0.038126
 70
     2
 50
164.880773
  0
VERTEX
  5
1015
  8
0
 10
227.69316510870479
 20
41.191614956268609
 30
0.0
 42
0.027869
 50
164.880773
  0
VERTEX
  5
1016
  8
0
 10
226.70701810870469
 20
41.246623956268529
 30
0.0
 42
0.027869
  0
SEQEND
  5
1017
  8
0
  0
LINE
  5
1018
  8
1
 10
172.5856761087048
 20
140.1226239562686
 30
0.0
 11
120.8283601087048
 21
140.1226239562686
 31
0.0
  0
LINE
  5
1019
  8
0
 10
130.62901810870471
 20
144.8851239562685
 30
0.0
 11
162.78501810870489
 21
144.8851239562685
 31
0.0
  0
LINE
  5
101A
  8
0
 10
130.62901810870471
 20
135.3601239562685
 30
0.0
 11
162.78501810870489
 21
135.3601239562685
 31
0.0
  0
ARC
  5
101B
  8
0
 10
130.62901810870471
 20
140.1226239562686
 30
0.0
 40
4.7625000000000002
 50
90.0
 51
270.0
  0
ARC
  5
101C
  8
0
 10
162.78501810870489
 20
140.1226239562686
 30
0.0
 40
4.7625000000000002
 50
270.0
 51
90.0
  0
LINE
  5
101D
  8
1
 10
119.51451810870481
 20
33.829123956268631
 30
0.0
 11
173.8995181087048
 21
33.829123956268631
 31
0.0
  0
LINE
  5
101E
  8
0
 10
123.8905181087048
 20
29.816123956268601
 30
0.0
 11
123.8905181087048
 21
37.842123956268551
 31
0.0
  0
LINE
  5
101F
  8
0
 10
123.3905181087048
 20
30.316123956268601
 30
0.0
 11
123.8905181087048
 21
29.816123956268601
 31
0.0
  0
LINE
  5
1020
  8
0
 10
123.8905181087048
 20
37.842123956268551
 30
0.0
 11
123.3905181087048
 21
37.342123956268551
 31
0.0
  0
LINE
  5
1021
  8
0
 10
123.8905181087048
 20
37.842123956268551
 30
0.0
 11
126.51451810870481
 21
37.842123956268551
 31
0.0
  0
LINE
  5
1022
  8
0
 10
123.8905181087048
 20
29.816123956268601
 30
0.0
 11
126.51451810870481
 21
29.816123956268601
 31
0.0
  0
LINE
  5
1023
  8
0
 10
126.51451810870481
 20
29.816123956268601
 30
0.0
 11
126.51451810870481
 21
37.842123956268551
 31
0.0
  0
LINE
  5
1024
  8
0
 10
123.3905181087048
 20
30.316123956268601
 30
0.0
 11
123.3905181087048
 21
37.342123956268551
 31
0.0
  0
LINE
  5
1025
  8
0
 10
170.02351810870479
 20
30.316123956268601
 30
0.0
 11
170.02351810870479
 21
37.342123956268551
 31
0.0
  0
LINE
  5
1026
  8
0
 10
166.8995181087048
 20
29.816123956268601
 30
0.0
 11
166.8995181087048
 21
37.842123956268551
 31
0.0
  0
LINE
  5
1027
  8
0
 10
169.52351810870479
 20
29.816123956268601
 30
0.0
 11
166.8995181087048
 21
29.816123956268601
 31
0.0
  0
LINE
  5
1028
  8
0
 10
169.52351810870479
 20
37.842123956268551
 30
0.0
 11
166.8995181087048
 21
37.842123956268551
 31
0.0
  0
LINE
  5
1029
  8
0
 10
169.52351810870479
 20
37.842123956268551
 30
0.0
 11
170.02351810870479
 21
37.342123956268551
 31
0.0
  0
LINE
  5
102A
  8
0
 10
170.02351810870479
 20
30.316123956268601
 30
0.0
 11
169.52351810870479
 21
29.816123956268601
 31
0.0
  0
LINE
  5
102B
  8
0
 10
169.52351810870479
 20
29.816123956268601
 30
0.0
 11
169.52351810870479
 21
37.842123956268551
 31
0.0
  0
CIRCLE
  5
102C
  8
0
 10
226.70701810870469
 20
33.829123956268631
 30
0.0
 40
4.012999999999999
  0
CIRCLE
  5
102D
  8
0
 10
226.70701810870469
 20
33.829123956268631
 30
0.0
 40
3.512999999999999
  0
LINE
  5
102E
  8
0
 10
155.9635181087049
 20
29.720623956268579
 30
0.0
 11
156.2635181087048
 21
29.420623956268521
 31
0.0
  0
LINE
  5
102F
  8
0
 10
137.4505181087047
 20
29.720623956268579
 30
0.0
 11
137.15051810870469
 21
29.420623956268521
 31
0.0
  0
LINE
  5
1030
  8
0
 10
155.9635181087051
 20
25.12912395626859
 30
0.0
 11
156.263518108705
 21
25.42912395626854
 31
0.0
  0
LINE
  5
1031
  8
0
 10
137.4505181087049
 20
25.12912395626859
 30
0.0
 11
137.150518108705
 21
25.42912395626854
 31
0.0
  0
LINE
  5
1032
  8
0
 10
156.263518108705
 20
25.42912395626854
 30
0.0
 11
156.2635181087048
 21
29.420623956268521
 31
0.0
  0
LINE
  5
1033
  8
0
 10
137.150518108705
 20
25.42912395626854
 30
0.0
 11
137.15051810870469
 21
29.420623956268521
 31
0.0
  0
LINE
  5
1034
  8
0
 10
137.4505181087049
 20
25.12912395626859
 30
0.0
 11
155.9635181087051
 21
25.12912395626859
 31
0.0
  0
LINE
  5
1035
  8
0
 10
133.7785181087047
 20
31.4356239562685
 30
0.0
 11
134.0070181087049
 21
31.4356239562685
 31
0.0
  0
LINE
  5
1036
  8
0
 10
133.7785181087047
 20
36.222623956268542
 30
0.0
 11
134.0070181087049
 21
36.222623956268542
 31
0.0
  0
LINE
  5
103E
  8
0
 10
134.70701810870489
 20
29.720623956268579
 30
0.0
 11
158.70701810870489
 21
29.720623956268579
 31
0.0
  0
LINE
  5
103F
  8
0
 10
134.70701810870489
 20
39.143623956268577
 30
0.0
 11
158.70701810870489
 21
39.143623956268577
 31
0.0
  0
LINE
  5
1040
  8
0
 10
134.0070181087049
 20
30.420623956268521
 30
0.0
 11
134.0070181087049
 21
38.443623956268539
 31
0.0
  0
LINE
  5
1041
  8
0
 10
159.4070181087047
 20
30.420623956268521
 30
0.0
 11
159.4070181087047
 21
38.443623956268539
 31
0.0
  0
LINE
  5
1042
  8
0
 10
159.6355181087049
 20
36.222623956268542
 30
0.0
 11
159.4070181087047
 21
36.222623956268542
 31
0.0
  0
LINE
  5
1043
  8
0
 10
159.6355181087049
 20
31.4356239562685
 30
0.0
 11
159.4070181087047
 21
31.4356239562685
 31
0.0
  0
LINE
  5
1044
  8
0
 10
224.30862410870481
 20
37.046556956268553
 30
0.0
 11
224.30862410870481
 21
40.598623956268511
 31
0.0
  0
LINE
  5
1045
  8
0
 10
229.10541210870471
 20
37.046556956268553
 30
0.0
 11
229.10541210870471
 21
40.598623956268511
 31
0.0
  0
LINE
  5
1062
  8
0
 10
239.4070181087047
 20
30.420623956268521
 30
0.0
 11
239.4070181087047
 21
38.443623956268539
 31
0.0
  0
LINE
  5
1063
  8
0
 10
214.0070181087049
 20
30.420623956268521
 30
0.0
 11
214.0070181087049
 21
38.443623956268539
 31
0.0
  0
LINE
  5
1064
  8
0
 10
214.70701810870469
 20
39.143623956268577
 30
0.0
 11
221.9445181087049
 21
39.143623956268577
 31
0.0
  0
LINE
  5
1065
  8
0
 10
214.70701810870469
 20
29.720623956268579
 30
0.0
 11
223.7115381087049
 21
29.720623956268579
 31
0.0
  0
LINE
  5
106D
  8
0
 10
217.4505181087047
 20
25.12912395626859
 30
0.0
 11
235.9635181087049
 21
25.12912395626859
 31
0.0
  0
LINE
  5
106E
  8
0
 10
217.1505181087048
 20
25.42912395626854
 30
0.0
 11
217.1505181087048
 21
29.420623956268521
 31
0.0
  0
LINE
  5
106F
  8
0
 10
236.2635181087048
 20
25.42912395626854
 30
0.0
 11
236.2635181087048
 21
29.420623956268521
 31
0.0
  0
LINE
  5
1070
  8
0
 10
217.4505181087047
 20
25.12912395626859
 30
0.0
 11
217.1505181087048
 21
25.42912395626854
 31
0.0
  0
LINE
  5
1071
  8
0
 10
235.9635181087049
 20
25.12912395626859
 30
0.0
 11
236.2635181087048
 21
25.42912395626854
 31
0.0
  0
LINE
  5
1072
  8
0
 10
217.4505181087047
 20
29.720623956268579
 30
0.0
 11
217.1505181087048
 21
29.420623956268521
 31
0.0
  0
LINE
  5
1073
  8
0
 10
235.9635181087049
 20
29.720623956268579
 30
0.0
 11
236.2635181087048
 21
29.420623956268521
 31
0.0
  0
LINE
  5
1077
  8
0
 10
231.4695181087047
 20
39.143623956268577
 30
0.0
 11
238.70701810870469
 21
39.143623956268577
 31
0.0
  0
LINE
  5
1078
  8
0
 10
229.70249810870479
 20
29.720623956268579
 30
0.0
 11
238.70701810870469
 21
29.720623956268579
 31
0.0
  0
LINE
  5
1079
  8
0
 10
134.0070181087049
 20
38.443623956268539
 30
0.0
 11
134.70701810870489
 21
39.143623956268577
 31
0.0
  0
LINE
  5
107A
  8
0
 10
134.0070181087049
 20
30.420623956268521
 30
0.0
 11
134.70701810870489
 21
29.720623956268579
 31
0.0
  0
LINE
  5
107B
  8
0
 10
158.70701810870489
 20
29.720623956268579
 30
0.0
 11
159.4070181087047
 21
30.420623956268521
 31
0.0
  0
LINE
  5
107C
  8
0
 10
159.4070181087047
 20
38.443623956268539
 30
0.0
 11
158.70701810870489
 21
39.143623956268577
 31
0.0
  0
LINE
  5
107D
  8
0
 10
214.0070181087049
 20
38.443623956268539
 30
0.0
 11
214.70701810870469
 21
39.143623956268577
 31
0.0
  0
LINE
  5
107E
  8
0
 10
214.0070181087049
 20
30.420623956268521
 30
0.0
 11
214.70701810870469
 21
29.720623956268579
 31
0.0
  0
LINE
  5
107F
  8
0
 10
239.4070181087047
 20
30.420623956268521
 30
0.0
 11
238.70701810870469
 21
29.720623956268579
 31
0.0
  0
LINE
  5
1080
  8
0
 10
239.4070181087047
 20
38.443623956268539
 30
0.0
 11
238.70701810870469
 21
39.143623956268577
 31
0.0
  0
ARC
  5
1081
  8
0
 10
146.70701810870489
 20
140.1226239562686
 30
0.0
 40
10.9855
 50
25.691538999999921
 51
154.30846100000011
  0
ARC
  5
1082
  8
0
 10
146.70701810870489
 20
140.1226239562686
 30
0.0
 40
10.285500000000001
 50
27.582832000000579
 51
152.41716799999941
  0
LINE
  5
1085
  8
1
 10
146.70701810870489
 20
156.8226239562685
 30
0.0
 11
146.70701810870489
 21
123.4226239562685
 31
0.0
  0
LINE
  5
1086
  8
0
 10
169.52351810870479
 20
136.10962395626859
 30
0.0
 11
169.52351810870479
 21
144.13562395626849
 31
0.0
  0
LINE
  5
1087
  8
0
 10
170.02351810870479
 20
136.60962395626859
 30
0.0
 11
169.52351810870479
 21
136.10962395626859
 31
0.0
  0
LINE
  5
1088
  8
0
 10
169.52351810870479
 20
144.13562395626849
 30
0.0
 11
170.02351810870479
 21
143.63562395626849
 31
0.0
  0
LINE
  5
1089
  8
0
 10
169.52351810870479
 20
144.13562395626849
 30
0.0
 11
166.8995181087048
 21
144.13562395626849
 31
0.0
  0
LINE
  5
108A
  8
0
 10
169.52351810870479
 20
136.10962395626859
 30
0.0
 11
166.8995181087048
 21
136.10962395626859
 31
0.0
  0
LINE
  5
108B
  8
0
 10
166.8995181087048
 20
136.10962395626859
 30
0.0
 11
166.8995181087048
 21
137.7242299562686
 31
0.0
  0
LINE
  5
108C
  8
0
 10
170.02351810870479
 20
136.60962395626859
 30
0.0
 11
170.02351810870479
 21
143.63562395626849
 31
0.0
  0
LINE
  5
108D
  8
0
 10
123.3905181087048
 20
136.60962395626859
 30
0.0
 11
123.3905181087048
 21
143.63562395626849
 31
0.0
  0
LINE
  5
108E
  8
0
 10
126.51451810870481
 20
136.10962395626859
 30
0.0
 11
126.51451810870481
 21
137.7242299562686
 31
0.0
  0
LINE
  5
108F
  8
0
 10
123.8905181087048
 20
136.10962395626859
 30
0.0
 11
126.51451810870481
 21
136.10962395626859
 31
0.0
  0
LINE
  5
1090
  8
0
 10
123.8905181087048
 20
144.13562395626849
 30
0.0
 11
126.51451810870481
 21
144.13562395626849
 31
0.0
  0
LINE
  5
1091
  8
0
 10
123.8905181087048
 20
144.13562395626849
 30
0.0
 11
123.3905181087048
 21
143.63562395626849
 31
0.0
  0
LINE
  5
1092
  8
0
 10
123.3905181087048
 20
136.60962395626859
 30
0.0
 11
123.8905181087048
 21
136.10962395626859
 31
0.0
  0
LINE
  5
1093
  8
0
 10
123.8905181087048
 20
136.10962395626859
 30
0.0
 11
123.8905181087048
 21
144.13562395626849
 31
0.0
  0
LINE
  5
1094
  8
0
 10
126.51451810870481
 20
142.52101795626851
 30
0.0
 11
126.51451810870481
 21
144.13562395626849
 31
0.0
  0
LINE
  5
1095
  8
0
 10
166.8995181087048
 20
142.52101795626851
 30
0.0
 11
166.8995181087048
 21
144.13562395626849
 31
0.0
  0
ARC
  5
1098
  8
0
 10
146.70701810870489
 20
140.1226239562686
 30
0.0
 40
10.285500000000001
 50
207.58283200000059
 51
332.41716799999938
  0
ARC
  5
1099
  8
0
 10
146.70701810870489
 20
140.1226239562686
 30
0.0
 40
10.9855
 50
205.69153899999989
 51
334.30846100000008
  0
LINE
  5
109A
  8
0
 10
89.407018108704733
 20
38.443623956268539
 30
0.0
 11
88.707018108704915
 21
39.143623956268577
 31
0.0
  0
LINE
  5
109B
  8
0
 10
89.407018108704733
 20
30.420623956268521
 30
0.0
 11
88.707018108704915
 21
29.720623956268579
 31
0.0
  0
LINE
  5
109C
  8
0
 10
64.15501810870478
 20
38.59162395626857
 30
0.0
 11
64.707018108704915
 21
39.143623956268577
 31
0.0
  0
LINE
  5
109D
  8
0
 10
79.521676108704924
 20
29.720623956268579
 30
0.0
 11
88.707018108704915
 21
29.720623956268579
 31
0.0
  0
LINE
  5
10A5
  8
0
 10
66.421518108704873
 20
43.129123956268593
 30
0.0
 11
86.992518108705013
 21
43.129123956268593
 31
0.0
  0
LINE
  5
10A6
  8
0
 10
65.721518108704913
 20
39.84362395626863
 30
0.0
 11
65.721518108705055
 21
42.42912395626854
 31
0.0
  0
LINE
  5
10A7
  8
0
 10
87.692518108704917
 20
39.84362395626863
 30
0.0
 11
87.692518108704917
 21
42.429123956268683
 31
0.0
  0
LINE
  5
10A8
  8
0
 10
66.421518108704873
 20
43.129123956268593
 30
0.0
 11
65.721518108705055
 21
42.42912395626854
 31
0.0
  0
LINE
  5
10A9
  8
0
 10
66.421518108704731
 20
39.143623956268577
 30
0.0
 11
65.721518108704913
 21
39.84362395626863
 31
0.0
  0
LINE
  5
10AA
  8
0
 10
86.992518108705013
 20
43.129123956268593
 30
0.0
 11
87.692518108705045
 21
42.42912395626854
 31
0.0
  0
LINE
  5
10AB
  8
0
 10
86.992518108704871
 20
39.143623956268577
 30
0.0
 11
87.692518108704917
 21
39.84362395626863
 31
0.0
  0
LINE
  5
10AC
  8
0
 10
64.707018108704915
 20
39.143623956268577
 30
0.0
 11
88.707018108704915
 21
39.143623956268577
 31
0.0
  0
LINE
  5
10AD
  8
0
 10
89.407018108704733
 20
30.420623956268521
 30
0.0
 11
89.407018108704733
 21
38.443623956268539
 31
0.0
  0
LINE
  5
10BB
  8
0
 10
73.489585108704887
 20
36.227517956268571
 30
0.0
 11
69.937518108704808
 21
36.227517956268571
 31
0.0
  0
LINE
  5
10BC
  8
0
 10
73.489585108704887
 20
31.430729956268578
 30
0.0
 11
69.937518108704808
 21
31.430729956268578
 31
0.0
  0
CIRCLE
  5
10BD
  8
0
 10
76.707018108704915
 20
33.829123956268631
 30
0.0
 40
3.512999999999999
  0
CIRCLE
  5
10BE
  8
0
 10
76.707018108704915
 20
33.829123956268631
 30
0.0
 40
4.012999999999999
  0
POLYLINE
  5
10BF
  8
0
 66
     1
 10
0.0
 20
0.0
 30
0.0
  0
VERTEX
  5
10C0
  8
0
 10
69.937518108704808
 20
36.227517956268571
 30
0.0
 42
0.253432
  0
VERTEX
  5
10C1
  8
0
 10
69.747793108704855
 20
36.124752956268601
 30
0.0
 42
0.078685
  0
VERTEX
  5
10C2
  8
0
 10
69.479313108704901
 20
35.525044956268523
 30
0.0
 42
0.038126
 70
     2
 50
254.880773
  0
VERTEX
  5
10C3
  8
0
 10
69.344527108704824
 20
34.815270956268591
 30
0.0
 42
0.027869
 50
164.880773
  0
VERTEX
  5
10C4
  8
0
 10
69.289518108704897
 20
33.829123956268631
 30
0.0
 42
0.027869
  0
SEQEND
  5
10C5
  8
0
  0
POLYLINE
  5
10C6
  8
0
 66
     1
 10
0.0
 20
0.0
 30
0.0
  0
VERTEX
  5
10C7
  8
0
 10
69.289518108704897
 20
33.829123956268631
 30
0.0
 42
0.027869
  0
VERTEX
  5
10C8
  8
0
 10
69.344527108704824
 20
32.842976956268558
 30
0.0
 42
0.038126
  0
VERTEX
  5
10C9
  8
0
 10
69.479313108704901
 20
32.133202956268633
 30
0.0
 42
0.078685
 70
     2
 50
285.11922700000002
  0
VERTEX
  5
10CA
  8
0
 10
69.747793108704855
 20
31.533494956268552
 30
0.0
 42
0.253432
 50
195.119227
  0
VERTEX
  5
10CB
  8
0
 10
69.937518108704808
 20
31.430729956268578
 30
0.0
 42
0.253432
  0
SEQEND
  5
10CC
  8
0
  0
LINE
  5
10CD
  8
1
 10
76.707018108704915
 20
54.730148956268522
 30
0.0
 11
76.707018108704915
 21
8.5536309562685346
 31
0.0
  0
LINE
  5
10CE
  8
0
 10
81.227518108704771
 20
36.227517956268571
 30
0.0
 11
79.924451108704716
 21
36.227517956268571
 31
0.0
  0
LINE
  5
10CF
  8
0
 10
81.227518108704771
 20
31.430729956268578
 30
0.0
 11
79.924451108704716
 21
31.430729956268578
 31
0.0
  0
LINE
  5
10D0
  8
0
 10
69.937518108704808
 20
31.430729956268578
 30
0.0
 11
69.937518108704808
 21
36.227517956268571
 31
0.0
  0
LINE
  5
10D1
  8
1
 10
95.121405108704707
 20
33.829123956268631
 30
0.0
 11
12.74892510870472
 21
33.829123956268631
 31
0.0
  0
ARC
  5
10D2
  8
2
 10
22.37601810870478
 20
33.829123956268631
 30
0.0
 40
4.7625000000000002
 50
270.0
 51
90.0
  0
ARC
  5
10D3
  8
0
 10
77.113018108704864
 20
33.829123956268631
 30
0.0
 40
4.7625000000000002
 50
270.0
 51
90.0
  0
LINE
  5
10D4
  8
0
 10
22.37601810870478
 20
38.59162395626857
 30
0.0
 11
77.113018108704864
 21
38.59162395626857
 31
0.0
  0
LINE
  5
10D5
  8
0
 10
22.37601810870478
 20
29.06662395626859
 30
0.0
 11
77.113018108704864
 21
29.06662395626859
 31
0.0
  0
ARC
  5
10D6
  8
0
 10
22.37601810870478
 20
33.829123956268631
 30
0.0
 40
4.7625000000000002
 50
90.0
 51
270.0
  0
LINE
  5
10D7
  8
1
 10
234.72001810870481
 20
33.829123956268631
 30
0.0
 11
218.6940181087048
 21
33.829123956268631
 31
0.0
  0
LINE
  5
10D8
  8
1
 10
76.707018108704915
 20
166.0012819562686
 30
0.0
 11
76.707018108704915
 21
114.2439659562685
 31
0.0
  0
CIRCLE
  5
10D9
  8
0
 10
76.707018108704915
 20
140.1226239562686
 30
0.0
 40
10.9855
  0
CIRCLE
  5
10DA
  8
0
 10
76.707018108704915
 20
140.1226239562686
 30
0.0
 40
10.285500000000001
  0
LINE
  5
10E3
  8
1
 10
38.454018108704759
 20
156.2006239562686
 30
0.0
 11
84.21022510870489
 21
156.2006239562686
 31
0.0
  0
LINE
  5
10E4
  8
1
 10
38.454018108704759
 20
124.0446239562685
 30
0.0
 11
84.21022510870489
 21
124.0446239562685
 31
0.0
  0
ARC
  5
10E5
  8
1
 10
38.454018108704759
 20
140.1226239562686
 30
0.0
 40
16.077999999999999
 50
90.0
 51
270.0
  0
LINE
  5
10E6
  8
1
 10
38.454018108704759
 20
164.9631239562685
 30
0.0
 11
38.454018108704759
 21
115.28212395626861
 31
0.0
  0
ARC
  5
10E7
  8
0
 10
38.454018108704759
 20
140.1226239562686
 30
0.0
 40
11.3155
 50
90.0
 51
270.0
  0
ARC
  5
10E8
  8
0
 10
38.454018108704759
 20
140.1226239562686
 30
0.0
 40
20.840499999999999
 50
90.0
 51
270.0
  0
LINE
  5
10E9
  8
0
 10
38.454018108704759
 20
151.4381239562685
 30
0.0
 11
55.624518108704699
 21
151.4381239562685
 31
0.0
  0
LINE
  5
10EA
  8
0
 10
38.454018108704759
 20
160.9631239562685
 30
0.0
 11
69.289518108704897
 21
160.9631239562685
 31
0.0
  0
LINE
  5
10EB
  8
0
 10
38.454018108704759
 20
119.28212395626861
 30
0.0
 11
69.289518108704897
 21
119.28212395626861
 31
0.0
  0
LINE
  5
10EC
  8
0
 10
38.454018108704759
 20
128.80712395626861
 30
0.0
 11
55.624518108704699
 21
128.80712395626861
 31
0.0
  0
LINE
  5
10ED
  8
1
 10
95.121405108704707
 20
140.1226239562686
 30
0.0
 11
12.74892510870472
 21
140.1226239562686
 31
0.0
  0
LINE
  5
10EE
  8
0
 10
81.87551810870491
 20
153.05112395626861
 30
0.0
 11
57.237518108704762
 21
153.05112395626861
 31
0.0
  0
LINE
  5
10EF
  8
0
 10
57.237518108704762
 20
153.05112395626861
 30
0.0
 11
55.624518108704699
 21
151.4381239562685
 31
0.0
  0
LINE
  5
10F0
  8
0
 10
57.237518108704762
 20
127.1941239562685
 30
0.0
 11
55.624518108704699
 21
128.80712395626861
 31
0.0
  0
LINE
  5
10F1
  8
0
 10
81.87551810870491
 20
127.1941239562685
 30
0.0
 11
57.237518108704762
 21
127.1941239562685
 31
0.0
  0
LINE
  5
10F2
  8
0
 10
74.313518108704784
 20
127.1941239562685
 30
0.0
 11
74.313518108704784
 21
127.4226239562685
 31
0.0
  0
LINE
  5
10F3
  8
0
 10
79.100518108704819
 20
127.1941239562685
 30
0.0
 11
79.100518108704819
 21
127.4226239562685
 31
0.0
  0
LINE
  5
10F4
  8
0
 10
80.220018108704835
 20
116.80612395626861
 30
0.0
 11
73.194018108704768
 21
116.80612395626861
 31
0.0
  0
LINE
  5
10F5
  8
0
 10
80.720018108704835
 20
119.9301239562685
 30
0.0
 11
72.694018108704753
 21
119.9301239562685
 31
0.0
  0
LINE
  5
10F6
  8
0
 10
80.720018108704835
 20
117.30612395626861
 30
0.0
 11
80.720018108704835
 21
119.9301239562685
 31
0.0
  0
LINE
  5
10F7
  8
0
 10
72.694018108704753
 20
117.30612395626861
 30
0.0
 11
72.694018108704753
 21
119.9301239562685
 31
0.0
  0
LINE
  5
10F8
  8
0
 10
72.694018108704753
 20
117.30612395626861
 30
0.0
 11
73.194018108704768
 21
116.80612395626861
 31
0.0
  0
LINE
  5
10F9
  8
0
 10
80.220018108704835
 20
116.80612395626861
 30
0.0
 11
80.720018108704835
 21
117.30612395626861
 31
0.0
  0
LINE
  5
10FA
  8
0
 10
80.720018108704835
 20
117.30612395626861
 30
0.0
 11
72.694018108704753
 21
117.30612395626861
 31
0.0
  0
LINE
  5
10FB
  8
0
 10
69.937518108704808
 20
119.9301239562685
 30
0.0
 11
69.289518108704897
 21
119.28212395626861
 31
0.0
  0
LINE
  5
10FC
  8
0
 10
81.87551810870491
 20
119.9301239562685
 30
0.0
 11
69.937518108704808
 21
119.9301239562685
 31
0.0
  0
LINE
  5
10FD
  8
0
 10
81.87551810870491
 20
119.9301239562685
 30
0.0
 11
81.87551810870491
 21
127.1941239562685
 31
0.0
  0
LINE
  5
10FE
  8
0
 10
79.100518108704819
 20
153.05112395626861
 30
0.0
 11
79.100518108704819
 21
152.8226239562685
 31
0.0
  0
LINE
  5
10FF
  8
0
 10
74.313518108704784
 20
153.05112395626861
 30
0.0
 11
74.313518108704784
 21
152.8226239562685
 31
0.0
  0
LINE
  5
1100
  8
0
 10
80.720018108704835
 20
162.9391239562685
 30
0.0
 11
72.694018108704753
 21
162.9391239562685
 31
0.0
  0
LINE
  5
1101
  8
0
 10
80.220018108704835
 20
163.4391239562685
 30
0.0
 11
80.720018108704835
 21
162.9391239562685
 31
0.0
  0
LINE
  5
1102
  8
0
 10
72.694018108704753
 20
162.9391239562685
 30
0.0
 11
73.194018108704768
 21
163.4391239562685
 31
0.0
  0
LINE
  5
1103
  8
0
 10
72.694018108704753
 20
162.9391239562685
 30
0.0
 11
72.694018108704753
 21
160.31512395626851
 31
0.0
  0
LINE
  5
1104
  8
0
 10
80.720018108704835
 20
162.9391239562685
 30
0.0
 11
80.720018108704835
 21
160.31512395626851
 31
0.0
  0
LINE
  5
1105
  8
0
 10
80.720018108704835
 20
160.31512395626851
 30
0.0
 11
72.694018108704753
 21
160.31512395626851
 31
0.0
  0
LINE
  5
1106
  8
0
 10
80.220018108704835
 20
163.4391239562685
 30
0.0
 11
73.194018108704768
 21
163.4391239562685
 31
0.0
  0
LINE
  5
1107
  8
0
 10
81.87551810870491
 20
153.05112395626861
 30
0.0
 11
81.87551810870491
 21
160.31512395626851
 31
0.0
  0
LINE
  5
1108
  8
0
 10
81.87551810870491
 20
160.31512395626851
 30
0.0
 11
69.937518108704808
 21
160.31512395626851
 31
0.0
  0
LINE
  5
1109
  8
0
 10
69.937518108704808
 20
160.31512395626851
 30
0.0
 11
69.289518108704897
 21
160.9631239562685
 31
0.0
  0
LINE
  5
110A
  8
1
 10
130.62901810870471
 20
146.8851239562685
 30
0.0
 11
130.62901810870471
 21
133.3601239562685
 31
0.0
  0
LINE
  5
110B
  8
1
 10
162.78501810870489
 20
146.8851239562685
 30
0.0
 11
162.78501810870489
 21
133.3601239562685
 31
0.0
  0
LINE
  5
110C
  8
1
 10
22.37601810870478
 20
40.591623956268563
 30
0.0
 11
22.37601810870478
 21
27.06662395626859
 31
0.0
  0
LINE
  5
110D
  8
1
 10
233.4695181087047
 20
88.160123956268535
 30
0.0
 11
219.9445181087049
 21
88.160123956268535
 31
0.0
  0
LINE
  5
110E
  8
0
 10
64.707018108704915
 20
127.4226239562685
 30
0.0
 11
88.707018108704915
 21
127.4226239562685
 31
0.0
  0
LINE
  5
110F
  8
0
 10
89.407018108704733
 20
128.1226239562686
 30
0.0
 11
89.407018108704733
 21
152.1226239562686
 31
0.0
  0
LINE
  5
1110
  8
0
 10
88.707018108704915
 20
152.8226239562685
 30
0.0
 11
64.707018108704915
 21
152.8226239562685
 31
0.0
  0
LINE
  5
1111
  8
0
 10
64.007018108704855
 20
152.1226239562686
 30
0.0
 11
64.007018108704855
 21
128.1226239562686
 31
0.0
  0
LINE
  5
1112
  8
0
 10
88.707018108704915
 20
152.8226239562685
 30
0.0
 11
89.407018108704733
 21
152.1226239562686
 31
0.0
  0
LINE
  5
1113
  8
0
 10
64.007018108704855
 20
152.1226239562686
 30
0.0
 11
64.707018108704915
 21
152.8226239562685
 31
0.0
  0
LINE
  5
1114
  8
0
 10
64.707018108704915
 20
127.4226239562685
 30
0.0
 11
64.007018108704855
 21
128.1226239562686
 31
0.0
  0
LINE
  5
1115
  8
0
 10
88.707018108704915
 20
127.4226239562685
 30
0.0
 11
89.407018108704733
 21
128.1226239562686
 31
0.0
  0
LINE
  5
1116
  8
0
 10
134.70701810870489
 20
127.4226239562685
 30
0.0
 11
158.70701810870489
 21
127.4226239562685
 31
0.0
  0
LINE
  5
1117
  8
0
 10
158.70701810870489
 20
127.4226239562685
 30
0.0
 11
159.4070181087047
 21
128.1226239562686
 31
0.0
  0
LINE
  5
1118
  8
0
 10
159.4070181087047
 20
128.1226239562686
 30
0.0
 11
159.4070181087047
 21
135.3601239562685
 31
0.0
  0
LINE
  5
1119
  8
0
 10
159.4070181087047
 20
152.1226239562686
 30
0.0
 11
158.70701810870489
 21
152.8226239562685
 31
0.0
  0
LINE
  5
111A
  8
0
 10
158.70701810870489
 20
152.8226239562685
 30
0.0
 11
134.70701810870489
 21
152.8226239562685
 31
0.0
  0
LINE
  5
111B
  8
0
 10
134.70701810870489
 20
152.8226239562685
 30
0.0
 11
134.0070181087049
 21
152.1226239562686
 31
0.0
  0
LINE
  5
111C
  8
0
 10
134.0070181087049
 20
152.1226239562686
 30
0.0
 11
134.0070181087049
 21
144.8851239562685
 31
0.0
  0
LINE
  5
111D
  8
0
 10
134.0070181087049
 20
128.1226239562686
 30
0.0
 11
134.70701810870489
 21
127.4226239562685
 31
0.0
  0
LINE
  5
111E
  8
0
 10
134.0070181087049
 20
135.3601239562685
 30
0.0
 11
134.0070181087049
 21
128.1226239562686
 31
0.0
  0
LINE
  5
111F
  8
0
 10
159.4070181087047
 20
144.8851239562685
 30
0.0
 11
159.4070181087047
 21
152.1226239562686
 31
0.0
  0
LINE
  5
1139
  8
0
 10
73.707018108704915
 20
14.129123956268581
 30
0.0
 11
79.707018108704915
 21
14.129123956268581
 31
0.0
  0
LINE
  5
113A
  8
0
 10
74.707018108704915
 20
13.129123956268581
 30
0.0
 11
73.707018108704915
 21
14.129123956268581
 31
0.0
  0
LINE
  5
113B
  8
0
 10
79.707018108704915
 20
14.129123956268581
 30
0.0
 11
78.707018108704915
 21
13.129123956268581
 31
0.0
  0
LINE
  5
113C
  8
0
 10
79.707018108705142
 20
25.12912395626859
 30
0.0
 11
79.707018108704915
 21
14.129123956268581
 31
0.0
  0
LINE
  5
113D
  8
3
 10
79.165518108705101
 20
25.12912395626859
 30
0.0
 11
79.165518108704873
 21
13.58762395626866
 31
0.0
  0
LINE
  5
113E
  8
3
 10
74.248518108704729
 20
25.12912395626859
 30
0.0
 11
74.248518108704729
 21
13.58762395626866
 31
0.0
  0
LINE
  5
113F
  8
0
 10
73.707018108704915
 20
25.12912395626859
 30
0.0
 11
73.707018108704915
 21
14.129123956268581
 31
0.0
  0
LINE
  5
1140
  8
0
 10
78.707018108704915
 20
13.129123956268581
 30
0.0
 11
74.707018108704915
 21
13.129123956268581
 31
0.0
  0
LINE
  5
1142
  8
0
 10
143.70701810870511
 20
25.12912395626859
 30
0.0
 11
149.70701810870511
 21
25.12912395626859
 31
0.0
  0
LINE
  5
1143
  8
0
 10
148.70701810870489
 20
13.129123956268581
 30
0.0
 11
144.70701810870489
 21
13.129123956268581
 31
0.0
  0
LINE
  5
1144
  8
0
 10
143.70701810870489
 20
25.129123956268469
 30
0.0
 11
143.70701810870489
 21
14.129123956268581
 31
0.0
  0
LINE
  5
1145
  8
3
 10
144.2485181087047
 20
25.129123956268469
 30
0.0
 11
144.2485181087047
 21
13.58762395626877
 31
0.0
  0
LINE
  5
1146
  8
3
 10
149.1655181087053
 20
25.12912395626859
 30
0.0
 11
149.1655181087049
 21
13.587623956268541
 31
0.0
  0
LINE
  5
1147
  8
0
 10
149.70701810870489
 20
25.129123956268469
 30
0.0
 11
149.70701810870489
 21
14.129123956268581
 31
0.0
  0
LINE
  5
1148
  8
0
 10
149.70701810870489
 20
14.129123956268581
 30
0.0
 11
148.70701810870489
 21
13.129123956268581
 31
0.0
  0
LINE
  5
1149
  8
0
 10
144.70701810870489
 20
13.129123956268581
 30
0.0
 11
143.70701810870489
 21
14.129123956268581
 31
0.0
  0
LINE
  5
114A
  8
0
 10
143.70701810870489
 20
14.129123956268581
 30
0.0
 11
149.70701810870489
 21
14.129123956268581
 31
0.0
  0
LINE
  5
114B
  8
0
 10
223.70701810870469
 20
25.12912395626859
 30
0.0
 11
229.70701810870469
 21
25.12912395626859
 31
0.0
  0
LINE
  5
114C
  8
0
 10
228.70701810870469
 20
13.129123956268581
 30
0.0
 11
224.70701810870469
 21
13.129123956268581
 31
0.0
  0
LINE
  5
114D
  8
0
 10
223.70701810870469
 20
25.12912395626859
 30
0.0
 11
223.70701810870469
 21
14.129123956268581
 31
0.0
  0
LINE
  5
114E
  8
3
 10
224.2485181087047
 20
25.12912395626859
 30
0.0
 11
224.2485181087045
 21
13.58762395626866
 31
0.0
  0
LINE
  5
114F
  8
3
 10
229.1655181087049
 20
25.12912395626859
 30
0.0
 11
229.1655181087047
 21
13.58762395626866
 31
0.0
  0
LINE
  5
1150
  8
0
 10
229.70701810870469
 20
25.12912395626859
 30
0.0
 11
229.70701810870469
 21
14.129123956268581
 31
0.0
  0
LINE
  5
1151
  8
0
 10
229.70701810870469
 20
14.129123956268581
 30
0.0
 11
228.70701810870469
 21
13.129123956268581
 31
0.0
  0
LINE
  5
1152
  8
0
 10
224.70701810870469
 20
13.129123956268581
 30
0.0
 11
223.70701810870469
 21
14.129123956268581
 31
0.0
  0
LINE
  5
1153
  8
0
 10
223.70701810870469
 20
14.129123956268581
 30
0.0
 11
229.70701810870469
 21
14.129123956268581
 31
0.0
  0
POLYLINE
  8
0
  5
1360
  66
     1
 10
0.000000
 20
0.000000
 30
0.000000
  70
     8
  0
VERTEX
  8
0
  5
1361
 10
67.1503
 20
29.0666
 30
0.000000
  70
    32
  0
VERTEX
  8
0
  5
1362
 10
67.1503
 20
29.0090
 30
0.000000
  70
    32
  0
VERTEX
  8
0
  5
1363
 10
67.1503
 20
28.9513
 30
0.000000
  70
    32
  0
VERTEX
  8
0
  5
1364
 10
67.1503
 20
28.8936
 30
0.000000
  70
    32
  0
VERTEX
  8
0
  5
1365
 10
67.1503
 20
28.8360
 30
0.000000
  70
    32
  0
VERTEX
  8
0
  5
1366
 10
67.1503
 20
28.7783
 30
0.000000
  70
    32
  0
VERTEX
  8
0
  5
1367
 10
67.1503
 20
28.7207
 30
0.000000
  70
    32
  0
VERTEX
  8
0
  5
1368
 10
67.1503
 20
28.6630
 30
0.000000
  70
    32
  0
VERTEX
  8
0
  5
1369
 10
67.1503
 20
28.6053
 30
0.000000
  70
    32
  0
VERTEX
  8
0
  5
136A
 10
67.1503
 20
28.5477
 30
0.000000
  70
    32
  0
VERTEX
  8
0
  5
136B
 10
67.1503
 20
28.4900
 30
0.000000
  70
    32
  0
VERTEX
  8
0
  5
136C
 10
67.1503
 20
28.4323
 30
0.000000
  70
    32
  0
VERTEX
  8
0
  5
136D
 10
67.1503
 20
28.3747
 30
0.000000
  70
    32
  0
VERTEX
  8
0
  5
136E
 10
67.1503
 20
28.3170
 30
0.000000
  70
    32
  0
VERTEX
  8
0
  5
136F
 10
67.1503
 20
28.2594
 30
0.000000
  70
    32
  0
VERTEX
  8
0
  5
1370
 10
67.1503
 20
28.2017
 30
0.000000
  70
    32
  0
VERTEX
  8
0
  5
1371
 10
67.1503
 20
28.1440
 30
0.000000
  70
    32
  0
VERTEX
  8
0
  5
1372
 10
67.1503
 20
28.0864
 30
0.000000
  70
    32
  0
VERTEX
  8
0
  5
1373
 10
67.1503
 20
28.0287
 30
0.000000
  70
    32
  0
VERTEX
  8
0
  5
1374
 10
67.1503
 20
27.9710
 30
0.000000
  70
    32
  0
VERTEX
  8
0
  5
1375
 10
67.1503
 20
27.9134
 30
0.000000
  70
    32
  0
VERTEX
  8
0
  5
1376
 10
67.1503
 20
27.8557
 30
0.000000
  70
    32
  0
VERTEX
  8
0
  5
1377
 10
67.1503
 20
27.7981
 30
0.000000
  70
    32
  0
VERTEX
  8
0
  5
1378
 10
67.1503
 20
27.7404
 30
0.000000
  70
    32
  0
VERTEX
  8
0
  5
1379
 10
67.1503
 20
27.6827
 30
0.000000
  70
    32
  0
VERTEX
  8
0
  5
137A
 10
67.1503
 20
27.6251
 30
0.000000
  70
    32
  0
VERTEX
  8
0
  5
137B
 10
67.1503
 20
27.5674
 30
0.000000
  70
    32
  0
VERTEX
  8
0
  5
137C
 10
67.1503
 20
27.5098
 30
0.000000
  70
    32
  0
VERTEX
  8
0
  5
137D
 10
67.1503
 20
27.4521
 30
0.000000
  70
    32
  0
VERTEX
  8
0
  5
137E
 10
67.1503
 20
27.3944
 30
0.000000
  70
    32
  0
VERTEX
  8
0
  5
137F
 10
67.1503
 20
27.3368
 30
0.000000
  70
    32
  0
VERTEX
  8
0
  5
1380
 10
67.1503
 20
27.2791
 30
0.000000
  70
    32
  0
VERTEX
  8
0
  5
1381
 10
67.1503
 20
27.2214
 30
0.000000
  70
    32
  0
VERTEX
  8
0
  5
1382
 10
67.1503
 20
27.1638
 30
0.000000
  70
    32
  0
VERTEX
  8
0
  5
1383
 10
67.1503
 20
27.1061
 30
0.000000
  70
    32
  0
VERTEX
  8
0
  5
1384
 10
67.1503
 20
27.0485
 30
0.000000
  70
    32
  0
VERTEX
  8
0
  5
1385
 10
67.1503
 20
26.9908
 30
0.000000
  70
    32
  0
VERTEX
  8
0
  5
1386
 10
67.1503
 20
26.9331
 30
0.000000
  70
    32
  0
VERTEX
  8
0
  5
1387
 10
67.1503
 20
26.8755
 30
0.000000
  70
    32
  0
VERTEX
  8
0
  5
1388
 10
67.1503
 20
26.8178
 30
0.000000
  70
    32
  0
VERTEX
  8
0
  5
1389
 10
67.1503
 20
26.7601
 30
0.000000
  70
    32
  0
VERTEX
  8
0
  5
138A
 10
67.1503
 20
26.7025
 30
0.000000
  70
    32
  0
VERTEX
  8
0
  5
138B
 10
67.1503
 20
26.6448
 30
0.000000
  70
    32
  0
VERTEX
  8
0
  5
138C
 10
67.1503
 20
26.5872
 30
0.000000
  70
    32
  0
VERTEX
  8
0
  5
138D
 10
67.1503
 20
26.5295
 30
0.000000
  70
    32
  0
VERTEX
  8
0
  5
138E
 10
67.1503
 20
26.4718
 30
0.000000
  70
    32
  0
VERTEX
  8
0
  5
138F
 10
67.1503
 20
26.4142
 30
0.000000
  70
    32
  0
VERTEX
  8
0
  5
1390
 10
67.1503
 20
26.3565
 30
0.000000
  70
    32
  0
VERTEX
  8
0
  5
1391
 10
67.1503
 20
26.2989
 30
0.000000
  70
    32
  0
VERTEX
  8
0
  5
1392
 10
67.1503
 20
26.2412
 30
0.000000
  70
    32
  0
VERTEX
  8
0
  5
1393
 10
67.1503
 20
26.1835
 30
0.000000
  70
    32
  0
VERTEX
  8
0
  5
1394
 10
67.1503
 20
26.1259
 30
0.000000
  70
    32
  0
VERTEX
  8
0
  5
1395
 10
67.1503
 20
26.0682
 30
0.000000
  70
    32
  0
VERTEX
  8
0
  5
1396
 10
67.1503
 20
26.0105
 30
0.000000
  70
    32
  0
VERTEX
  8
0
  5
1397
 10
67.1503
 20
25.9529
 30
0.000000
  70
    32
  0
VERTEX
  8
0
  5
1398
 10
67.1503
 20
25.8952
 30
0.000000
  70
    32
  0
VERTEX
  8
0
  5
1399
 10
67.1503
 20
25.8376
 30
0.000000
  70
    32
  0
VERTEX
  8
0
  5
139A
 10
67.1503
 20
25.7799
 30
0.000000
  70
    32
  0
VERTEX
  8
0
  5
139B
 10
67.1503
 20
25.7222
 30
0.000000
  70
    32
  0
VERTEX
  8
0
  5
139C
 10
67.1503
 20
25.6646
 30
0.000000
  70
    32
  0
VERTEX
  8
0
  5
139D
 10
67.1503
 20
25.6069
 30
0.000000
  70
    32
  0
VERTEX
  8
0
  5
139E
 10
67.1503
 20
25.5492
 30
0.000000
  70
    32
  0
VERTEX
  8
0
  5
139F
 10
67.1503
 20
25.4916
 30
0.000000
  70
    32
  0
VERTEX
  8
0
  5
13A0
 10
67.1503
 20
25.4339
 30
0.000000
  70
    32
  0
SEQEND
  8
0
  5
13A1
  0
POLYLINE
  8
0
  5
13A2
  66
     1
 10
0.000000
 20
0.000000
 30
0.000000
  70
     8
  0
VERTEX
  8
0
  5
13A3
 10
86.2638
 20
25.4339
 30
0.000000
  70
    32
  0
VERTEX
  8
0
  5
13A4
 10
86.2638
 20
25.4938
 30
0.000000
  70
    32
  0
VERTEX
  8
0
  5
13A5
 10
86.2638
 20
25.5537
 30
0.000000
  70
    32
  0
VERTEX
  8
0
  5
13A6
 10
86.2638
 20
25.6136
 30
0.000000
  70
    32
  0
VERTEX
  8
0
  5
13A7
 10
86.2638
 20
25.6734
 30
0.000000
  70
    32
  0
VERTEX
  8
0
  5
13A8
 10
86.2638
 20
25.7333
 30
0.000000
  70
    32
  0
VERTEX
  8
0
  5
13A9
 10
86.2638
 20
25.7932
 30
0.000000
  70
    32
  0
VERTEX
  8
0
  5
13AA
 10
86.2638
 20
25.8531
 30
0.000000
  70
    32
  0
VERTEX
  8
0
  5
13AB
 10
86.2638
 20
25.9130
 30
0.000000
  70
    32
  0
VERTEX
  8
0
  5
13AC
 10
86.2638
 20
25.9728
 30
0.000000
  70
    32
  0
VERTEX
  8
0
  5
13AD
 10
86.2638
 20
26.0327
 30
0.000000
  70
    32
  0
VERTEX
  8
0
  5
13AE
 10
86.2638
 20
26.0926
 30
0.000000
  70
    32
  0
VERTEX
  8
0
  5
13AF
 10
86.2638
 20
26.1525
 30
0.000000
  70
    32
  0
VERTEX
  8
0
  5
13B0
 10
86.2638
 20
26.2124
 30
0.000000
  70
    32
  0
VERTEX
  8
0
  5
13B1
 10
86.2638
 20
26.2722
 30
0.000000
  70
    32
  0
VERTEX
  8
0
  5
13B2
 10
86.2638
 20
26.3321
 30
0.000000
  70
    32
  0
VERTEX
  8
0
  5
13B3
 10
86.2638
 20
26.3920
 30
0.000000
  70
    32
  0
VERTEX
  8
0
  5
13B4
 10
86.2638
 20
26.4519
 30
0.000000
  70
    32
  0
VERTEX
  8
0
  5
13B5
 10
86.2638
 20
26.5118
 30
0.000000
  70
    32
  0
VERTEX
  8
0
  5
13B6
 10
86.2638
 20
26.5716
 30
0.000000
  70
    32
  0
VERTEX
  8
0
  5
13B7
 10
86.2638
 20
26.6315
 30
0.000000
  70
    32
  0
VERTEX
  8
0
  5
13B8
 10
86.2638
 20
26.6914
 30
0.000000
  70
    32
  0
VERTEX
  8
0
  5
13B9
 10
86.2638
 20
26.7513
 30
0.000000
  70
    32
  0
VERTEX
  8
0
  5
13BA
 10
86.2638
 20
26.8111
 30
0.000000
  70
    32
  0
VERTEX
  8
0
  5
13BB
 10
86.2638
 20
26.8710
 30
0.000000
  70
    32
  0
VERTEX
  8
0
  5
13BC
 10
86.2638
 20
26.9309
 30
0.000000
  70
    32
  0
VERTEX
  8
0
  5
13BD
 10
86.2638
 20
26.9908
 30
0.000000
  70
    32
  0
VERTEX
  8
0
  5
13BE
 10
86.2638
 20
27.0507
 30
0.000000
  70
    32
  0
VERTEX
  8
0
  5
13BF
 10
86.2638
 20
27.1105
 30
0.000000
  70
    32
  0
VERTEX
  8
0
  5
13C0
 10
86.2638
 20
27.1704
 30
0.000000
  70
    32
  0
VERTEX
  8
0
  5
13C1
 10
86.2638
 20
27.2303
 30
0.000000
  70
    32
  0
VERTEX
  8
0
  5
13C2
 10
86.2638
 20
27.2902
 30
0.000000
  70
    32
  0
VERTEX
  8
0
  5
13C3
 10
86.2638
 20
27.3501
 30
0.000000
  70
    32
  0
VERTEX
  8
0
  5
13C4
 10
86.2638
 20
27.4099
 30
0.000000
  70
    32
  0
VERTEX
  8
0
  5
13C5
 10
86.2638
 20
27.4698
 30
0.000000
  70
    32
  0
VERTEX
  8
0
  5
13C6
 10
86.2638
 20
27.5297
 30
0.000000
  70
    32
  0
VERTEX
  8
0
  5
13C7
 10
86.2638
 20
27.5896
 30
0.000000
  70
    32
  0
VERTEX
  8
0
  5
13C8
 10
86.2638
 20
27.6495
 30
0.000000
  70
    32
  0
VERTEX
  8
0
  5
13C9
 10
86.2638
 20
27.7093
 30
0.000000
  70
    32
  0
VERTEX
  8
0
  5
13CA
 10
86.2638
 20
27.7692
 30
0.000000
  70
    32
  0
VERTEX
  8
0
  5
13CB
 10
86.2638
 20
27.8291
 30
0.000000
  70
    32
  0
VERTEX
  8
0
  5
13CC
 10
86.2638
 20
27.8890
 30
0.000000
  70
    32
  0
VERTEX
  8
0
  5
13CD
 10
86.2638
 20
27.9489
 30
0.000000
  70
    32
  0
VERTEX
  8
0
  5
13CE
 10
86.2638
 20
28.0087
 30
0.000000
  70
    32
  0
VERTEX
  8
0
  5
13CF
 10
86.2638
 20
28.0686
 30
0.000000
  70
    32
  0
VERTEX
  8
0
  5
13D0
 10
86.2638
 20
28.1285
 30
0.000000
  70
    32
  0
VERTEX
  8
0
  5
13D1
 10
86.2638
 20
28.1884
 30
0.000000
  70
    32
  0
VERTEX
  8
0
  5
13D2
 10
86.2638
 20
28.2483
 30
0.000000
  70
    32
  0
VERTEX
  8
0
  5
13D3
 10
86.2638
 20
28.3081
 30
0.000000
  70
    32
  0
VERTEX
  8
0
  5
13D4
 10
86.2638
 20
28.3680
 30
0.000000
  70
    32
  0
VERTEX
  8
0
  5
13D5
 10
86.2638
 20
28.4279
 30
0.000000
  70
    32
  0
VERTEX
  8
0
  5
13D6
 10
86.2638
 20
28.4878
 30
0.000000
  70
    32
  0
VERTEX
  8
0
  5
13D7
 10
86.2638
 20
28.5477
 30
0.000000
  70
    32
  0
VERTEX
  8
0
  5
13D8
 10
86.2638
 20
28.6075
 30
0.000000
  70
    32
  0
VERTEX
  8
0
  5
13D9
 10
86.2638
 20
28.6674
 30
0.000000
  70
    32
  0
VERTEX
  8
0
  5
13DA
 10
86.2638
 20
28.7273
 30
0.000000
  70
    32
  0
VERTEX
  8
0
  5
13DB
 10
86.2638
 20
28.7872
 30
0.000000
  70
    32
  0
VERTEX
  8
0
  5
13DC
 10
86.2638
 20
28.8470
 30
0.000000
  70
    32
  0
VERTEX
  8
0
  5
13DD
 10
86.2638
 20
28.9069
 30
0.000000
  70
    32
  0
VERTEX
  8
0
  5
13DE
 10
86.2638
 20
28.9668
 30
0.000000
  70
    32
  0
VERTEX
  8
0
  5
13DF
 10
86.2638
 20
29.0267
 30
0.000000
  70
    32
  0
VERTEX
  8
0
  5
13E0
 10
86.2638
 20
29.0866
 30
0.000000
  70
    32
  0
VERTEX
  8
0
  5
13E1
 10
86.2638
 20
29.1464
 30
0.000000
  70
    32
  0
VERTEX
  8
0
  5
13E2
 10
86.2638
 20
29.2063
 30
0.000000
  70
    32
  0
SEQEND
  8
0
  5
13E3
  0
LINE
  5
1156
  8
0
 10
85.958968108706131
 20
29.5111239562682
 30
0.0
 11
79.122068195187694
 21
29.5111239562682
 31
0.0
  0
POLYLINE
  8
0
  5
13E4
  66
     1
 10
0.000000
 20
0.000000
 30
0.000000
  70
     8
  0
VERTEX
  8
0
  5
13E5
 10
86.2638
 20
29.2063
 30
0.000000
  70
    32
  0
VERTEX
  8
0
  5
13E6
 10
86.2589
 20
29.2112
 30
0.000000
  70
    32
  0
VERTEX
  8
0
  5
13E7
 10
86.2541
 20
29.2160
 30
0.000000
  70
    32
  0
VERTEX
  8
0
  5
13E8
 10
86.2493
 20
29.2208
 30
0.000000
  70
    32
  0
VERTEX
  8
0
  5
13E9
 10
86.2444
 20
29.2257
 30
0.000000
  70
    32
  0
VERTEX
  8
0
  5
13EA
 10
86.2396
 20
29.2305
 30
0.000000
  70
    32
  0
VERTEX
  8
0
  5
13EB
 10
86.2347
 20
29.2354
 30
0.000000
  70
    32
  0
VERTEX
  8
0
  5
13EC
 10
86.2299
 20
29.2402
 30
0.000000
  70
    32
  0
VERTEX
  8
0
  5
13ED
 10
86.2251
 20
29.2450
 30
0.000000
  70
    32
  0
VERTEX
  8
0
  5
13EE
 10
86.2202
 20
29.2499
 30
0.000000
  70
    32
  0
VERTEX
  8
0
  5
13EF
 10
86.2154
 20
29.2547
 30
0.000000
  70
    32
  0
VERTEX
  8
0
  5
13F0
 10
86.2105
 20
29.2595
 30
0.000000
  70
    32
  0
VERTEX
  8
0
  5
13F1
 10
86.2057
 20
29.2644
 30
0.000000
  70
    32
  0
VERTEX
  8
0
  5
13F2
 10
86.2009
 20
29.2692
 30
0.000000
  70
    32
  0
VERTEX
  8
0
  5
13F3
 10
86.1960
 20
29.2741
 30
0.000000
  70
    32
  0
VERTEX
  8
0
  5
13F4
 10
86.1912
 20
29.2789
 30
0.000000
  70
    32
  0
VERTEX
  8
0
  5
13F5
 10
86.1864
 20
29.2837
 30
0.000000
  70
    32
  0
VERTEX
  8
0
  5
13F6
 10
86.1815
 20
29.2886
 30
0.000000
  70
    32
  0
VERTEX
  8
0
  5
13F7
 10
86.1767
 20
29.2934
 30
0.000000
  70
    32
  0
VERTEX
  8
0
  5
13F8
 10
86.1718
 20
29.2982
 30
0.000000
  70
    32
  0
VERTEX
  8
0
  5
13F9
 10
86.1670
 20
29.3031
 30
0.000000
  70
    32
  0
VERTEX
  8
0
  5
13FA
 10
86.1622
 20
29.3079
 30
0.000000
  70
    32
  0
VERTEX
  8
0
  5
13FB
 10
86.1573
 20
29.3128
 30
0.000000
  70
    32
  0
VERTEX
  8
0
  5
13FC
 10
86.1525
 20
29.3176
 30
0.000000
  70
    32
  0
VERTEX
  8
0
  5
13FD
 10
86.1477
 20
29.3224
 30
0.000000
  70
    32
  0
VERTEX
  8
0
  5
13FE
 10
86.1428
 20
29.3273
 30
0.000000
  70
    32
  0
VERTEX
  8
0
  5
13FF
 10
86.1380
 20
29.3321
 30
0.000000
  70
    32
  0
VERTEX
  8
0
  5
1400
 10
86.1331
 20
29.3370
 30
0.000000
  70
    32
  0
VERTEX
  8
0
  5
1401
 10
86.1283
 20
29.3418
 30
0.000000
  70
    32
  0
VERTEX
  8
0
  5
1402
 10
86.1235
 20
29.3466
 30
0.000000
  70
    32
  0
VERTEX
  8
0
  5
1403
 10
86.1186
 20
29.3515
 30
0.000000
  70
    32
  0
VERTEX
  8
0
  5
1404
 10
86.1138
 20
29.3563
 30
0.000000
  70
    32
  0
VERTEX
  8
0
  5
1405
 10
86.1089
 20
29.3611
 30
0.000000
  70
    32
  0
VERTEX
  8
0
  5
1406
 10
86.1041
 20
29.3660
 30
0.000000
  70
    32
  0
VERTEX
  8
0
  5
1407
 10
86.0993
 20
29.3708
 30
0.000000
  70
    32
  0
VERTEX
  8
0
  5
1408
 10
86.0944
 20
29.3757
 30
0.000000
  70
    32
  0
VERTEX
  8
0
  5
1409
 10
86.0896
 20
29.3805
 30
0.000000
  70
    32
  0
VERTEX
  8
0
  5
140A
 10
86.0848
 20
29.3853
 30
0.000000
  70
    32
  0
VERTEX
  8
0
  5
140B
 10
86.0799
 20
29.3902
 30
0.000000
  70
    32
  0
VERTEX
  8
0
  5
140C
 10
86.0751
 20
29.3950
 30
0.000000
  70
    32
  0
VERTEX
  8
0
  5
140D
 10
86.0702
 20
29.3998
 30
0.000000
  70
    32
  0
VERTEX
  8
0
  5
140E
 10
86.0654
 20
29.4047
 30
0.000000
  70
    32
  0
VERTEX
  8
0
  5
140F
 10
86.0606
 20
29.4095
 30
0.000000
  70
    32
  0
VERTEX
  8
0
  5
1410
 10
86.0557
 20
29.4144
 30
0.000000
  70
    32
  0
VERTEX
  8
0
  5
1411
 10
86.0509
 20
29.4192
 30
0.000000
  70
    32
  0
VERTEX
  8
0
  5
1412
 10
86.0461
 20
29.4240
 30
0.000000
  70
    32
  0
VERTEX
  8
0
  5
1413
 10
86.0412
 20
29.4289
 30
0.000000
  70
    32
  0
VERTEX
  8
0
  5
1414
 10
86.0364
 20
29.4337
 30
0.000000
  70
    32
  0
VERTEX
  8
0
  5
1415
 10
86.0315
 20
29.4386
 30
0.000000
  70
    32
  0
VERTEX
  8
0
  5
1416
 10
86.0267
 20
29.4434
 30
0.000000
  70
    32
  0
VERTEX
  8
0
  5
1417
 10
86.0219
 20
29.4482
 30
0.000000
  70
    32
  0
VERTEX
  8
0
  5
1418
 10
86.0170
 20
29.4531
 30
0.000000
  70
    32
  0
VERTEX
  8
0
  5
1419
 10
86.0122
 20
29.4579
 30
0.000000
  70
    32
  0
VERTEX
  8
0
  5
141A
 10
86.0073
 20
29.4627
 30
0.000000
  70
    32
  0
VERTEX
  8
0
  5
141B
 10
86.0025
 20
29.4676
 30
0.000000
  70
    32
  0
VERTEX
  8
0
  5
141C
 10
85.9977
 20
29.4724
 30
0.000000
  70
    32
  0
VERTEX
  8
0
  5
141D
 10
85.9928
 20
29.4773
 30
0.000000
  70
    32
  0
VERTEX
  8
0
  5
141E
 10
85.9880
 20
29.4821
 30
0.000000
  70
    32
  0
VERTEX
  8
0
  5
141F
 10
85.9832
 20
29.4869
 30
0.000000
  70
    32
  0
VERTEX
  8
0
  5
1420
 10
85.9783
 20
29.4918
 30
0.000000
  70
    32
  0
VERTEX
  8
0
  5
1421
 10
85.9735
 20
29.4966
 30
0.000000
  70
    32
  0
VERTEX
  8
0
  5
1422
 10
85.9686
 20
29.5014
 30
0.000000
  70
    32
  0
VERTEX
  8
0
  5
1423
 10
85.9638
 20
29.5063
 30
0.000000
  70
    32
  0
VERTEX
  8
0
  5
1424
 10
85.9590
 20
29.5111
 30
0.000000
  70
    32
  0
SEQEND
  8
0
  5
1425
  0
LINE
  5
1158
  8
0
 10
85.958968108706131
 20
25.12912395626859
 30
0.0
 11
67.45506810870188
 21
25.12912395626859
 31
0.0
  0
POLYLINE
  8
0
  5
1426
  66
     1
 10
0.000000
 20
0.000000
 30
0.000000
  70
     8
  0
VERTEX
  8
0
  5
1427
 10
67.1503
 20
25.4339
 30
0.000000
  70
    32
  0
VERTEX
  8
0
  5
1428
 10
67.1551
 20
25.4291
 30
0.000000
  70
    32
  0
VERTEX
  8
0
  5
1429
 10
67.1599
 20
25.4242
 30
0.000000
  70
    32
  0
VERTEX
  8
0
  5
142A
 10
67.1648
 20
25.4194
 30
0.000000
  70
    32
  0
VERTEX
  8
0
  5
142B
 10
67.1696
 20
25.4146
 30
0.000000
  70
    32
  0
VERTEX
  8
0
  5
142C
 10
67.1745
 20
25.4097
 30
0.000000
  70
    32
  0
VERTEX
  8
0
  5
142D
 10
67.1793
 20
25.4049
 30
0.000000
  70
    32
  0
VERTEX
  8
0
  5
142E
 10
67.1841
 20
25.4001
 30
0.000000
  70
    32
  0
VERTEX
  8
0
  5
142F
 10
67.1890
 20
25.3952
 30
0.000000
  70
    32
  0
VERTEX
  8
0
  5
1430
 10
67.1938
 20
25.3904
 30
0.000000
  70
    32
  0
VERTEX
  8
0
  5
1431
 10
67.1986
 20
25.3855
 30
0.000000
  70
    32
  0
VERTEX
  8
0
  5
1432
 10
67.2035
 20
25.3807
 30
0.000000
  70
    32
  0
VERTEX
  8
0
  5
1433
 10
67.2083
 20
25.3759
 30
0.000000
  70
    32
  0
VERTEX
  8
0
  5
1434
 10
67.2132
 20
25.3710
 30
0.000000
  70
    32
  0
VERTEX
  8
0
  5
1435
 10
67.2180
 20
25.3662
 30
0.000000
  70
    32
  0
VERTEX
  8
0
  5
1436
 10
67.2228
 20
25.3614
 30
0.000000
  70
    32
  0
VERTEX
  8
0
  5
1437
 10
67.2277
 20
25.3565
 30
0.000000
  70
    32
  0
VERTEX
  8
0
  5
1438
 10
67.2325
 20
25.3517
 30
0.000000
  70
    32
  0
VERTEX
  8
0
  5
1439
 10
67.2374
 20
25.3468
 30
0.000000
  70
    32
  0
VERTEX
  8
0
  5
143A
 10
67.2422
 20
25.3420
 30
0.000000
  70
    32
  0
VERTEX
  8
0
  5
143B
 10
67.2470
 20
25.3372
 30
0.000000
  70
    32
  0
VERTEX
  8
0
  5
143C
 10
67.2519
 20
25.3323
 30
0.000000
  70
    32
  0
VERTEX
  8
0
  5
143D
 10
67.2567
 20
25.3275
 30
0.000000
  70
    32
  0
VERTEX
  8
0
  5
143E
 10
67.2615
 20
25.3226
 30
0.000000
  70
    32
  0
VERTEX
  8
0
  5
143F
 10
67.2664
 20
25.3178
 30
0.000000
  70
    32
  0
VERTEX
  8
0
  5
1440
 10
67.2712
 20
25.3130
 30
0.000000
  70
    32
  0
VERTEX
  8
0
  5
1441
 10
67.2761
 20
25.3081
 30
0.000000
  70
    32
  0
VERTEX
  8
0
  5
1442
 10
67.2809
 20
25.3033
 30
0.000000
  70
    32
  0
VERTEX
  8
0
  5
1443
 10
67.2857
 20
25.2985
 30
0.000000
  70
    32
  0
VERTEX
  8
0
  5
1444
 10
67.2906
 20
25.2936
 30
0.000000
  70
    32
  0
VERTEX
  8
0
  5
1445
 10
67.2954
 20
25.2888
 30
0.000000
  70
    32
  0
VERTEX
  8
0
  5
1446
 10
67.3002
 20
25.2839
 30
0.000000
  70
    32
  0
VERTEX
  8
0
  5
1447
 10
67.3051
 20
25.2791
 30
0.000000
  70
    32
  0
VERTEX
  8
0
  5
1448
 10
67.3099
 20
25.2743
 30
0.000000
  70
    32
  0
VERTEX
  8
0
  5
1449
 10
67.3148
 20
25.2694
 30
0.000000
  70
    32
  0
VERTEX
  8
0
  5
144A
 10
67.3196
 20
25.2646
 30
0.000000
  70
    32
  0
VERTEX
  8
0
  5
144B
 10
67.3244
 20
25.2598
 30
0.000000
  70
    32
  0
VERTEX
  8
0
  5
144C
 10
67.3293
 20
25.2549
 30
0.000000
  70
    32
  0
VERTEX
  8
0
  5
144D
 10
67.3341
 20
25.2501
 30
0.000000
  70
    32
  0
VERTEX
  8
0
  5
144E
 10
67.3390
 20
25.2452
 30
0.000000
  70
    32
  0
VERTEX
  8
0
  5
144F
 10
67.3438
 20
25.2404
 30
0.000000
  70
    32
  0
VERTEX
  8
0
  5
1450
 10
67.3486
 20
25.2356
 30
0.000000
  70
    32
  0
VERTEX
  8
0
  5
1451
 10
67.3535
 20
25.2307
 30
0.000000
  70
    32
  0
VERTEX
  8
0
  5
1452
 10
67.3583
 20
25.2259
 30
0.000000
  70
    32
  0
VERTEX
  8
0
  5
1453
 10
67.3631
 20
25.2210
 30
0.000000
  70
    32
  0
VERTEX
  8
0
  5
1454
 10
67.3680
 20
25.2162
 30
0.000000
  70
    32
  0
VERTEX
  8
0
  5
1455
 10
67.3728
 20
25.2114
 30
0.000000
  70
    32
  0
VERTEX
  8
0
  5
1456
 10
67.3777
 20
25.2065
 30
0.000000
  70
    32
  0
VERTEX
  8
0
  5
1457
 10
67.3825
 20
25.2017
 30
0.000000
  70
    32
  0
VERTEX
  8
0
  5
1458
 10
67.3873
 20
25.1969
 30
0.000000
  70
    32
  0
VERTEX
  8
0
  5
1459
 10
67.3922
 20
25.1920
 30
0.000000
  70
    32
  0
VERTEX
  8
0
  5
145A
 10
67.3970
 20
25.1872
 30
0.000000
  70
    32
  0
VERTEX
  8
0
  5
145B
 10
67.4018
 20
25.1823
 30
0.000000
  70
    32
  0
VERTEX
  8
0
  5
145C
 10
67.4067
 20
25.1775
 30
0.000000
  70
    32
  0
VERTEX
  8
0
  5
145D
 10
67.4115
 20
25.1727
 30
0.000000
  70
    32
  0
VERTEX
  8
0
  5
145E
 10
67.4164
 20
25.1678
 30
0.000000
  70
    32
  0
VERTEX
  8
0
  5
145F
 10
67.4212
 20
25.1630
 30
0.000000
  70
    32
  0
VERTEX
  8
0
  5
1460
 10
67.4260
 20
25.1582
 30
0.000000
  70
    32
  0
VERTEX
  8
0
  5
1461
 10
67.4309
 20
25.1533
 30
0.000000
  70
    32
  0
VERTEX
  8
0
  5
1462
 10
67.4357
 20
25.1485
 30
0.000000
  70
    32
  0
VERTEX
  8
0
  5
1463
 10
67.4406
 20
25.1436
 30
0.000000
  70
    32
  0
VERTEX
  8
0
  5
1464
 10
67.4454
 20
25.1388
 30
0.000000
  70
    32
  0
VERTEX
  8
0
  5
1465
 10
67.4502
 20
25.1340
 30
0.000000
  70
    32
  0
VERTEX
  8
0
  5
1466
 10
67.4551
 20
25.1291
 30
0.000000
  70
    32
  0
SEQEND
  8
0
  5
1467
  0
POLYLINE
  8
0
  5
1468
  66
     1
 10
0.000000
 20
0.000000
 30
0.000000
  70
     8
  0
VERTEX
  8
0
  5
1469
 10
85.9590
 20
25.1291
 30
0.000000
  70
    32
  0
VERTEX
  8
0
  5
146A
 10
85.9638
 20
25.1340
 30
0.000000
  70
    32
  0
VERTEX
  8
0
  5
146B
 10
85.9686
 20
25.1388
 30
0.000000
  70
    32
  0
VERTEX
  8
0
  5
146C
 10
85.9735
 20
25.1436
 30
0.000000
  70
    32
  0
VERTEX
  8
0
  5
146D
 10
85.9783
 20
25.1485
 30
0.000000
  70
    32
  0
VERTEX
  8
0
  5
146E
 10
85.9832
 20
25.1533
 30
0.000000
  70
    32
  0
VERTEX
  8
0
  5
146F
 10
85.9880
 20
25.1582
 30
0.000000
  70
    32
  0
VERTEX
  8
0
  5
1470
 10
85.9928
 20
25.1630
 30
0.000000
  70
    32
  0
VERTEX
  8
0
  5
1471
 10
85.9977
 20
25.1678
 30
0.000000
  70
    32
  0
VERTEX
  8
0
  5
1472
 10
86.0025
 20
25.1727
 30
0.000000
  70
    32
  0
VERTEX
  8
0
  5
1473
 10
86.0073
 20
25.1775
 30
0.000000
  70
    32
  0
VERTEX
  8
0
  5
1474
 10
86.0122
 20
25.1823
 30
0.000000
  70
    32
  0
VERTEX
  8
0
  5
1475
 10
86.0170
 20
25.1872
 30
0.000000
  70
    32
  0
VERTEX
  8
0
  5
1476
 10
86.0219
 20
25.1920
 30
0.000000
  70
    32
  0
VERTEX
  8
0
  5
1477
 10
86.0267
 20
25.1969
 30
0.000000
  70
    32
  0
VERTEX
  8
0
  5
1478
 10
86.0315
 20
25.2017
 30
0.000000
  70
    32
  0
VERTEX
  8
0
  5
1479
 10
86.0364
 20
25.2065
 30
0.000000
  70
    32
  0
VERTEX
  8
0
  5
147A
 10
86.0412
 20
25.2114
 30
0.000000
  70
    32
  0
VERTEX
  8
0
  5
147B
 10
86.0461
 20
25.2162
 30
0.000000
  70
    32
  0
VERTEX
  8
0
  5
147C
 10
86.0509
 20
25.2210
 30
0.000000
  70
    32
  0
VERTEX
  8
0
  5
147D
 10
86.0557
 20
25.2259
 30
0.000000
  70
    32
  0
VERTEX
  8
0
  5
147E
 10
86.0606
 20
25.2307
 30
0.000000
  70
    32
  0
VERTEX
  8
0
  5
147F
 10
86.0654
 20
25.2356
 30
0.000000
  70
    32
  0
VERTEX
  8
0
  5
1480
 10
86.0702
 20
25.2404
 30
0.000000
  70
    32
  0
VERTEX
  8
0
  5
1481
 10
86.0751
 20
25.2452
 30
0.000000
  70
    32
  0
VERTEX
  8
0
  5
1482
 10
86.0799
 20
25.2501
 30
0.000000
  70
    32
  0
VERTEX
  8
0
  5
1483
 10
86.0848
 20
25.2549
 30
0.000000
  70
    32
  0
VERTEX
  8
0
  5
1484
 10
86.0896
 20
25.2598
 30
0.000000
  70
    32
  0
VERTEX
  8
0
  5
1485
 10
86.0944
 20
25.2646
 30
0.000000
  70
    32
  0
VERTEX
  8
0
  5
1486
 10
86.0993
 20
25.2694
 30
0.000000
  70
    32
  0
VERTEX
  8
0
  5
1487
 10
86.1041
 20
25.2743
 30
0.000000
  70
    32
  0
VERTEX
  8
0
  5
1488
 10
86.1089
 20
25.2791
 30
0.000000
  70
    32
  0
VERTEX
  8
0
  5
1489
 10
86.1138
 20
25.2839
 30
0.000000
  70
    32
  0
VERTEX
  8
0
  5
148A
 10
86.1186
 20
25.2888
 30
0.000000
  70
    32
  0
VERTEX
  8
0
  5
148B
 10
86.1235
 20
25.2936
 30
0.000000
  70
    32
  0
VERTEX
  8
0
  5
148C
 10
86.1283
 20
25.2985
 30
0.000000
  70
    32
  0
VERTEX
  8
0
  5
148D
 10
86.1331
 20
25.3033
 30
0.000000
  70
    32
  0
VERTEX
  8
0
  5
148E
 10
86.1380
 20
25.3081
 30
0.000000
  70
    32
  0
VERTEX
  8
0
  5
148F
 10
86.1428
 20
25.3130
 30
0.000000
  70
    32
  0
VERTEX
  8
0
  5
1490
 10
86.1477
 20
25.3178
 30
0.000000
  70
    32
  0
VERTEX
  8
0
  5
1491
 10
86.1525
 20
25.3226
 30
0.000000
  70
    32
  0
VERTEX
  8
0
  5
1492
 10
86.1573
 20
25.3275
 30
0.000000
  70
    32
  0
VERTEX
  8
0
  5
1493
 10
86.1622
 20
25.3323
 30
0.000000
  70
    32
  0
VERTEX
  8
0
  5
1494
 10
86.1670
 20
25.3372
 30
0.000000
  70
    32
  0
VERTEX
  8
0
  5
1495
 10
86.1718
 20
25.3420
 30
0.000000
  70
    32
  0
VERTEX
  8
0
  5
1496
 10
86.1767
 20
25.3468
 30
0.000000
  70
    32
  0
VERTEX
  8
0
  5
1497
 10
86.1815
 20
25.3517
 30
0.000000
  70
    32
  0
VERTEX
  8
0
  5
1498
 10
86.1864
 20
25.3565
 30
0.000000
  70
    32
  0
VERTEX
  8
0
  5
1499
 10
86.1912
 20
25.3614
 30
0.000000
  70
    32
  0
VERTEX
  8
0
  5
149A
 10
86.1960
 20
25.3662
 30
0.000000
  70
    32
  0
VERTEX
  8
0
  5
149B
 10
86.2009
 20
25.3710
 30
0.000000
  70
    32
  0
VERTEX
  8
0
  5
149C
 10
86.2057
 20
25.3759
 30
0.000000
  70
    32
  0
VERTEX
  8
0
  5
149D
 10
86.2105
 20
25.3807
 30
0.000000
  70
    32
  0
VERTEX
  8
0
  5
149E
 10
86.2154
 20
25.3855
 30
0.000000
  70
    32
  0
VERTEX
  8
0
  5
149F
 10
86.2202
 20
25.3904
 30
0.000000
  70
    32
  0
VERTEX
  8
0
  5
14A0
 10
86.2251
 20
25.3952
 30
0.000000
  70
    32
  0
VERTEX
  8
0
  5
14A1
 10
86.2299
 20
25.4001
 30
0.000000
  70
    32
  0
VERTEX
  8
0
  5
14A2
 10
86.2347
 20
25.4049
 30
0.000000
  70
    32
  0
VERTEX
  8
0
  5
14A3
 10
86.2396
 20
25.4097
 30
0.000000
  70
    32
  0
VERTEX
  8
0
  5
14A4
 10
86.2444
 20
25.4146
 30
0.000000
  70
    32
  0
VERTEX
  8
0
  5
14A5
 10
86.2493
 20
25.4194
 30
0.000000
  70
    32
  0
VERTEX
  8
0
  5
14A6
 10
86.2541
 20
25.4242
 30
0.000000
  70
    32
  0
VERTEX
  8
0
  5
14A7
 10
86.2589
 20
25.4291
 30
0.000000
  70
    32
  0
VERTEX
  8
0
  5
14A8
 10
86.2638
 20
25.4339
 30
0.000000
  70
    32
  0
SEQEND
  8
0
  5
14A9
  0
LINE
  5
1174
  8
0
 10
156.99251810870479
 20
39.14362395626847
 30
0.0
 11
157.69251810870489
 21
39.843623956268523
 31
0.0
  0
LINE
  5
1176
  8
0
 10
136.4215181087047
 20
39.14362395626847
 30
0.0
 11
135.72151810870491
 21
39.843623956268523
 31
0.0
  0
LINE
  5
1181
  8
0
 10
236.99251810870439
 20
39.143623956268577
 30
0.0
 11
237.69251810870449
 21
39.84362395626863
 31
0.0
  0
LINE
  5
1183
  8
0
 10
216.4215181087043
 20
39.143623956268577
 30
0.0
 11
215.72151810870449
 21
39.84362395626863
 31
0.0
  0
CIRCLE
  5
11A9
  8
0
 10
76.707018108704915
 20
140.1226239562686
 30
0.0
 40
4.3071796769724946
  0
LINE
  5
11AA
  8
0
 10
74.207018108705142
 20
138.67924828329481
 30
0.0
 11
76.707018108705142
 21
137.2358726103206
 31
0.0
  0
LINE
  5
11AB
  8
0
 10
76.707018108705142
 20
137.2358726103206
 30
0.0
 11
79.207018108704915
 21
138.67924828329481
 31
0.0
  0
LINE
  5
11AC
  8
0
 10
79.207018108704915
 20
138.67924828329481
 30
0.0
 11
79.207018108704915
 21
141.56599962924329
 31
0.0
  0
LINE
  5
11AD
  8
0
 10
79.207018108704915
 20
141.56599962924329
 30
0.0
 11
76.707018108704915
 21
143.00937530221691
 31
0.0
  0
LINE
  5
11AE
  8
0
 10
76.707018108704915
 20
143.00937530221691
 30
0.0
 11
74.207018108704673
 21
141.5659996292425
 31
0.0
  0
LINE
  5
11AF
  8
0
 10
74.207018108704673
 20
141.5659996292425
 30
0.0
 11
74.207018108705142
 21
138.67924828329481
 31
0.0
  0
CIRCLE
  5
11B0
  8
0
 10
76.707018108704915
 20
140.1226239562686
 30
0.0
 40
5.0
  0
ARC
  5
11B1
  8
0
 10
146.70701810870511
 20
140.1226239562686
 30
0.0
 40
5.0
 50
72.269593739242495
 51
107.7304062607575
  0
ARC
  5
11B3
  8
0
 10
146.70701810870511
 20
140.1226239562686
 30
0.0
 40
5.0
 50
252.26959373924251
 51
287.73040626075749
  0
LINE
  5
11FA
  8
0
 10
72.399838431732405
 20
49.129123956268579
 30
0.0
 11
81.014197785677425
 21
49.129123956268579
 31
0.0
  0
LINE
  5
11FB
  8
0
 10
71.707018108704943
 20
48.72912395626858
 30
0.0
 11
81.707018108704943
 21
48.729123956268587
 31
0.0
  0
LINE
  5
11FC
  8
0
 10
81.707018108704943
 20
48.72912395626858
 30
0.0
 11
81.01419778567741
 21
49.129123956268579
 31
0.0
  0
LINE
  5
11FD
  8
0
 10
71.707018108704958
 20
48.729123956268609
 30
0.0
 11
72.399838431732391
 21
49.129123956268572
 31
0.0
  0
LINE
  5
11FE
  8
0
 10
81.707018108704943
 20
48.729123956268587
 30
0.0
 11
81.707018108704943
 21
43.129123956268593
 31
0.0
  0
LINE
  5
11FF
  8
0
 10
71.707018108704943
 20
43.129123956268593
 30
0.0
 11
71.707018108704943
 21
48.72912395626858
 31
0.0
  0
LINE
  5
1209
  8
0
 10
141.70701810870489
 20
43.129123956268593
 30
0.0
 11
141.70701810870489
 21
48.72912395626858
 31
0.0
  0
LINE
  5
120A
  8
0
 10
141.707018108705
 20
48.729123956268609
 30
0.0
 11
142.39983843173241
 21
49.129123956268572
 31
0.0
  0
LINE
  5
120B
  8
0
 10
141.70701810870489
 20
48.72912395626858
 30
0.0
 11
151.70701810870489
 21
48.729123956268587
 31
0.0
  0
LINE
  5
120C
  8
0
 10
142.39983843173241
 20
49.129123956268579
 30
0.0
 11
151.0141977856774
 21
49.129123956268579
 31
0.0
  0
LINE
  5
120D
  8
0
 10
151.70701810870489
 20
48.729123956268587
 30
0.0
 11
151.70701810870489
 21
43.129123956268593
 31
0.0
  0
LINE
  5
120E
  8
0
 10
151.70701810870489
 20
48.72912395626858
 30
0.0
 11
151.0141977856774
 21
49.129123956268579
 31
0.0
  0
LINE
  5
120F
  8
0
 10
156.99251810870501
 20
43.129123956268593
 30
0.0
 11
157.692518108705
 21
42.42912395626854
 31
0.0
  0
LINE
  5
1210
  8
0
 10
157.69251810870489
 20
39.84362395626863
 30
0.0
 11
157.69251810870489
 21
42.429123956268683
 31
0.0
  0
LINE
  5
1211
  8
0
 10
136.4215181087049
 20
43.129123956268593
 30
0.0
 11
156.99251810870501
 21
43.129123956268593
 31
0.0
  0
LINE
  5
1212
  8
0
 10
136.4215181087049
 20
43.129123956268593
 30
0.0
 11
135.721518108705
 21
42.42912395626854
 31
0.0
  0
LINE
  5
1213
  8
0
 10
135.72151810870491
 20
39.84362395626863
 30
0.0
 11
135.721518108705
 21
42.42912395626854
 31
0.0
  0
LINE
  5
1214
  8
0
 10
221.70701810870469
 20
43.129123956268593
 30
0.0
 11
221.70701810870469
 21
48.72912395626858
 31
0.0
  0
LINE
  5
1215
  8
0
 10
221.70701810870469
 20
48.729123956268609
 30
0.0
 11
221.9445181087049
 21
48.866244645201242
 31
0.0
  0
LINE
  5
1216
  8
0
 10
221.70701810870469
 20
48.72912395626858
 30
0.0
 11
221.9445181087049
 21
48.72912395626858
 31
0.0
  0
LINE
  5
1218
  8
0
 10
231.70701810870469
 20
48.729123956268587
 30
0.0
 11
231.70701810870469
 21
43.129123956268593
 31
0.0
  0
LINE
  5
1219
  8
0
 10
231.70701810870469
 20
48.72912395626858
 30
0.0
 11
231.4695181087047
 21
48.866244645201093
 31
0.0
  0
LINE
  5
121A
  8
0
 10
236.9925181087047
 20
43.129123956268593
 30
0.0
 11
237.6925181087048
 21
42.42912395626854
 31
0.0
  0
LINE
  5
121B
  8
0
 10
237.69251810870469
 20
39.84362395626863
 30
0.0
 11
237.69251810870469
 21
42.429123956268683
 31
0.0
  0
LINE
  5
121C
  8
0
 10
216.42151810870459
 20
43.129123956268593
 30
0.0
 11
236.9925181087047
 21
43.129123956268593
 31
0.0
  0
LINE
  5
121D
  8
0
 10
216.42151810870459
 20
43.129123956268593
 30
0.0
 11
215.7215181087048
 21
42.42912395626854
 31
0.0
  0
LINE
  5
121E
  8
0
 10
215.72151810870469
 20
39.84362395626863
 30
0.0
 11
215.7215181087048
 21
42.42912395626854
 31
0.0
  0
LINE
  5
121F
  8
0
 10
231.4695181087047
 20
48.729123956268587
 30
0.0
 11
231.70701810870469
 21
48.729123956268587
 31
0.0
  0
TEXT
  5
12C7
  8
0
 62
     3
 10
0.0
 20
0.0
 30
0.0
 40
10.0
  1
HR6
  7
STANDARD1
  0
ENDSEC
  0
EOF
