  0
SECTION
  2
HEADER
  9
$ACADVER
  1
AC1009
  9
$INSBASE
 10
0.0
 20
0.0
 30
0.0
  9
$EXTMIN
 10
0.0
 20
-2.960436562073669
 30
0.0
  9
$EXTMAX
 10
1198.889315529342
 20
895.95864903688505
 30
0.0
  9
$LIMMIN
 10
0.0
 20
0.0
  9
$LIMMAX
 10
1125.0
 20
810.0
  9
$ORTHOMODE
 70
     1
  9
$REGENMODE
 70
     1
  9
$FILLMODE
 70
     1
  9
$QTEXTMODE
 70
     0
  9
$MIRRTEXT
 70
     0
  9
$DRAGMODE
 70
     2
  9
$LTSCALE
 40
30.0
  9
$OSMODE
 70
    55
  9
$ATTMODE
 70
     1
  9
$TEXTSIZE
 40
0.2
  9
$TRACEWID
 40
0.05
  9
$TEXTSTYLE
  7
STANDARD
  9
$CLAYER
  8
0
  9
$CELTYPE
  6
BYLAYER
  9
$CECOLOR
 62
   256
  9
$DIMSCALE
 40
3.0
  9
$DIMASZ
 40
3.0
  9
$DIMEXO
 40
2.0
  9
$DIMDLI
 40
0.38
  9
$DIMRND
 40
0.0
  9
$DIMDLE
 40
0.0
  9
$DIMEXE
 40
2.0
  9
$DIMTP
 40
0.0
  9
$DIMTM
 40
0.0
  9
$DIMTXT
 40
3.0
  9
$DIMCEN
 40
0.0
  9
$DIMTSZ
 40
0.0
  9
$DIMTOL
 70
     0
  9
$DIMLIM
 70
     0
  9
$DIMTIH
 70
     0
  9
$DIMTOH
 70
     0
  9
$DIMSE1
 70
     0
  9
$DIMSE2
 70
     0
  9
$DIMTAD
 70
     1
  9
$DIMZIN
 70
     0
  9
$DIMBLK
  1

  9
$DIMASO
 70
     0
  9
$DIMSHO
 70
     0
  9
$DIMPOST
  1

  9
$DIMAPOST
  1

  9
$DIMALT
 70
     0
  9
$DIMALTD
 70
     2
  9
$DIMALTF
 40
25.399999999999999
  9
$DIMLFAC
 40
1.0
  9
$DIMTOFL
 70
     1
  9
$DIMTVP
 40
1.6000000000000001
  9
$DIMTIX
 70
     1
  9
$DIMSOXD
 70
     0
  9
$DIMSAH
 70
     0
  9
$DIMBLK1
  1

  9
$DIMBLK2
  1

  9
$DIMSTYLE
  2
STANDARD
  9
$DIMCLRD
 70
     0
  9
$DIMCLRE
 70
     0
  9
$DIMCLRT
 70
     0
  9
$DIMTFAC
 40
1.0
  9
$DIMGAP
 40
0.09
  9
$LUNITS
 70
     2
  9
$LUPREC
 70
     4
  9
$SKETCHINC
 40
0.1
  9
$FILLETRAD
 40
0.0
  9
$AUNITS
 70
     0
  9
$AUPREC
 70
     4
  9
$MENU
  1
E:\r13\win\SUPPORT\ACAD
  9
$ELEVATION
 40
0.0
  9
$PELEVATION
 40
0.0
  9
$THICKNESS
 40
0.0
  9
$LIMCHECK
 70
     0
  9
$BLIPMODE
 70
     0
  9
$CHAMFERA
 40
0.0
  9
$CHAMFERB
 40
0.0
  9
$SKPOLY
 70
     0
  9
$TDCREATE
 40
2449840.6098379628
  9
$TDUPDATE
 40
2456598.6908034948
  9
$TDINDWG
 40
0.0972701042
  9
$TDUSRTIMER
 40
0.0972701042
  9
$USRTIMER
 70
     1
  9
$ANGBASE
 50
0.0
  9
$ANGDIR
 70
     0
  9
$PDMODE
 70
     0
  9
$PDSIZE
 40
0.0
  9
$PLINEWID
 40
0.0
  9
$COORDS
 70
     1
  9
$SPLFRAME
 70
     0
  9
$SPLINETYPE
 70
     6
  9
$SPLINESEGS
 70
     8
  9
$ATTDIA
 70
     0
  9
$ATTREQ
 70
     1
  9
$HANDLING
 70
     1
  9
$HANDSEED
  5
6BC
  9
$SURFTAB1
 70
     6
  9
$SURFTAB2
 70
     6
  9
$SURFTYPE
 70
     6
  9
$SURFU
 70
     6
  9
$SURFV
 70
     6
  9
$UCSNAME
  2

  9
$UCSORG
 10
0.0
 20
0.0
 30
0.0
  9
$UCSXDIR
 10
1.0
 20
0.0
 30
0.0
  9
$UCSYDIR
 10
0.0
 20
1.0
 30
0.0
  9
$PUCSNAME
  2

  9
$PUCSORG
 10
0.0
 20
0.0
 30
0.0
  9
$PUCSXDIR
 10
1.0
 20
0.0
 30
0.0
  9
$PUCSYDIR
 10
0.0
 20
1.0
 30
0.0
  9
$USERI1
 70
     0
  9
$USERI2
 70
     1
  9
$USERI3
 70
     1
  9
$USERI4
 70
     0
  9
$USERI5
 70
     0
  9
$USERR1
 40
0.0
  9
$USERR2
 40
0.0
  9
$USERR3
 40
0.0
  9
$USERR4
 40
0.0
  9
$USERR5
 40
0.0
  9
$WORLDVIEW
 70
     1
  9
$SHADEDGE
 70
     3
  9
$SHADEDIF
 70
    70
  9
$TILEMODE
 70
     1
  9
$MAXACTVP
 70
    16
  9
$PLIMCHECK
 70
     0
  9
$PEXTMIN
 10
1.0000000000000000E+020
 20
1.0000000000000000E+020
 30
1.0000000000000000E+020
  9
$PEXTMAX
 10
-1.0000000000000000E+020
 20
-1.0000000000000000E+020
 30
-1.0000000000000000E+020
  9
$PLIMMIN
 10
0.0
 20
0.0
  9
$PLIMMAX
 10
12.0
 20
9.0
  9
$UNITMODE
 70
     0
  9
$VISRETAIN
 70
     0
  9
$PLINEGEN
 70
     0
  9
$PSLTSCALE
 70
     0
  0
ENDSEC
  0
SECTION
  2
TABLES
  0
TABLE
  2
VPORT
 70
     1
  0
VPORT
  2
*ACTIVE
 70
     0
 10
0.0
 20
0.0
 11
1.0
 21
1.0
 12
599.44466055605335
 22
582.86039216105235
 13
0.0
 23
0.0
 14
30.0
 24
30.0
 15
30.0
 25
30.0
 16
0.0
 26
0.0
 36
1.0
 17
0.0
 27
0.0
 37
0.0
 40
1181.986889165315
 41
1.7807262569832401
 42
50.0
 43
0.0
 44
0.0
 50
0.0
 51
0.0
 71
     0
 72
   500
 73
     1
 74
     0
 75
     0
 76
     0
 77
     0
 78
     2
  0
ENDTAB
  0
TABLE
  2
LTYPE
 70
     3
  0
LTYPE
  2
CONTINUOUS
 70
     0
  3
Solid Line
 72
    65
 73
     0
 40
0.0
  0
LTYPE
  2
CENTER
 70
     0
  3
____ _ ____ _ ____ _ ____ _ ____ _ ____ _ ____
 72
    65
 73
     4
 40
2.0
 49
1.25
 49
-0.25
 49
0.25
 49
-0.25
  0
LTYPE
  2
PHANTOM2
 70
     0
  3
___ _ _ ___ _ _ ___ _ _ ___ _ _
 72
    65
 73
     6
 40
1.25
 49
0.625
 49
-0.125
 49
0.125
 49
-0.125
 49
0.125
 49
-0.125
  0
ENDTAB
  0
TABLE
  2
LAYER
 70
     3
  0
LAYER
  2
0
 70
     0
 62
     7
  6
CONTINUOUS
  0
LAYER
  2
1
 70
     0
 62
     1
  6
CENTER
  0
LAYER
  2
3
 70
     0
 62
     3
  6
CONTINUOUS
  0
ENDTAB
  0
TABLE
  2
STYLE
 70
     2
  0
STYLE
  2
STANDARD
 70
     0
 40
0.0
 41
1.0
 50
0.0
 71
     0
 42
0.2
  3
TXT
  4
BIGFONT
  0
STYLE
  2
STANDARD1
 70
     0
 40
0.0
 41
1.0
 50
0.0
 71
     0
 42
3.0
  3
txt
  4

  0
ENDTAB
  0
TABLE
  2
VIEW
 70
     1
  0
VIEW
  2
ALL
 70
     0
 40
810.0
 10
662.97478991596643
 20
405.0
 41
0.0
 11
0.0
 21
0.0
 31
1.0
 12
0.0
 22
0.0
 32
0.0
 42
0.0
 43
0.0
 44
0.0
 50
0.0
 71
     0
  0
ENDTAB
  0
TABLE
  2
UCS
 70
     0
  0
ENDTAB
  0
TABLE
  2
APPID
 70
     4
  0
APPID
  2
ACAD
 70
     0
  0
APPID
  2
DCO15
 70
     0
  0
APPID
  2
ACAD_MLEADERVER
 70
     0
  0
APPID
  2
ACAD_NAV_VCDISPLAY
 70
     0
  0
ENDTAB
  0
TABLE
  2
DIMSTYLE
 70
     1
  0
DIMSTYLE
  2
STANDARD
 70
     0
  3

  4

  5

  6

  7

 40
1.0
 41
0.18
 42
0.0625
 43
0.38
 44
0.18
 45
0.0
 46
0.0
 47
0.0
 48
0.0
140
0.18
141
0.09
142
0.0
143
25.399999999999999
144
1.0
145
0.0
146
1.0
147
0.09
 71
     0
 72
     0
 73
     1
 74
     1
 75
     0
 76
     0
 77
     0
 78
     0
170
     0
171
     2
172
     0
173
     0
174
     0
175
     0
176
     0
177
     0
178
     0
  0
ENDTAB
  0
ENDSEC
  0
SECTION
  2
BLOCKS
  0
BLOCK
  8
0
  2
$MODEL_SPACE
 70
     0
 10
0.0
 20
0.0
 30
0.0
  3
$MODEL_SPACE
  1

  0
ENDBLK
  5
1C6
  8
0
  0
BLOCK
 67
     1
  8
0
  2
$PAPER_SPACE
 70
     0
 10
0.0
 20
0.0
 30
0.0
  3
$PAPER_SPACE
  1

  0
ENDBLK
  5
1C4
 67
     1
  8
0
  0
ENDSEC
  0
SECTION
  2
ENTITIES
  0
LINE
  5
2D3
  8
0
  6
CONTINUOUS
 62
     7
 10
846.47553612255876
 20
276.00489456111927
 30
0.0
 11
846.47553612255876
 21
428.22726303435633
 31
0.0
  0
LINE
  5
2D4
  8
0
  6
CONTINUOUS
 62
     7
 10
780.86286343759298
 20
284.71709093416831
 30
0.0
 11
780.86286343759298
 21
327.96492205404121
 31
0.0
  0
LINE
  5
2D5
  8
0
  6
CONTINUOUS
 62
     7
 10
708.86289341170516
 20
327.96492205404121
 30
0.0
 11
708.86289341170516
 21
284.71709093416831
 31
0.0
  0
LINE
  5
2D6
  8
0
  6
CONTINUOUS
 62
     7
 10
802.02555462741032
 20
291.9560879205211
 30
0.0
 11
806.99125256015407
 21
286.99038998777712
 31
0.0
  0
LINE
  5
2D7
  8
0
  6
CONTINUOUS
 62
     7
 10
687.70020222188816
 20
291.9560879205211
 30
0.0
 11
682.73450428914396
 21
286.99038998777712
 31
0.0
  0
LINE
  5
2D8
  8
0
  6
CONTINUOUS
 62
     7
 10
643.2502207267396
 20
428.22726303435633
 30
0.0
 11
643.2502207267396
 21
276.00489456111927
 31
0.0
  0
LINE
  5
2DA
  8
0
  6
CONTINUOUS
 62
     7
 10
797.28337660161355
 20
213.13992073226621
 30
0.0
 11
692.44238024768458
 21
213.13992073226621
 31
0.0
  0
LINE
  5
2DB
  8
0
  6
CONTINUOUS
 62
     7
 10
798.07585627169851
 20
213.93240040235111
 30
0.0
 11
691.64990057759974
 21
213.93240040235111
 31
0.0
  0
LINE
  5
2DC
  8
0
  6
CONTINUOUS
 62
     7
 10
806.77535265003485
 20
229.091114091668
 30
0.0
 11
682.9504041992634
 21
229.091114091668
 31
0.0
  0
LINE
  5
2DD
  8
0
  6
CONTINUOUS
 62
     7
 10
806.77535265003485
 20
227.5671147261202
 30
0.0
 11
682.9504041992634
 21
227.5671147261202
 31
0.0
  0
LINE
  5
2DE
  8
0
  6
CONTINUOUS
 62
     7
 10
806.77535265003485
 20
270.49309685572069
 30
0.0
 11
682.9504041992634
 21
270.49309685572092
 31
0.0
  0
LINE
  5
2DF
  8
0
  6
CONTINUOUS
 62
     7
 10
806.77535265003485
 20
272.01709622126867
 30
0.0
 11
682.9504041992634
 21
272.01709622126867
 31
0.0
  0
LINE
  5
2E0
  8
0
  6
CONTINUOUS
 62
     7
 10
803.60035397180957
 20
283.52646642983387
 30
0.0
 11
686.12540287748857
 21
283.52646642983387
 31
0.0
  0
LINE
  5
2E1
  8
0
  6
CONTINUOUS
 62
     7
 10
802.40972946747547
 20
284.71709093416831
 30
0.0
 11
687.31602738182278
 21
284.71709093416831
 31
0.0
  0
LINE
  5
2E2
  8
0
  6
CONTINUOUS
 62
     7
 10
691.64990057759974
 20
227.5671147261202
 30
0.0
 11
691.64990057759974
 21
213.93240040235111
 31
0.0
  0
LINE
  5
2E3
  8
0
  6
CONTINUOUS
 62
     7
 10
682.73450428914452
 20
223.99906559555899
 30
0.0
 11
682.73450428914452
 21
223.49041642327941
 31
0.0
  0
POLYLINE
  5
2E4
  8
0
  6
CONTINUOUS
 62
     7
 66
     1
 10
0.0
 20
0.0
 30
0.0
 70
   128
  0
VERTEX
  5
2E5
  8
0
 10
682.73450428914452
 20
223.99906559555899
 30
0.0
  0
VERTEX
  5
2E6
  8
0
 10
681.15102135770917
 20
225.75164580244549
 30
0.0
  0
VERTEX
  5
2E7
  8
0
 10
679.39048688439436
 20
227.32628034543819
 30
0.0
  0
VERTEX
  5
2E8
  8
0
 10
677.47278535015153
 20
228.70518440347769
 30
0.0
  0
VERTEX
  5
2E9
  8
0
 10
675.41957637040207
 20
229.87278384729129
 30
0.0
  0
VERTEX
  5
2EA
  8
0
 10
673.25405005898324
 20
230.8158911424955
 30
0.0
  0
VERTEX
  5
2EB
  8
0
 10
671.00066510576494
 20
231.5238542971349
 30
0.0
  0
VERTEX
  5
2EC
  8
0
 10
668.68487252625459
 20
231.9886771713573
 30
0.0
  0
VERTEX
  5
2ED
  8
0
 10
666.33282820330101
 20
232.20510979037999
 30
0.0
  0
VERTEX
  5
2EE
  8
0
 10
663.97109746762965
 20
232.17070764070161
 30
0.0
  0
VERTEX
  5
2EF
  8
0
 10
661.6263550538398
 20
231.88585927983129
 30
0.0
  0
VERTEX
  5
2F0
  8
0
 10
659.32508382072785
 20
231.35378194769919
 30
0.0
  0
VERTEX
  5
2F1
  8
0
 10
657.09327563877173
 20
230.5804852293127
 30
0.0
  0
VERTEX
  5
2F2
  8
0
 10
654.95613782310943
 20
229.57470317907379
 30
0.0
  0
VERTEX
  5
2F3
  8
0
 10
652.93780842774254
 20
228.34779567338569
 30
0.0
  0
VERTEX
  5
2F4
  8
0
 10
651.06108361657709
 20
226.91362010572541
 30
0.0
  0
VERTEX
  5
2F5
  8
0
 10
649.34716019054315
 20
225.2883748733349
 30
0.0
  0
VERTEX
  5
2F6
  8
0
 10
647.81539617882675
 20
223.49041642327921
 30
0.0
  0
SEQEND
  5
2F7
  8
0
  0
LINE
  5
2F8
  8
0
  6
CONTINUOUS
 62
     7
 10
647.35231901900602
 20
223.49041642327941
 30
0.0
 11
647.35231901900625
 21
271.90279626885263
 31
0.0
  0
LINE
  5
2F9
  8
0
  6
CONTINUOUS
 62
     7
 10
647.8153961788272
 20
223.49041642327941
 30
0.0
 11
682.73450428914452
 21
223.49041642327941
 31
0.0
  0
LINE
  5
2FB
  8
0
  6
CONTINUOUS
 62
     7
 10
691.64990057759974
 20
213.93240040235111
 30
0.0
 11
692.44238024768458
 21
213.13992073226621
 31
0.0
  0
LINE
  5
2FF
  8
0
  6
CONTINUOUS
 62
     7
 10
637.31932319581551
 20
232.30421275403171
 30
0.0
 11
637.31932319581551
 21
260.9300008369072
 31
0.0
  0
LINE
  5
300
  8
0
  6
CONTINUOUS
 62
     7
 10
636.30332361878322
 20
233.32021233106369
 30
0.0
 11
636.30332361878322
 21
259.91400125987519
 31
0.0
  0
LINE
  5
301
  8
0
  6
CONTINUOUS
 62
     7
 10
637.31932319581551
 20
232.30421275403171
 30
0.0
 11
647.35231901900602
 21
232.30421275403171
 31
0.0
  0
LINE
  5
302
  8
0
  6
CONTINUOUS
 62
     7
 10
636.30332361878322
 20
233.32021233106369
 30
0.0
 11
637.31932319581551
 21
232.30421275403171
 31
0.0
  0
LINE
  5
305
  8
0
  6
CONTINUOUS
 62
     7
 10
647.35231901900602
 20
260.93000083690731
 30
0.0
 11
637.31932319581551
 21
260.93000083690731
 31
0.0
  0
LINE
  5
306
  8
0
  6
CONTINUOUS
 62
     7
 10
637.31932319581551
 20
260.93000083690731
 30
0.0
 11
636.30332361878322
 21
259.91400125987542
 31
0.0
  0
LINE
  5
307
  8
0
  6
CONTINUOUS
 62
     7
 10
647.35231901900602
 20
271.90279626885263
 30
0.0
 11
643.2502207267396
 21
276.00489456111927
 31
0.0
  0
LINE
  5
308
  8
0
  6
CONTINUOUS
 62
     7
 10
682.9504041992634
 20
270.49309685572092
 30
0.0
 11
682.9504041992634
 21
229.091114091668
 31
0.0
  0
LINE
  5
309
  8
0
  6
CONTINUOUS
 62
     7
 10
682.73450428914452
 20
286.99038998777729
 30
0.0
 11
682.73450428914452
 21
223.99906559555899
 31
0.0
  0
LINE
  5
30A
  8
0
  6
CONTINUOUS
 62
     7
 10
682.73450428914452
 20
235.0791615988002
 30
0.0
 11
682.9504041992634
 21
235.0791615988002
 31
0.0
  0
LINE
  5
30B
  8
0
  6
CONTINUOUS
 62
     7
 10
682.9504041992634
 20
229.091114091668
 30
0.0
 11
682.9504041992634
 21
227.5671147261202
 31
0.0
  0
LINE
  5
30C
  8
0
  6
CONTINUOUS
 62
     7
 10
682.9504041992634
 20
272.01709622126867
 30
0.0
 11
682.9504041992634
 21
270.49309685572092
 31
0.0
  0
LINE
  5
30D
  8
0
  6
CONTINUOUS
 62
     7
 10
682.9504041992634
 20
258.15505199213891
 30
0.0
 11
682.73450428914452
 21
258.15505199213891
 31
0.0
  0
LINE
  5
30E
  8
0
  6
CONTINUOUS
 62
     7
 10
687.31602738182278
 20
284.71709093416831
 30
0.0
 11
686.12540287748857
 21
283.52646642983387
 31
0.0
  0
LINE
  5
30F
  8
0
  6
CONTINUOUS
 62
     7
 10
686.12540287748857
 20
283.52646642983387
 30
0.0
 11
686.12540287748857
 21
272.01709622126867
 31
0.0
  0
LINE
  5
310
  8
0
  6
CONTINUOUS
 62
     7
 10
768.86286843327821
 20
130.1399573672926
 30
0.0
 11
768.86286843327821
 21
213.13992073226621
 31
0.0
  0
LINE
  5
311
  8
0
  6
CONTINUOUS
 62
     7
 10
720.86288841602004
 20
213.13992073226621
 30
0.0
 11
720.86288841602004
 21
130.1399573672926
 31
0.0
  0
LINE
  5
312
  8
0
 10
720.86288841602004
 20
130.1399573672926
 30
0.0
 11
768.86286843327821
 21
130.1399573672926
 31
0.0
  0
LINE
  5
313
  8
0
  6
CONTINUOUS
 62
     7
 10
763.86286843327821
 20
125.1399573672926
 30
0.0
 11
725.86288841602004
 21
125.1399573672926
 31
0.0
  0
LINE
  5
314
  8
0
  6
CONTINUOUS
 62
     7
 10
720.86288841602004
 20
130.1399573672926
 30
0.0
 11
725.86288841602004
 21
125.1399573672926
 31
0.0
  0
LINE
  5
315
  8
0
  6
CONTINUOUS
 62
     7
 10
768.86286843327821
 20
130.1399573672926
 30
0.0
 11
763.86286843327821
 21
125.1399573672926
 31
0.0
  0
LINE
  5
316
  8
0
  6
CONTINUOUS
 62
     7
 10
842.37343783029235
 20
223.49041642327941
 30
0.0
 11
842.37343783029235
 21
271.9027962688528
 31
0.0
  0
LINE
  5
317
  8
0
  6
CONTINUOUS
 62
     7
 10
806.99125256015407
 20
223.49041642327941
 30
0.0
 11
806.99125256015407
 21
223.99906559555899
 31
0.0
  0
LINE
  5
318
  8
0
  6
CONTINUOUS
 62
     7
 10
798.07585627169851
 20
213.93240040235111
 30
0.0
 11
798.07585627169851
 21
227.5671147261202
 31
0.0
  0
POLYLINE
  5
319
  8
0
  6
CONTINUOUS
 62
     7
 66
     1
 10
0.0
 20
0.0
 30
0.0
 70
   128
  0
VERTEX
  5
31A
  8
0
 10
806.99125256015407
 20
223.99906559555899
 30
0.0
  0
VERTEX
  5
31B
  8
0
 10
808.57473549158908
 20
225.75164580244549
 30
0.0
  0
VERTEX
  5
31C
  8
0
 10
810.33526996490377
 20
227.32628034543819
 30
0.0
  0
VERTEX
  5
31D
  8
0
 10
812.25297149914718
 20
228.70518440347769
 30
0.0
  0
VERTEX
  5
31E
  8
0
 10
814.30618047889595
 20
229.87278384729129
 30
0.0
  0
VERTEX
  5
31F
  8
0
 10
816.47170679031535
 20
230.8158911424955
 30
0.0
  0
VERTEX
  5
320
  8
0
 10
818.72509174353331
 20
231.5238542971349
 30
0.0
  0
VERTEX
  5
321
  8
0
 10
821.04088432304354
 20
231.9886771713573
 30
0.0
  0
VERTEX
  5
322
  8
0
 10
823.39292864599793
 20
232.20510979037999
 30
0.0
  0
VERTEX
  5
323
  8
0
 10
825.75465938166872
 20
232.17070764070161
 30
0.0
  0
VERTEX
  5
324
  8
0
 10
828.09940179545902
 20
231.88585927983129
 30
0.0
  0
VERTEX
  5
325
  8
0
 10
830.40067302857005
 20
231.35378194769919
 30
0.0
  0
VERTEX
  5
326
  8
0
 10
832.63248121052675
 20
230.5804852293127
 30
0.0
  0
VERTEX
  5
327
  8
0
 10
834.76961902618962
 20
229.57470317907379
 30
0.0
  0
VERTEX
  5
328
  8
0
 10
836.78794842155628
 20
228.34779567338569
 30
0.0
  0
VERTEX
  5
329
  8
0
 10
838.6646732327207
 20
226.91362010572541
 30
0.0
  0
VERTEX
  5
32A
  8
0
 10
840.37859665875465
 20
225.2883748733349
 30
0.0
  0
VERTEX
  5
32B
  8
0
 10
841.91036067047105
 20
223.49041642327921
 30
0.0
  0
SEQEND
  5
32C
  8
0
  0
LINE
  5
32D
  8
0
  6
CONTINUOUS
 62
     7
 10
806.99125256015407
 20
223.49041642327941
 30
0.0
 11
841.91036067047105
 21
223.49041642327941
 31
0.0
  0
LINE
  5
32E
  8
0
  6
CONTINUOUS
 62
     7
 10
797.28337660161355
 20
213.13992073226621
 30
0.0
 11
798.07585627169851
 21
213.93240040235111
 31
0.0
  0
LINE
  5
32F
  8
0
  6
CONTINUOUS
 62
     7
 10
841.91036067047105
 20
223.49041642327941
 30
0.0
 11
842.37343783029235
 21
223.49041642327941
 31
0.0
  0
LINE
  5
330
  8
0
  6
CONTINUOUS
 62
     7
 10
842.37343783029235
 20
232.30421275403171
 30
0.0
 11
852.40643365348285
 21
232.30421275403171
 31
0.0
  0
LINE
  5
331
  8
0
  6
CONTINUOUS
 62
     7
 10
852.40643365348285
 20
260.93000083690731
 30
0.0
 11
842.37343783029235
 21
260.93000083690731
 31
0.0
  0
LINE
  5
332
  8
0
  6
CONTINUOUS
 62
     7
 10
842.37343783029235
 20
271.90279626885263
 30
0.0
 11
846.47553612255876
 21
276.00489456111927
 31
0.0
  0
LINE
  5
334
  8
0
  6
CONTINUOUS
 62
     7
 10
806.77535265003485
 20
229.091114091668
 30
0.0
 11
806.77535265003485
 21
270.49309685572069
 31
0.0
  0
LINE
  5
335
  8
0
  6
CONTINUOUS
 62
     7
 10
806.99125256015407
 20
286.99038998777729
 30
0.0
 11
806.99125256015407
 21
223.99906559555899
 31
0.0
  0
LINE
  5
336
  8
0
  6
CONTINUOUS
 62
     7
 10
806.77535265003485
 20
235.0791615988002
 30
0.0
 11
806.99125256015407
 21
235.0791615988002
 31
0.0
  0
LINE
  5
337
  8
0
  6
CONTINUOUS
 62
     7
 10
806.77535265003485
 20
227.5671147261202
 30
0.0
 11
806.77535265003485
 21
229.091114091668
 31
0.0
  0
LINE
  5
33A
  8
0
  6
CONTINUOUS
 62
     7
 10
806.77535265003485
 20
270.49309685572069
 30
0.0
 11
806.77535265003485
 21
272.01709622126867
 31
0.0
  0
LINE
  5
33B
  8
0
  6
CONTINUOUS
 62
     7
 10
806.99125256015407
 20
258.15505199213891
 30
0.0
 11
806.77535265003485
 21
258.15505199213891
 31
0.0
  0
LINE
  5
33C
  8
0
  6
CONTINUOUS
 62
     7
 10
803.60035397180957
 20
283.52646642983387
 30
0.0
 11
802.40972946747547
 21
284.71709093416831
 31
0.0
  0
LINE
  5
33D
  8
0
  6
CONTINUOUS
 62
     7
 10
803.60035397180957
 20
272.01709622126867
 30
0.0
 11
803.60035397180957
 21
283.52646642983387
 31
0.0
  0
LINE
  5
340
  8
0
  6
CONTINUOUS
 62
     7
 10
853.4224332305148
 20
233.32021233106369
 30
0.0
 11
853.4224332305148
 21
259.91400125987542
 31
0.0
  0
LINE
  5
341
  8
0
  6
CONTINUOUS
 62
     7
 10
852.40643365348285
 20
232.30421275403171
 30
0.0
 11
852.40643365348342
 21
260.93000083690731
 31
0.0
  0
LINE
  5
342
  8
0
  6
CONTINUOUS
 62
     7
 10
852.40643365348285
 20
232.30421275403171
 30
0.0
 11
853.4224332305148
 21
233.32021233106369
 31
0.0
  0
LINE
  5
343
  8
0
  6
CONTINUOUS
 62
     7
 10
853.4224332305148
 20
259.91400125987542
 30
0.0
 11
852.40643365348285
 21
260.93000083690731
 31
0.0
  0
ARC
  5
344
  8
0
  6
CONTINUOUS
 62
     7
 10
744.86287842464913
 20
428.22726303435633
 30
0.0
 40
57.162676202761112
 50
0.0
 51
180.0
  0
ARC
  5
345
  8
0
  6
CONTINUOUS
 62
     7
 10
744.86287842464913
 20
428.22726303435633
 30
0.0
 40
101.6126576979097
 50
0.0
 51
180.0
  0
LINE
  5
347
  8
0
  6
CONTINUOUS
 62
     7
 10
687.70020222188816
 20
291.9560879205211
 30
0.0
 11
687.70020222188816
 21
428.22726303435633
 31
0.0
  0
LINE
  5
348
  8
0
  6
CONTINUOUS
 62
     7
 10
802.02555462741032
 20
428.22726303435633
 30
0.0
 11
802.02555462741032
 21
291.9560879205211
 31
0.0
  0
LINE
  5
349
  8
0
  6
CONTINUOUS
 62
     7
 10
780.86286343759298
 20
327.96492205404132
 30
0.0
 11
708.86289341170516
 21
327.96492205404132
 31
0.0
  0
LINE
  5
34A
  8
0
  6
CONTINUOUS
 62
     7
 10
777.68786475936781
 20
331.13992073226621
 30
0.0
 11
712.03789208993044
 21
331.13992073226621
 31
0.0
  0
LINE
  5
34B
  8
0
  6
CONTINUOUS
 62
     7
 10
712.03789208993044
 20
331.13992073226621
 30
0.0
 11
708.86289341170516
 21
327.96492205404132
 31
0.0
  0
LINE
  5
34C
  8
0
  6
CONTINUOUS
 62
     7
 10
780.86286343759298
 20
327.96492205404132
 30
0.0
 11
777.68786475936781
 21
331.13992073226621
 31
0.0
  0
LINE
  5
356
  8
3
 10
766.07944985322058
 20
213.13992073226621
 30
0.0
 11
766.07944985322058
 21
127.4993859387211
 31
0.0
  0
LINE
  5
357
  8
3
 10
723.6463069960779
 20
213.13992073226621
 30
0.0
 11
723.6463069960779
 21
127.4993859387211
 31
0.0
  0
LINE
  5
358
  8
1
 10
744.86287842464935
 20
100.1399573672926
 30
0.0
 11
744.86287842464913
 21
562.00565147932639
 31
0.0
  0
LINE
  5
35B
  8
1
 10
878.4224332305148
 20
246.6171067954696
 30
0.0
 11
611.30332361878322
 21
246.6171067954696
 31
0.0
  0
LINE
  5
35E
  8
0
  6
CONTINUOUS
 62
     7
 10
1084.92585256548
 20
429.86533050789802
 30
0.0
 11
1084.92585256548
 21
232.22166278839791
 31
0.0
  0
LINE
  5
35F
  8
0
  6
CONTINUOUS
 62
     7
 10
1129.3758340606289
 20
232.22166278839791
 30
0.0
 11
1129.3758340606289
 21
429.86533050789802
 31
0.0
  0
LINE
  5
366
  8
0
  6
CONTINUOUS
 62
     7
 10
1160.363821160103
 20
213.93240040235111
 30
0.0
 11
1053.937865466005
 21
213.93240040235111
 31
0.0
  0
LINE
  5
367
  8
0
  6
CONTINUOUS
 62
     7
 10
1159.571341490019
 20
213.13992073226621
 30
0.0
 11
1054.7303451360899
 21
213.13992073226621
 31
0.0
  0
LINE
  5
368
  8
0
  6
CONTINUOUS
 62
     7
 10
1164.6976943558809
 20
284.71709093416848
 30
0.0
 11
1129.3758340606289
 21
284.71709093416848
 31
0.0
  0
LINE
  5
369
  8
0
  6
CONTINUOUS
 62
     7
 10
1165.8883188602149
 20
283.52646642983399
 30
0.0
 11
1129.3758340606289
 21
283.52646642983399
 31
0.0
  0
LINE
  5
36A
  8
0
  6
CONTINUOUS
 62
     7
 10
1173.889315529342
 20
229.091114091668
 30
0.0
 11
1132.0680905337069
 21
229.091114091668
 31
0.0
  0
LINE
  5
36B
  8
0
  6
CONTINUOUS
 62
     7
 10
1172.365316163794
 20
227.5671147261202
 30
0.0
 11
1127.6392059731299
 21
227.5671147261202
 31
0.0
  0
LINE
  5
36C
  8
0
  6
CONTINUOUS
 62
     7
 10
1172.365316163794
 20
272.0170962212689
 30
0.0
 11
1129.3758340606289
 21
272.01709622126867
 31
0.0
  0
LINE
  5
36D
  8
0
  6
CONTINUOUS
 62
     7
 10
1173.889315529342
 20
270.49309685572092
 30
0.0
 11
1132.0680905337069
 21
270.49309685572092
 31
0.0
  0
POLYLINE
  5
36E
  8
0
  6
CONTINUOUS
 62
     7
 66
     1
 10
0.0
 20
0.0
 30
0.0
 70
   128
  0
VERTEX
  5
36F
  8
0
 10
1094.28573613188
 20
271.9027962688528
 30
0.0
  0
VERTEX
  5
370
  8
0
 10
1096.3965577316951
 20
273.22972528738723
 30
0.0
  0
VERTEX
  5
371
  8
0
 10
1098.642720818237
 20
274.31188046809422
 30
0.0
  0
VERTEX
  5
372
  8
0
 10
1100.9959576791359
 20
275.13564300850499
 30
0.0
  0
VERTEX
  5
373
  8
0
 10
1103.4266530904911
 20
275.69064594876102
 30
0.0
  0
VERTEX
  5
374
  8
0
 10
1105.904217021169
 20
275.96990463864972
 30
0.0
  0
VERTEX
  5
375
  8
0
 10
1108.3974696049399
 20
275.96990463864972
 30
0.0
  0
VERTEX
  5
376
  8
0
 10
1110.8750335356181
 20
275.6906459487609
 30
0.0
  0
VERTEX
  5
377
  8
0
 10
1113.305728946973
 20
275.13564300850499
 30
0.0
  0
VERTEX
  5
378
  8
0
 10
1115.6589658078719
 20
274.31188046809422
 30
0.0
  0
VERTEX
  5
379
  8
0
 10
1117.905128894414
 20
273.22972528738711
 30
0.0
  0
VERTEX
  5
37A
  8
0
 10
1120.0159504942289
 20
271.90279626885251
 30
0.0
  0
SEQEND
  5
37B
  8
0
  0
LINE
  5
37C
  8
0
  6
CONTINUOUS
 62
     7
 10
1048.413367765894
 20
283.52646642983399
 30
0.0
 11
1048.413367765894
 21
272.01709622126867
 31
0.0
  0
LINE
  5
37D
  8
0
  6
CONTINUOUS
 62
     7
 10
1084.92585256548
 20
232.22166278839791
 30
0.0
 11
1093.657098930599
 21
223.49041642327921
 31
0.0
  0
LINE
  5
37E
  8
0
  6
CONTINUOUS
 62
     7
 10
1089.5804006277581
 20
227.5671147261202
 30
0.0
 11
1086.662480652978
 21
227.5671147261202
 31
0.0
  0
LINE
  5
37F
  8
0
  6
CONTINUOUS
 62
     7
 10
1053.937865466005
 20
227.5671147261202
 30
0.0
 11
1053.937865466005
 21
213.93240040235111
 31
0.0
  0
LINE
  5
380
  8
0
  6
CONTINUOUS
 62
     7
 10
1053.937865466005
 20
213.93240040235111
 30
0.0
 11
1054.7303451360899
 21
213.13992073226621
 31
0.0
  0
LINE
  5
381
  8
0
  6
CONTINUOUS
 62
     7
 10
1086.662480652978
 20
227.5671147261202
 30
0.0
 11
1041.9363704623149
 21
227.5671147261202
 31
0.0
  0
LINE
  5
382
  8
0
  6
CONTINUOUS
 62
     7
 10
1084.92585256548
 20
272.01709622126867
 30
0.0
 11
1041.9363704623149
 21
272.0170962212689
 31
0.0
  0
LINE
  5
383
  8
0
  6
CONTINUOUS
 62
     7
 10
1082.233596092402
 20
229.091114091668
 30
0.0
 11
1040.4123710967669
 21
229.091114091668
 31
0.0
  0
LINE
  5
384
  8
0
  6
CONTINUOUS
 62
     7
 10
1082.233596092402
 20
270.49309685572092
 30
0.0
 11
1040.4123710967669
 21
270.49309685572092
 31
0.0
  0
LINE
  5
385
  8
0
  6
CONTINUOUS
 62
     7
 10
1040.4123710967669
 20
270.49309685572092
 30
0.0
 11
1040.4123710967669
 21
229.091114091668
 31
0.0
  0
LINE
  5
386
  8
0
  6
CONTINUOUS
 62
     7
 10
1040.4123710967669
 20
229.091114091668
 30
0.0
 11
1041.9363704623149
 21
227.5671147261202
 31
0.0
  0
LINE
  5
387
  8
0
  6
CONTINUOUS
 62
     7
 10
1041.9363704623149
 20
272.01709622126867
 30
0.0
 11
1040.4123710967669
 21
270.49309685572092
 31
0.0
  0
LINE
  5
388
  8
0
  6
CONTINUOUS
 62
     7
 10
1082.233596092402
 20
229.091114091668
 30
0.0
 11
1082.233596092402
 21
270.49309685572092
 31
0.0
  0
LINE
  5
389
  8
0
  6
CONTINUOUS
 62
     7
 10
1086.662480652978
 20
227.5671147261202
 30
0.0
 11
1082.233596092402
 21
229.091114091668
 31
0.0
  0
LINE
  5
38A
  8
0
  6
CONTINUOUS
 62
     7
 10
1082.233596092402
 20
270.49309685572092
 30
0.0
 11
1084.92585256548
 21
271.41951458026188
 31
0.0
  0
LINE
  5
38B
  8
0
  6
CONTINUOUS
 62
     7
 10
1120.0159504942289
 20
223.49041642327941
 30
0.0
 11
1094.28573613188
 21
223.49041642327941
 31
0.0
  0
LINE
  5
38C
  8
0
  6
CONTINUOUS
 62
     7
 10
1120.0159504942289
 20
271.9027962688528
 30
0.0
 11
1094.28573613188
 21
271.9027962688528
 31
0.0
  0
CIRCLE
  5
38D
  8
0
  6
CONTINUOUS
 62
     7
 10
1107.150843313055
 20
246.6171067954694
 30
0.0
 40
14.31289404143781
  0
CIRCLE
  5
38E
  8
0
  6
CONTINUOUS
 62
     7
 10
1107.150843313055
 20
246.6171067954694
 30
0.0
 40
13.29689446440595
  0
LINE
  5
38F
  8
0
  6
CONTINUOUS
 62
     7
 10
1094.28573613188
 20
223.49041642327941
 30
0.0
 11
1094.28573613188
 21
240.34431211858811
 31
0.0
  0
LINE
  5
390
  8
0
  6
CONTINUOUS
 62
     7
 10
1093.6570989305981
 20
223.49041642327941
 30
0.0
 11
1094.28573613188
 21
223.49041642327941
 31
0.0
  0
LINE
  5
391
  8
0
  6
CONTINUOUS
 62
     7
 10
1094.28573613188
 20
252.88990147235091
 30
0.0
 11
1094.28573613188
 21
271.9027962688528
 31
0.0
  0
LINE
  5
392
  8
0
  6
CONTINUOUS
 62
     7
 10
1132.0680905337069
 20
270.49309685572092
 30
0.0
 11
1132.0680905337069
 21
229.091114091668
 31
0.0
  0
LINE
  5
393
  8
0
  6
CONTINUOUS
 62
     7
 10
1120.0159504942289
 20
240.34431211858811
 30
0.0
 11
1120.0159504942289
 21
223.49041642327941
 31
0.0
  0
LINE
  5
394
  8
0
  6
CONTINUOUS
 62
     7
 10
1120.6445876955099
 20
223.49041642327941
 30
0.0
 11
1129.3758340606289
 21
232.22166278839791
 31
0.0
  0
LINE
  5
395
  8
0
  6
CONTINUOUS
 62
     7
 10
1127.6392059731299
 20
227.5671147261202
 30
0.0
 11
1124.721285998351
 21
227.5671147261202
 31
0.0
  0
LINE
  5
396
  8
0
  6
CONTINUOUS
 62
     7
 10
1120.0159504942289
 20
223.49041642327941
 30
0.0
 11
1120.6445876955099
 21
223.49041642327941
 31
0.0
  0
LINE
  5
397
  8
0
  6
CONTINUOUS
 62
     7
 10
1132.0680905337069
 20
229.091114091668
 30
0.0
 11
1127.6392059731299
 21
227.5671147261202
 31
0.0
  0
LINE
  5
398
  8
0
  6
CONTINUOUS
 62
     7
 10
1120.0159504942289
 20
271.9027962688528
 30
0.0
 11
1120.0159504942289
 21
252.88990147235091
 31
0.0
  0
LINE
  5
399
  8
0
  6
CONTINUOUS
 62
     7
 10
1129.3758340606289
 20
271.41951458026188
 30
0.0
 11
1132.0680905337069
 21
270.49309685572092
 31
0.0
  0
LINE
  5
39A
  8
0
  6
CONTINUOUS
 62
     7
 10
1074.3258569783361
 20
331.13992073226621
 30
0.0
 11
1071.15085830011
 21
327.96492205404138
 31
0.0
  0
LINE
  5
39B
  8
0
  6
CONTINUOUS
 62
     7
 10
1084.92585256548
 20
284.71709093416848
 30
0.0
 11
1049.603992270228
 21
284.71709093416848
 31
0.0
  0
LINE
  5
39C
  8
0
  6
CONTINUOUS
 62
     7
 10
1084.92585256548
 20
283.52646642983399
 30
0.0
 11
1048.413367765894
 21
283.52646642983399
 31
0.0
  0
LINE
  5
39D
  8
0
  6
CONTINUOUS
 62
     7
 10
1049.603992270228
 20
284.71709093416848
 30
0.0
 11
1048.413367765894
 21
283.52646642983399
 31
0.0
  0
LINE
  5
39E
  8
0
  6
CONTINUOUS
 62
     7
 10
1071.15085830011
 20
327.96492205404138
 30
0.0
 11
1071.15085830011
 21
284.71709093416848
 31
0.0
  0
LINE
  5
39F
  8
0
  6
CONTINUOUS
 62
     7
 10
1084.92585256548
 20
327.96492205404138
 30
0.0
 11
1071.15085830011
 21
327.96492205404138
 31
0.0
  0
LINE
  5
3A0
  8
0
  6
CONTINUOUS
 62
     7
 10
1084.92585256548
 20
331.13992073226621
 30
0.0
 11
1074.3258569783361
 21
331.13992073226621
 31
0.0
  0
LINE
  5
3A1
  8
0
  6
CONTINUOUS
 62
     7
 10
1143.150828325998
 20
327.96492205404138
 30
0.0
 11
1139.975829647773
 21
331.13992073226621
 31
0.0
  0
LINE
  5
3A2
  8
0
  6
CONTINUOUS
 62
     7
 10
1143.150828325998
 20
284.71709093416848
 30
0.0
 11
1143.150828325998
 21
327.96492205404138
 31
0.0
  0
LINE
  5
3A3
  8
0
  6
CONTINUOUS
 62
     7
 10
1143.150828325998
 20
327.96492205404138
 30
0.0
 11
1129.3758340606289
 21
327.96492205404138
 31
0.0
  0
LINE
  5
3A4
  8
0
  6
CONTINUOUS
 62
     7
 10
1139.975829647773
 20
331.13992073226621
 30
0.0
 11
1129.3758340606289
 21
331.13992073226621
 31
0.0
  0
LINE
  5
3A5
  8
0
  6
CONTINUOUS
 62
     7
 10
1165.8883188602149
 20
272.01709622126867
 30
0.0
 11
1165.8883188602149
 21
283.52646642983399
 31
0.0
  0
LINE
  5
3A6
  8
0
  6
CONTINUOUS
 62
     7
 10
1160.363821160103
 20
213.93240040235111
 30
0.0
 11
1160.363821160103
 21
227.5671147261202
 31
0.0
  0
LINE
  5
3A7
  8
0
  6
CONTINUOUS
 62
     7
 10
1159.571341490019
 20
213.13992073226621
 30
0.0
 11
1160.363821160103
 21
213.93240040235111
 31
0.0
  0
LINE
  5
3A8
  8
0
  6
CONTINUOUS
 62
     7
 10
1173.889315529342
 20
229.091114091668
 30
0.0
 11
1173.889315529342
 21
270.49309685572092
 31
0.0
  0
LINE
  5
3A9
  8
0
  6
CONTINUOUS
 62
     7
 10
1172.365316163794
 20
227.5671147261202
 30
0.0
 11
1173.889315529342
 21
229.091114091668
 31
0.0
  0
LINE
  5
3AA
  8
0
  6
CONTINUOUS
 62
     7
 10
1173.889315529342
 20
270.49309685572092
 30
0.0
 11
1172.365316163794
 21
272.01709622126867
 31
0.0
  0
LINE
  5
3AB
  8
0
  6
CONTINUOUS
 62
     7
 10
1165.8883188602149
 20
283.52646642983399
 30
0.0
 11
1164.6976943558809
 21
284.71709093416848
 31
0.0
  0
LINE
  5
3AC
  8
0
  6
CONTINUOUS
 62
     7
 10
1129.3758340606289
 20
429.86533050789802
 30
0.0
 11
1129.3758340606289
 21
507.61492998469168
 31
0.0
  0
LINE
  5
3AD
  8
0
  6
CONTINUOUS
 62
     7
 10
1084.92585256548
 20
507.61492998469168
 30
0.0
 11
1084.92585256548
 21
429.86533050789802
 31
0.0
  0
ARC
  5
3AE
  8
0
  6
CONTINUOUS
 62
     7
 10
1107.150843313055
 20
507.61492998469168
 30
0.0
 40
22.22499074757442
 50
0.0
 51
180.0000000000004
  0
LINE
  5
3AF
  8
1
 10
1107.150843313055
 20
100.1399573672925
 30
0.0
 11
1107.1508433130541
 21
562.00565147932605
 31
0.0
  0
LINE
  5
3B0
  8
3
 10
1128.3674147416259
 20
213.13992073226609
 30
0.0
 11
1128.3674147416259
 21
127.49938593872101
 31
0.0
  0
LINE
  5
3B1
  8
3
 10
1085.934271884483
 20
213.13992073226609
 30
0.0
 11
1085.934271884483
 21
127.49938593872101
 31
0.0
  0
LINE
  5
3B2
  8
0
  6
CONTINUOUS
 62
     7
 10
1131.150833321683
 20
130.1399573672926
 30
0.0
 11
1126.150833321683
 21
125.1399573672926
 31
0.0
  0
LINE
  5
3B3
  8
0
  6
CONTINUOUS
 62
     7
 10
1083.150853304425
 20
130.13995736729251
 30
0.0
 11
1088.150853304425
 21
125.1399573672925
 31
0.0
  0
LINE
  5
3B4
  8
0
  6
CONTINUOUS
 62
     7
 10
1126.150833321683
 20
125.1399573672926
 30
0.0
 11
1088.150853304425
 21
125.1399573672925
 31
0.0
  0
LINE
  5
3B5
  8
0
 10
1083.150853304425
 20
130.13995736729251
 30
0.0
 11
1131.150833321683
 21
130.1399573672926
 31
0.0
  0
LINE
  5
3B6
  8
0
  6
CONTINUOUS
 62
     7
 10
1083.150853304425
 20
213.13992073226609
 30
0.0
 11
1083.150853304425
 21
130.13995736729251
 31
0.0
  0
LINE
  5
3B7
  8
0
  6
CONTINUOUS
 62
     7
 10
1131.150833321683
 20
130.1399573672926
 30
0.0
 11
1131.150833321683
 21
213.13992073226609
 31
0.0
  0
LINE
  5
3B8
  8
1
 10
1198.889315529342
 20
246.6171067954696
 30
0.0
 11
1015.4123710967669
 21
246.6171067954696
 31
0.0
  0
LINE
  5
3BC
  8
1
 10
871.47553612255876
 20
428.22726303435633
 30
0.0
 11
618.25022072673926
 21
428.22726303435633
 31
0.0
  0
LINE
  5
3BD
  8
0
  6
CONTINUOUS
 62
     7
 10
824.25054537498465
 20
784.62408497859406
 30
0.0
 11
665.4752114743136
 21
784.62408497859406
 31
0.0
  0
LINE
  5
3BE
  8
0
  6
CONTINUOUS
 62
     7
 10
665.4752114743136
 20
740.17410348344526
 30
0.0
 11
824.25054537498465
 21
740.17410348344526
 31
0.0
  0
ARC
  5
3BF
  8
0
  6
CONTINUOUS
 62
     7
 10
744.86287842464913
 20
762.39909423101972
 30
0.0
 40
66.738472216287477
 50
201.92277533125721
 51
338.07722466874441
  0
ARC
  5
3C0
  8
0
  6
CONTINUOUS
 62
     7
 10
744.86287842464913
 20
762.39909423101972
 30
0.0
 40
66.738472216287505
 50
21.922775331256489
 51
158.0772246687437
  0
ARC
  5
3C1
  8
0
  6
CONTINUOUS
 62
     7
 10
744.86287842464913
 20
762.39909423101972
 30
0.0
 40
65.214472850739526
 50
199.92552693245679
 51
340.07447306754449
  0
ARC
  5
3C2
  8
0
  6
CONTINUOUS
 62
     7
 10
744.86287842464913
 20
762.39909423101972
 30
0.0
 40
65.214472850739568
 50
19.925526932456201
 51
160.07447306754381
  0
ARC
  5
3C3
  8
0
  6
CONTINUOUS
 62
     7
 10
744.86287842464913
 20
762.39909423101972
 30
0.0
 40
57.546851042826482
 50
90.0
 51
157.28131366726211
  0
ARC
  5
3C4
  8
0
  6
CONTINUOUS
 62
     7
 10
744.86287842464913
 20
762.39909423101972
 30
0.0
 40
57.546851042826432
 50
202.71868633273829
 51
337.28131366726302
  0
ARC
  5
3C5
  8
0
  6
CONTINUOUS
 62
     7
 10
744.86287842464913
 20
762.39909423101972
 30
0.0
 40
58.737475547160763
 50
90.0
 51
157.7667282017
  0
ARC
  5
3C6
  8
0
  6
CONTINUOUS
 62
     7
 10
744.86287842464913
 20
762.39909423101972
 30
0.0
 40
58.73747554716072
 50
202.23327179830059
 51
337.7667282017008
  0
ARC
  5
3C7
  8
0
  6
CONTINUOUS
 62
     7
 10
665.4752114743136
 20
762.39909423101972
 30
0.0
 40
22.22499074757442
 50
90.0
 51
270.00000000000102
  0
LINE
  5
3C8
  8
0
  6
CONTINUOUS
 62
     7
 10
636.30332361878322
 20
749.10219976661381
 30
0.0
 11
636.30332361878322
 21
775.69598869542563
 31
0.0
  0
LINE
  5
3C9
  8
0
  6
CONTINUOUS
 62
     7
 10
637.31932319581506
 20
748.08620018958175
 30
0.0
 11
637.31932319581506
 21
776.71198827245757
 31
0.0
  0
LINE
  5
3CA
  8
0
  6
CONTINUOUS
 62
     7
 10
647.35231901900568
 20
748.08620018958175
 30
0.0
 11
647.35231901900568
 21
749.53398704984511
 31
0.0
  0
LINE
  5
3CB
  8
0
  6
CONTINUOUS
 62
     7
 10
637.31932319581506
 20
748.08620018958175
 30
0.0
 11
647.35231901900568
 21
748.08620018958175
 31
0.0
  0
LINE
  5
3CC
  8
0
  6
CONTINUOUS
 62
     7
 10
636.30332361878322
 20
749.10219976661381
 30
0.0
 11
637.31932319581506
 21
748.08620018958175
 31
0.0
  0
LINE
  5
3CD
  8
0
  6
CONTINUOUS
 62
     7
 10
682.9504041992634
 20
740.17410348344538
 30
0.0
 11
682.9504041992634
 21
737.48184701036678
 31
0.0
  0
LINE
  5
3CE
  8
0
  6
CONTINUOUS
 62
     7
 10
647.35231901900568
 20
776.71198827245757
 30
0.0
 11
637.31932319581506
 21
776.71198827245757
 31
0.0
  0
LINE
  5
3CF
  8
0
  6
CONTINUOUS
 62
     7
 10
637.31932319581506
 20
776.71198827245757
 30
0.0
 11
636.30332361878322
 21
775.69598869542563
 31
0.0
  0
LINE
  5
3D0
  8
0
  6
CONTINUOUS
 62
     7
 10
647.35231901900568
 20
775.26420141219444
 30
0.0
 11
647.35231901900568
 21
776.71198827245757
 31
0.0
  0
LINE
  5
3D1
  8
0
  6
CONTINUOUS
 62
     7
 10
682.9504041992634
 20
787.31634145167266
 30
0.0
 11
682.9504041992634
 21
784.62408497859406
 31
0.0
  0
ARC
  5
3D2
  8
0
  6
CONTINUOUS
 62
     7
 10
744.86287842464913
 20
762.39909423101972
 30
0.0
 40
57.546851042826432
 50
22.71868633273786
 51
90.0
  0
ARC
  5
3D3
  8
0
  6
CONTINUOUS
 62
     7
 10
744.86287842464913
 20
762.39909423101972
 30
0.0
 40
58.73747554716072
 50
22.23327179829996
 51
90.0
  0
ARC
  5
3D4
  8
0
  6
CONTINUOUS
 62
     7
 10
744.86287842464913
 20
762.39909423101972
 30
0.0
 40
35.999985012943831
 50
218.12368387331929
 51
321.8763161266823
  0
ARC
  5
3D5
  8
0
  6
CONTINUOUS
 62
     7
 10
744.86287842464913
 20
762.39909423101972
 30
0.0
 40
35.999985012943839
 50
38.123683873318548
 51
90.0
  0
ARC
  5
3D6
  8
0
  6
CONTINUOUS
 62
     7
 10
744.86287842464913
 20
762.39909423101972
 30
0.0
 40
32.824986334718908
 50
222.61552503170191
 51
317.38447496829963
  0
ARC
  5
3D7
  8
0
  6
CONTINUOUS
 62
     7
 10
744.86287842464913
 20
762.39909423101972
 30
0.0
 40
32.824986334718972
 50
42.615525031701182
 51
90.0
  0
ARC
  5
3D8
  8
0
  6
CONTINUOUS
 62
     7
 10
744.86287842464913
 20
762.39909423101972
 30
0.0
 40
35.999985012943881
 50
90.0
 51
141.8763161266815
  0
ARC
  5
3D9
  8
0
  6
CONTINUOUS
 62
     7
 10
744.86287842464913
 20
762.39909423101972
 30
0.0
 40
32.824986334718972
 50
90.0
 51
137.3844749682988
  0
LINE
  5
3DA
  8
0
  6
CONTINUOUS
 62
     7
 10
806.77535265003473
 20
737.48184701036678
 30
0.0
 11
806.77535265003473
 21
740.17410348344526
 31
0.0
  0
LINE
  5
3DB
  8
0
  6
CONTINUOUS
 62
     7
 10
806.77535265003473
 20
784.62408497859406
 30
0.0
 11
806.77535265003473
 21
787.31634145167266
 31
0.0
  0
ARC
  5
3DC
  8
0
  6
CONTINUOUS
 62
     7
 10
824.25054537498465
 20
762.39909423101972
 30
0.0
 40
22.22499074757442
 50
270.00000000000102
 51
90.0
  0
LINE
  5
3DD
  8
0
  6
CONTINUOUS
 62
     7
 10
853.4224332305148
 20
749.10219976661381
 30
0.0
 11
853.4224332305148
 21
775.69598869542563
 31
0.0
  0
LINE
  5
3DE
  8
0
  6
CONTINUOUS
 62
     7
 10
842.37343783029235
 20
748.08620018958175
 30
0.0
 11
842.37343783029235
 21
749.53398704984511
 31
0.0
  0
LINE
  5
3DF
  8
0
  6
CONTINUOUS
 62
     7
 10
852.40643365348285
 20
748.08620018958175
 30
0.0
 11
852.40643365348285
 21
776.71198827245757
 31
0.0
  0
LINE
  5
3E0
  8
0
  6
CONTINUOUS
 62
     7
 10
842.37343783029235
 20
748.08620018958175
 30
0.0
 11
852.40643365348285
 21
748.08620018958175
 31
0.0
  0
LINE
  5
3E1
  8
0
  6
CONTINUOUS
 62
     7
 10
852.40643365348285
 20
748.08620018958175
 30
0.0
 11
853.4224332305148
 21
749.10219976661381
 31
0.0
  0
LINE
  5
3E2
  8
0
  6
CONTINUOUS
 62
     7
 10
852.40643365348285
 20
776.71198827245757
 30
0.0
 11
842.37343783029235
 21
776.71198827245757
 31
0.0
  0
LINE
  5
3E3
  8
0
  6
CONTINUOUS
 62
     7
 10
842.37343783029235
 20
775.26420141219444
 30
0.0
 11
842.37343783029235
 21
776.71198827245757
 31
0.0
  0
LINE
  5
3E4
  8
0
  6
CONTINUOUS
 62
     7
 10
853.4224332305148
 20
775.69598869542563
 30
0.0
 11
852.40643365348285
 21
776.71198827245757
 31
0.0
  0
LINE
  5
3E5
  8
1
 10
744.86287842464913
 20
854.13756644730699
 30
0.0
 11
744.86287842464913
 21
670.66062201473221
 31
0.0
  0
LINE
  5
3E6
  8
1
 10
878.4224332305148
 20
762.39909423101972
 30
0.0
 11
611.30332361878322
 21
762.39909423101972
 31
0.0
  0
LINE
  5
3E9
  8
0
  6
CONTINUOUS
 62
     7
 10
221.3761190973164
 20
224.39211604789509
 30
0.0
 11
419.01978681681658
 21
224.39211604789509
 31
0.0
  0
LINE
  5
3EA
  8
0
  6
CONTINUOUS
 62
     7
 10
419.01978681681658
 20
268.84209754304379
 30
0.0
 11
221.3761190973164
 21
268.84209754304379
 31
0.0
  0
LINE
  5
3EC
  8
0
  6
CONTINUOUS
 62
     7
 10
437.44932914446372
 20
331.13992073226621
 30
0.0
 11
371.79935647502589
 21
331.13992073226621
 31
0.0
  0
LINE
  5
3ED
  8
0
  6
CONTINUOUS
 62
     7
 10
440.62432782268837
 20
327.96492205404138
 30
0.0
 11
368.62435779680101
 21
327.96492205404138
 31
0.0
  0
LINE
  5
3EE
  8
0
  6
CONTINUOUS
 62
     7
 10
462.17119385257132
 20
284.71709093416848
 30
0.0
 11
347.07749176691891
 21
284.71709093416848
 31
0.0
  0
LINE
  5
3EF
  8
0
  6
CONTINUOUS
 62
     7
 10
463.36181835690559
 20
283.52646642983399
 30
0.0
 11
345.88686726258402
 21
283.52646642983399
 31
0.0
  0
LINE
  5
3F0
  8
0
  6
CONTINUOUS
 62
     7
 10
469.83881566048422
 20
272.0170962212689
 30
0.0
 11
339.40986995900539
 21
272.0170962212685
 31
0.0
  0
LINE
  5
3F1
  8
0
  6
CONTINUOUS
 62
     7
 10
471.36281502603242
 20
270.49309685572092
 30
0.0
 11
429.5415900303978
 21
270.49309685572092
 31
0.0
  0
LINE
  5
3F2
  8
0
  6
CONTINUOUS
 62
     7
 10
471.36281502603242
 20
229.091114091668
 30
0.0
 11
429.5415900303978
 21
229.091114091668
 31
0.0
  0
LINE
  5
3F3
  8
0
  6
CONTINUOUS
 62
     7
 10
469.83881566048422
 20
227.5671147261202
 30
0.0
 11
425.11270546982081
 21
227.5671147261202
 31
0.0
  0
LINE
  5
3F4
  8
0
  6
CONTINUOUS
 62
     7
 10
457.83732065679391
 20
213.93240040235111
 30
0.0
 11
351.4113649626957
 21
213.93240040235111
 31
0.0
  0
LINE
  5
3F5
  8
0
  6
CONTINUOUS
 62
     7
 10
457.0448409867094
 20
213.13992073226621
 30
0.0
 11
352.2038446327806
 21
213.13992073226621
 31
0.0
  0
LINE
  5
3F6
  8
1
 10
496.36281502603242
 20
246.6171067954696
 30
0.0
 11
96.401528872948177
 21
246.6171067954696
 31
0.0
  0
LINE
  5
3F7
  8
3
 10
425.84091423831609
 20
213.13992073226609
 30
0.0
 11
425.84091423831609
 21
127.49938593872101
 31
0.0
  0
LINE
  5
3F8
  8
0
  6
CONTINUOUS
 62
     7
 10
428.6243328183736
 20
130.1399573672926
 30
0.0
 11
423.62433281837372
 21
125.1399573672926
 31
0.0
  0
LINE
  5
3F9
  8
3
 10
383.40777138117352
 20
213.13992073226609
 30
0.0
 11
383.40777138117352
 21
127.49938593872101
 31
0.0
  0
LINE
  5
3FA
  8
0
  6
CONTINUOUS
 62
     7
 10
380.62435280111549
 20
130.13995736729251
 30
0.0
 11
385.62435280111549
 21
125.1399573672925
 31
0.0
  0
LINE
  5
3FB
  8
0
  6
CONTINUOUS
 62
     7
 10
423.62433281837372
 20
125.1399573672926
 30
0.0
 11
385.62435280111549
 21
125.1399573672925
 31
0.0
  0
LINE
  5
3FC
  8
0
  6
CONTINUOUS
 62
     7
 10
429.5415900303978
 20
270.49309685572092
 30
0.0
 11
429.5415900303978
 21
229.091114091668
 31
0.0
  0
LINE
  5
3FD
  8
0
  6
CONTINUOUS
 62
     7
 10
379.33865333636157
 20
259.48221397664412
 30
0.0
 11
398.35154813286363
 21
259.48221397664412
 31
0.0
  0
LINE
  5
3FE
  8
0
  6
CONTINUOUS
 62
     7
 10
337.88587059345718
 20
270.49309685572092
 30
0.0
 11
337.88587059345741
 21
268.84209754304379
 31
0.0
  0
LINE
  5
3FF
  8
0
  6
CONTINUOUS
 62
     7
 10
379.70709558909198
 20
268.84209754304379
 30
0.0
 11
379.70709558909221
 21
270.49309685572092
 31
0.0
  0
LINE
  5
400
  8
0
  6
CONTINUOUS
 62
     7
 10
398.35154813286363
 20
233.75199961429439
 30
0.0
 11
379.33865333636157
 21
233.75199961429439
 31
0.0
  0
CIRCLE
  5
401
  8
0
  6
CONTINUOUS
 62
     7
 10
404.62434280974469
 20
246.6171067954696
 30
0.0
 40
14.31289404143781
  0
CIRCLE
  5
402
  8
0
  6
CONTINUOUS
 62
     7
 10
404.62434280974469
 20
246.6171067954696
 30
0.0
 40
13.29689446440595
  0
LINE
  5
406
  8
0
  6
CONTINUOUS
 62
     7
 10
428.6243328183736
 20
130.1399573672926
 30
0.0
 11
428.6243328183736
 21
213.13992073226609
 31
0.0
  0
LINE
  5
407
  8
0
  6
CONTINUOUS
 62
     7
 10
380.62435280111549
 20
213.13992073226609
 30
0.0
 11
380.62435280111549
 21
130.13995736729251
 31
0.0
  0
LINE
  5
408
  8
0
 10
380.62435280111549
 20
130.13995736729251
 30
0.0
 11
428.6243328183736
 21
130.1399573672926
 31
0.0
  0
LINE
  5
409
  8
0
  6
CONTINUOUS
 62
     7
 10
419.01978681681658
 20
224.39211604789509
 30
0.0
 11
427.75103318193533
 21
233.12336241301389
 31
0.0
  0
LINE
  5
40A
  8
0
  6
CONTINUOUS
 62
     7
 10
351.4113649626957
 20
224.39211604789509
 30
0.0
 11
351.4113649626957
 21
213.93240040235111
 31
0.0
  0
LINE
  5
40B
  8
0
  6
CONTINUOUS
 62
     7
 10
351.4113649626957
 20
213.93240040235111
 30
0.0
 11
352.2038446327806
 21
213.13992073226621
 31
0.0
  0
LINE
  5
40E
  8
0
  6
CONTINUOUS
 62
     7
 10
427.75103318193487
 20
259.48221397664412
 30
0.0
 11
427.75103318193487
 21
233.75199961429479
 31
0.0
  0
LINE
  5
40F
  8
0
  6
CONTINUOUS
 62
     7
 10
427.75103318193487
 20
233.75199961429479
 30
0.0
 11
410.89713748662609
 21
233.75199961429439
 31
0.0
  0
LINE
  5
410
  8
0
  6
CONTINUOUS
 62
     7
 10
427.75103318193487
 20
233.1233624130129
 30
0.0
 11
427.75103318193487
 21
233.75199961429479
 31
0.0
  0
LINE
  5
411
  8
0
  6
CONTINUOUS
 62
     7
 10
410.89713748662609
 20
259.48221397664412
 30
0.0
 11
427.75103318193487
 21
259.48221397664412
 31
0.0
  0
LINE
  5
412
  8
0
  6
CONTINUOUS
 62
     7
 10
427.75103318193487
 20
260.11085117792499
 30
0.0
 11
419.01978681681658
 21
268.84209754304379
 31
0.0
  0
LINE
  5
413
  8
0
  6
CONTINUOUS
 62
     7
 10
425.11270546982081
 20
227.5671147261202
 30
0.0
 11
422.19478549504117
 21
227.5671147261202
 31
0.0
  0
LINE
  5
414
  8
0
  6
CONTINUOUS
 62
     7
 10
427.75103318193487
 20
259.48221397664412
 30
0.0
 11
427.75103318193487
 21
260.11085117792499
 31
0.0
  0
LINE
  5
415
  8
0
  6
CONTINUOUS
 62
     7
 10
429.5415900303978
 20
229.091114091668
 30
0.0
 11
425.11270546982081
 21
227.5671147261202
 31
0.0
  0
LINE
  5
417
  8
0
  6
CONTINUOUS
 62
     7
 10
379.70709558909221
 20
270.49309685572092
 30
0.0
 11
337.88587059345718
 21
270.49309685572092
 31
0.0
  0
LINE
  5
418
  8
0
  6
CONTINUOUS
 62
     7
 10
339.40986995900539
 20
272.01709622126867
 30
0.0
 11
337.88587059345718
 21
270.49309685572092
 31
0.0
  0
LINE
  5
419
  8
0
  6
CONTINUOUS
 62
     7
 10
368.62435779680072
 20
327.96492205404138
 30
0.0
 11
368.62435779680072
 21
284.71709093416848
 31
0.0
  0
LINE
  5
41C
  8
0
  6
CONTINUOUS
 62
     7
 10
345.88686726258402
 20
283.52646642983399
 30
0.0
 11
345.88686726258402
 21
272.01709622126867
 31
0.0
  0
LINE
  5
41D
  8
0
  6
CONTINUOUS
 62
     7
 10
347.07749176691868
 20
284.71709093416848
 30
0.0
 11
345.88686726258402
 21
283.52646642983399
 31
0.0
  0
LINE
  5
41E
  8
0
  6
CONTINUOUS
 62
     7
 10
379.70709558909221
 20
270.49309685572092
 30
0.0
 11
382.39935206217069
 21
271.41951458026188
 31
0.0
  0
POLYLINE
  5
41F
  8
0
  6
CONTINUOUS
 62
     7
 66
     1
 10
0.0
 20
0.0
 30
0.0
 70
   128
  0
VERTEX
  5
420
  8
0
 10
379.3386533363614
 20
233.7519996142945
 30
0.0
  0
VERTEX
  5
421
  8
0
 10
378.01172431782697
 20
235.86282121410969
 30
0.0
  0
VERTEX
  5
422
  8
0
 10
376.9295691371201
 20
238.10898430065239
 30
0.0
  0
VERTEX
  5
423
  8
0
 10
376.10580659670927
 20
240.4622211615509
 30
0.0
  0
VERTEX
  5
424
  8
0
 10
375.5508036564533
 20
242.8929165729063
 30
0.0
  0
VERTEX
  5
425
  8
0
 10
375.27154496656448
 20
245.37048050358439
 30
0.0
  0
VERTEX
  5
426
  8
0
 10
375.27154496656448
 20
247.86373308735469
 30
0.0
  0
VERTEX
  5
427
  8
0
 10
375.5508036564533
 20
250.3412970180328
 30
0.0
  0
VERTEX
  5
428
  8
0
 10
376.10580659670927
 20
252.77199242938821
 30
0.0
  0
VERTEX
  5
429
  8
0
 10
376.9295691371201
 20
255.12522929028671
 30
0.0
  0
VERTEX
  5
42A
  8
0
 10
378.0117243178272
 20
257.37139237682902
 30
0.0
  0
VERTEX
  5
42B
  8
0
 10
379.3386533363618
 20
259.48221397664418
 30
0.0
  0
SEQEND
  5
42C
  8
0
  0
LINE
  5
42D
  8
0
  6
CONTINUOUS
 62
     7
 10
379.33865333636157
 20
259.48221397664412
 30
0.0
 11
379.33865333636157
 21
233.75199961429439
 31
0.0
  0
LINE
  5
42E
  8
0
  6
CONTINUOUS
 62
     7
 10
426.84933355731931
 20
271.41951458026188
 30
0.0
 11
429.5415900303978
 21
270.49309685572092
 31
0.0
  0
LINE
  5
431
  8
0
  6
CONTINUOUS
 62
     7
 10
371.79935647502589
 20
331.13992073226621
 30
0.0
 11
368.62435779680072
 21
327.96492205404138
 31
0.0
  0
LINE
  5
432
  8
0
  6
CONTINUOUS
 62
     7
 10
471.36281502603242
 20
229.091114091668
 30
0.0
 11
471.36281502603242
 21
270.49309685572092
 31
0.0
  0
LINE
  5
433
  8
0
  6
CONTINUOUS
 62
     7
 10
457.83732065679391
 20
213.93240040235111
 30
0.0
 11
457.83732065679391
 21
227.5671147261202
 31
0.0
  0
LINE
  5
434
  8
0
  6
CONTINUOUS
 62
     7
 10
457.0448409867094
 20
213.13992073226621
 30
0.0
 11
457.83732065679391
 21
213.93240040235111
 31
0.0
  0
LINE
  5
435
  8
0
  6
CONTINUOUS
 62
     7
 10
469.83881566048422
 20
227.5671147261202
 30
0.0
 11
471.36281502603242
 21
229.091114091668
 31
0.0
  0
LINE
  5
436
  8
0
  6
CONTINUOUS
 62
     7
 10
440.62432782268837
 20
284.71709093416848
 30
0.0
 11
440.62432782268849
 21
327.96492205404138
 31
0.0
  0
LINE
  5
437
  8
0
  6
CONTINUOUS
 62
     7
 10
463.36181835690559
 20
272.01709622126867
 30
0.0
 11
463.36181835690559
 21
283.52646642983399
 31
0.0
  0
LINE
  5
438
  8
0
  6
CONTINUOUS
 62
     7
 10
463.36181835690559
 20
283.52646642983399
 30
0.0
 11
462.17119385257132
 21
284.71709093416848
 31
0.0
  0
LINE
  5
439
  8
0
  6
CONTINUOUS
 62
     7
 10
471.36281502603242
 20
270.49309685572092
 30
0.0
 11
469.83881566048422
 21
272.01709622126867
 31
0.0
  0
LINE
  5
43A
  8
0
  6
CONTINUOUS
 62
     7
 10
440.62432782268837
 20
327.96492205404138
 30
0.0
 11
437.44932914446372
 21
331.13992073226621
 31
0.0
  0
LINE
  5
43B
  8
0
  6
CONTINUOUS
 62
     7
 10
221.3761190973164
 20
268.84209754304379
 30
0.0
 11
143.62651962052271
 21
268.84209754304379
 31
0.0
  0
LINE
  5
43C
  8
0
  6
CONTINUOUS
 62
     7
 10
143.62651962052271
 20
224.39211604789509
 30
0.0
 11
221.3761190973164
 21
224.39211604789509
 31
0.0
  0
ARC
  5
43D
  8
0
  6
CONTINUOUS
 62
     7
 10
143.62651962052249
 20
246.61710679546971
 30
0.0
 40
22.22499074757442
 50
90.0
 51
270.0000000000004
  0
LINE
  5
440
  8
1
 10
404.62434280974469
 20
357.71707095142671
 30
0.0
 11
404.62434280974497
 21
100.1399573672925
 31
0.0
  0
LINE
  5
443
  8
0
  6
CONTINUOUS
 62
     7
 10
375.23655504409498
 20
864.01175192892924
 30
0.0
 11
223.01418657085759
 21
864.01175192892924
 31
0.0
  0
LINE
  5
444
  8
0
  6
CONTINUOUS
 62
     7
 10
223.01418657085759
 20
660.78643653310985
 30
0.0
 11
375.23655504409498
 21
660.78643653310985
 31
0.0
  0
LINE
  5
445
  8
0
  6
CONTINUOUS
 62
     7
 10
359.28536168469333
 20
705.23641802825853
 30
0.0
 11
223.01418657085759
 21
705.23641802825853
 31
0.0
  0
LINE
  5
446
  8
0
  6
CONTINUOUS
 62
     7
 10
223.01418657085759
 20
819.56177043378057
 30
0.0
 11
359.28536168469333
 21
819.56177043378057
 31
0.0
  0
LINE
  5
447
  8
1
 10
496.48984280974508
 20
762.3990942310196
 30
0.0
 11
89.235798125887356
 21
762.39909423101926
 31
0.0
  0
LINE
  5
458
  8
0
  6
CONTINUOUS
 62
     7
 10
427.75103318193487
 20
664.88853482537615
 30
0.0
 11
379.3386533363614
 21
664.8885348253765
 31
0.0
  0
LINE
  5
459
  8
0
  6
CONTINUOUS
 62
     7
 10
364.25105961743702
 20
700.27072009551466
 30
0.0
 11
429.34397503857838
 21
700.27072009551466
 31
0.0
  0
LINE
  5
45A
  8
0
  6
CONTINUOUS
 62
     7
 10
417.92123727415043
 20
653.83953942515336
 30
0.0
 11
391.32744834533878
 21
653.83953942515336
 31
0.0
  0
LINE
  5
45B
  8
0
  6
CONTINUOUS
 62
     7
 10
418.93723685118221
 20
654.85553900218565
 30
0.0
 11
390.31144876830689
 21
654.85553900218565
 31
0.0
  0
POLYLINE
  5
45C
  8
0
  6
CONTINUOUS
 62
     7
 66
     1
 10
0.0
 20
0.0
 30
0.0
 70
   128
  0
VERTEX
  5
45D
  8
0
 10
427.24238400965532
 20
700.27072009551455
 30
0.0
  0
VERTEX
  5
45E
  8
0
 10
425.48980380276862
 20
698.68723716407919
 30
0.0
  0
VERTEX
  5
45F
  8
0
 10
423.91516925977612
 20
696.92670269076461
 30
0.0
  0
VERTEX
  5
460
  8
0
 10
422.53626520173651
 20
695.00900115652155
 30
0.0
  0
VERTEX
  5
461
  8
0
 10
421.36866575792283
 20
692.95579217677232
 30
0.0
  0
VERTEX
  5
462
  8
0
 10
420.42555846271898
 20
690.79026586535326
 30
0.0
  0
VERTEX
  5
463
  8
0
 10
419.71759530807958
 20
688.53688091213496
 30
0.0
  0
VERTEX
  5
464
  8
0
 10
419.25277243385688
 20
686.22108833262473
 30
0.0
  0
VERTEX
  5
465
  8
0
 10
419.03633981483421
 20
683.86904400967114
 30
0.0
  0
VERTEX
  5
466
  8
0
 10
419.07074196451271
 20
681.5073132739999
 30
0.0
  0
VERTEX
  5
467
  8
0
 10
419.35559032538282
 20
679.16257086021005
 30
0.0
  0
VERTEX
  5
468
  8
0
 10
419.88766765751501
 20
676.86129962709811
 30
0.0
  0
VERTEX
  5
469
  8
0
 10
420.66096437590159
 20
674.62949144514175
 30
0.0
  0
VERTEX
  5
46A
  8
0
 10
421.66674642614038
 20
672.49235362947945
 30
0.0
  0
VERTEX
  5
46B
  8
0
 10
422.89365393182828
 20
670.47402423411256
 30
0.0
  0
VERTEX
  5
46C
  8
0
 10
424.32782949948893
 20
668.59729942294734
 30
0.0
  0
VERTEX
  5
46D
  8
0
 10
425.9530747318795
 20
666.8833759969134
 30
0.0
  0
VERTEX
  5
46E
  8
0
 10
427.75103318193487
 20
665.35161198519688
 30
0.0
  0
SEQEND
  5
46F
  8
0
  0
LINE
  5
470
  8
0
  6
CONTINUOUS
 62
     7
 10
427.75103318193487
 20
665.35161198519756
 30
0.0
 11
427.75103318193487
 21
700.27072009551466
 31
0.0
  0
LINE
  5
471
  8
0
  6
CONTINUOUS
 62
     7
 10
418.93723685118221
 20
654.85553900218565
 30
0.0
 11
418.93723685118221
 21
664.88853482537615
 31
0.0
  0
LINE
  5
472
  8
0
  6
CONTINUOUS
 62
     7
 10
417.92123727415043
 20
653.83953942515336
 30
0.0
 11
418.93723685118221
 21
654.85553900218565
 31
0.0
  0
LINE
  5
479
  8
0
  6
CONTINUOUS
 62
     7
 10
390.31144876830689
 20
664.88853482537615
 30
0.0
 11
390.31144876830689
 21
654.85553900218565
 31
0.0
  0
LINE
  5
47A
  8
0
  6
CONTINUOUS
 62
     7
 10
390.31144876830689
 20
654.85553900218565
 30
0.0
 11
391.32744834533878
 21
653.83953942515336
 31
0.0
  0
LINE
  5
47B
  8
0
  6
CONTINUOUS
 62
     7
 10
379.3386533363614
 20
664.88853482537615
 30
0.0
 11
375.23655504409498
 21
660.78643653310985
 31
0.0
  0
LINE
  5
481
  8
0
  6
CONTINUOUS
 62
     7
 10
359.28536168469333
 20
705.23641802825853
 30
0.0
 11
364.25105961743702
 21
700.27072009551432
 31
0.0
  0
LINE
  5
485
  8
0
  6
CONTINUOUS
 62
     7
 10
418.93723685118221
 20
869.94264945985333
 30
0.0
 11
390.31144876830689
 21
869.94264945985378
 31
0.0
  0
LINE
  5
486
  8
0
  6
CONTINUOUS
 62
     7
 10
417.92123727415043
 20
870.95864903688505
 30
0.0
 11
391.32744834533878
 21
870.95864903688505
 31
0.0
  0
LINE
  5
487
  8
0
  6
CONTINUOUS
 62
     7
 10
427.75103318193487
 20
859.90965363666282
 30
0.0
 11
379.3386533363614
 21
859.90965363666282
 31
0.0
  0
LINE
  5
489
  8
0
  6
CONTINUOUS
 62
     7
 10
364.25105961743702
 20
824.52746836652432
 30
0.0
 11
429.34397503857798
 21
824.52746836652432
 31
0.0
  0
POLYLINE
  5
48A
  8
0
  6
CONTINUOUS
 62
     7
 66
     1
 10
0.0
 20
0.0
 30
0.0
 70
   128
  0
VERTEX
  5
48B
  8
0
 10
427.24238400965532
 20
824.52746836652432
 30
0.0
  0
VERTEX
  5
48C
  8
0
 10
425.48980380276862
 20
826.11095129795922
 30
0.0
  0
VERTEX
  5
48D
  8
0
 10
423.91516925977612
 20
827.8714857712738
 30
0.0
  0
VERTEX
  5
48E
  8
0
 10
422.53626520173651
 20
829.7891873055172
 30
0.0
  0
VERTEX
  5
48F
  8
0
 10
421.36866575792283
 20
831.8423962852662
 30
0.0
  0
VERTEX
  5
490
  8
0
 10
420.42555846271898
 20
834.00792259668572
 30
0.0
  0
VERTEX
  5
491
  8
0
 10
419.71759530807958
 20
836.26130754990345
 30
0.0
  0
VERTEX
  5
492
  8
0
 10
419.25277243385688
 20
838.57710012941379
 30
0.0
  0
VERTEX
  5
493
  8
0
 10
419.03633981483421
 20
840.92914445236806
 30
0.0
  0
VERTEX
  5
494
  8
0
 10
419.07074196451271
 20
843.29087518803885
 30
0.0
  0
VERTEX
  5
495
  8
0
 10
419.35559032538282
 20
845.63561760182915
 30
0.0
  0
VERTEX
  5
496
  8
0
 10
419.88766765751501
 20
847.93688883494019
 30
0.0
  0
VERTEX
  5
497
  8
0
 10
420.66096437590159
 20
850.16869701689677
 30
0.0
  0
VERTEX
  5
498
  8
0
 10
421.66674642614038
 20
852.30583483255964
 30
0.0
  0
VERTEX
  5
499
  8
0
 10
422.89365393182828
 20
854.32416422792664
 30
0.0
  0
VERTEX
  5
49A
  8
0
 10
424.32782949948893
 20
856.20088903909095
 30
0.0
  0
VERTEX
  5
49B
  8
0
 10
425.9530747318795
 20
857.9148124651249
 30
0.0
  0
VERTEX
  5
49C
  8
0
 10
427.75103318193487
 20
859.4465764768413
 30
0.0
  0
SEQEND
  5
49D
  8
0
  0
LINE
  5
49E
  8
0
  6
CONTINUOUS
 62
     7
 10
427.75103318193487
 20
824.52746836652432
 30
0.0
 11
427.75103318193487
 21
859.44657647684153
 31
0.0
  0
LINE
  5
4A2
  8
0
  6
CONTINUOUS
 62
     7
 10
427.75103318193487
 20
824.52746836652432
 30
0.0
 11
427.24238400965532
 21
824.52746836652432
 31
0.0
  0
LINE
  5
4A5
  8
0
  6
CONTINUOUS
 62
     7
 10
418.93723685118221
 20
859.90965363666282
 30
0.0
 11
418.93723685118221
 21
869.94264945985333
 31
0.0
  0
LINE
  5
4A6
  8
0
  6
CONTINUOUS
 62
     7
 10
427.75103318193487
 20
859.44657647684153
 30
0.0
 11
427.75103318193487
 21
859.90965363666282
 31
0.0
  0
LINE
  5
4A7
  8
0
  6
CONTINUOUS
 62
     7
 10
418.93723685118221
 20
869.94264945985333
 30
0.0
 11
417.92123727415043
 21
870.95864903688505
 31
0.0
  0
LINE
  5
4AD
  8
0
  6
CONTINUOUS
 62
     7
 10
359.28536168469333
 20
819.56177043378057
 30
0.0
 11
364.25105961743702
 21
824.52746836652432
 31
0.0
  0
LINE
  5
4AF
  8
0
  6
CONTINUOUS
 62
     7
 10
390.31144876830689
 20
869.94264945985333
 30
0.0
 11
390.31144876830689
 21
859.90965363666282
 31
0.0
  0
LINE
  5
4B0
  8
0
  6
CONTINUOUS
 62
     7
 10
391.32744834533878
 20
870.95864903688505
 30
0.0
 11
390.31144876830689
 21
869.94264945985333
 31
0.0
  0
LINE
  5
4B1
  8
0
  6
CONTINUOUS
 62
     7
 10
379.3386533363614
 20
859.90965363666282
 30
0.0
 11
375.23655504409498
 21
864.01175192892924
 31
0.0
  0
ARC
  5
4C0
  8
0
  6
CONTINUOUS
 62
     7
 10
223.01418657085779
 20
762.39909423101915
 30
0.0
 40
57.162676202761112
 50
90.0
 51
270.0
  0
ARC
  5
4C1
  8
0
  6
CONTINUOUS
 62
     7
 10
223.01418657085779
 20
762.39909423101915
 30
0.0
 40
101.6126576979097
 50
90.0
 51
270.0
  0
LINE
  5
4C2
  8
1
 10
223.01418657085759
 20
889.01175192892924
 30
0.0
 11
223.01418657085759
 21
635.78643653310962
 31
0.0
  0
LINE
  5
4DF
  8
1
 10
404.62434280974452
 20
895.95864903688505
 30
0.0
 11
404.62434280974452
 21
628.83953942515336
 31
0.0
  0
CIRCLE
  5
524
  8
0
 10
404.62434280974452
 20
762.39909423101949
 30
0.0
 40
58.10250000001065
  0
CIRCLE
  5
525
  8
0
 10
404.62434280974452
 20
762.39909423101949
 30
0.0
 40
58.864500000011041
  0
ARC
  5
526
  8
0
 10
404.62434280974452
 20
762.39909423101949
 30
0.0
 40
65.27800000000002
 50
287.87086418926742
 51
72.129135810733217
  0
ARC
  5
527
  8
0
 10
404.62434280974452
 20
762.39909423101949
 30
0.0
 40
66.865500000000452
 50
291.6966158244503
 51
68.303384175551699
  0
LINE
  5
528
  8
0
 10
425.40895250056991
 20
762.39909423102154
 30
0.0
 11
415.01664765515619
 21
780.39909423101938
 31
0.0
  0
LINE
  5
529
  8
0
 10
415.01664765515619
 20
780.39909423101938
 30
0.0
 11
394.23203796432682
 21
780.39909423101938
 31
0.0
  0
LINE
  5
52A
  8
0
 10
394.23203796432682
 20
780.39909423101938
 30
0.0
 11
383.83973311891708
 21
762.39909423101949
 31
0.0
  0
ARC
  5
52B
  8
0
 10
404.62434280974452
 20
762.39909423101949
 30
0.0
 40
66.865500000000452
 50
112.3352247802196
 51
247.6647752197795
  0
ARC
  5
52C
  8
0
 10
404.62434280974452
 20
762.39909423101949
 30
0.0
 40
65.27800000000002
 50
108.6533837642128
 51
251.34661623578609
  0
LINE
  5
52D
  8
0
 10
415.01664765515619
 20
744.39909423102154
 30
0.0
 11
425.40895250056991
 21
762.39909423102154
 31
0.0
  0
LINE
  5
52E
  8
0
 10
394.2320379643329
 20
744.39909423101744
 30
0.0
 11
415.01664765515619
 21
744.39909423102154
 31
0.0
  0
LINE
  5
52F
  8
0
 10
383.83973311891708
 20
762.39909423101949
 30
0.0
 11
394.2320379643329
 21
744.39909423101744
 31
0.0
  0
CIRCLE
  5
534
  8
0
 10
404.62434280974452
 20
762.3990942310196
 30
0.0
 40
32.824986334718922
  0
CIRCLE
  5
535
  8
0
 10
404.62434280974452
 20
762.3990942310196
 30
0.0
 40
35.999985012943739
  0
TEXT
  5
625
  8
0
 62
     3
 10
0.0
 20
0.0
 30
0.0
 40
10.0
  1
HR48
  7
STANDARD1
  0
ENDSEC
  0
EOF
