  0
SECTION
  2
HEADER
  9
$ACADVER
  1
AC1009
  9
$INSBASE
 10
0.0
 20
0.0
 30
0.0
  9
$EXTMIN
 10
0.0
 20
-2.960436562073669
 30
0.0
  9
$EXTMAX
 10
1166.8500000001
 20
972.05260085039981
 30
0.0
  9
$LIMMIN
 10
0.0
 20
0.0
  9
$LIMMAX
 10
1125.0
 20
810.0
  9
$ORTHOMODE
 70
     1
  9
$REGENMODE
 70
     1
  9
$FILLMODE
 70
     1
  9
$QTEXTMODE
 70
     0
  9
$MIRRTEXT
 70
     0
  9
$DRAGMODE
 70
     2
  9
$LTSCALE
 40
30.0
  9
$OSMODE
 70
    37
  9
$ATTMODE
 70
     1
  9
$TEXTSIZE
 40
0.2
  9
$TRACEWID
 40
0.05
  9
$TEXTSTYLE
  7
STANDARD
  9
$CLAYER
  8
0
  9
$CELTYPE
  6
BYLAYER
  9
$CECOLOR
 62
   256
  9
$DIMSCALE
 40
3.0
  9
$DIMASZ
 40
3.0
  9
$DIMEXO
 40
2.0
  9
$DIMDLI
 40
0.38
  9
$DIMRND
 40
0.0
  9
$DIMDLE
 40
0.0
  9
$DIMEXE
 40
2.0
  9
$DIMTP
 40
0.0
  9
$DIMTM
 40
0.0
  9
$DIMTXT
 40
3.2000000000000002
  9
$DIMCEN
 40
0.0
  9
$DIMTSZ
 40
0.0
  9
$DIMTOL
 70
     0
  9
$DIMLIM
 70
     0
  9
$DIMTIH
 70
     0
  9
$DIMTOH
 70
     0
  9
$DIMSE1
 70
     0
  9
$DIMSE2
 70
     0
  9
$DIMTAD
 70
     1
  9
$DIMZIN
 70
     0
  9
$DIMBLK
  1

  9
$DIMASO
 70
     0
  9
$DIMSHO
 70
     0
  9
$DIMPOST
  1

  9
$DIMAPOST
  1

  9
$DIMALT
 70
     0
  9
$DIMALTD
 70
     2
  9
$DIMALTF
 40
25.399999999999999
  9
$DIMLFAC
 40
1.0
  9
$DIMTOFL
 70
     1
  9
$DIMTVP
 40
1.6000000000000001
  9
$DIMTIX
 70
     1
  9
$DIMSOXD
 70
     0
  9
$DIMSAH
 70
     0
  9
$DIMBLK1
  1

  9
$DIMBLK2
  1

  9
$DIMSTYLE
  2
STANDARD
  9
$DIMCLRD
 70
     0
  9
$DIMCLRE
 70
     0
  9
$DIMCLRT
 70
     0
  9
$DIMTFAC
 40
1.0
  9
$DIMGAP
 40
0.09
  9
$LUNITS
 70
     2
  9
$LUPREC
 70
     4
  9
$SKETCHINC
 40
0.1
  9
$FILLETRAD
 40
0.0
  9
$AUNITS
 70
     0
  9
$AUPREC
 70
     4
  9
$MENU
  1
E:\r13\win\SUPPORT\ACAD
  9
$ELEVATION
 40
0.0
  9
$PELEVATION
 40
0.0
  9
$THICKNESS
 40
0.0
  9
$LIMCHECK
 70
     0
  9
$BLIPMODE
 70
     0
  9
$CHAMFERA
 40
0.0
  9
$CHAMFERB
 40
0.0
  9
$SKPOLY
 70
     0
  9
$TDCREATE
 40
2449840.6098148152
  9
$TDUPDATE
 40
2457906.6016756599
  9
$TDINDWG
 40
0.1587581713
  9
$TDUSRTIMER
 40
0.1587581713
  9
$USRTIMER
 70
     1
  9
$ANGBASE
 50
0.0
  9
$ANGDIR
 70
     0
  9
$PDMODE
 70
     0
  9
$PDSIZE
 40
0.0
  9
$PLINEWID
 40
0.0
  9
$COORDS
 70
     1
  9
$SPLFRAME
 70
     0
  9
$SPLINETYPE
 70
     6
  9
$SPLINESEGS
 70
     8
  9
$ATTDIA
 70
     0
  9
$ATTREQ
 70
     1
  9
$HANDLING
 70
     1
  9
$HANDSEED
  5
6BEC
  9
$SURFTAB1
 70
     6
  9
$SURFTAB2
 70
     6
  9
$SURFTYPE
 70
     6
  9
$SURFU
 70
     6
  9
$SURFV
 70
     6
  9
$UCSNAME
  2

  9
$UCSORG
 10
0.0
 20
0.0
 30
0.0
  9
$UCSXDIR
 10
1.0
 20
0.0
 30
0.0
  9
$UCSYDIR
 10
0.0
 20
1.0
 30
0.0
  9
$PUCSNAME
  2

  9
$PUCSORG
 10
0.0
 20
0.0
 30
0.0
  9
$PUCSXDIR
 10
1.0
 20
0.0
 30
0.0
  9
$PUCSYDIR
 10
0.0
 20
1.0
 30
0.0
  9
$USERI1
 70
     0
  9
$USERI2
 70
     1
  9
$USERI3
 70
     0
  9
$USERI4
 70
     0
  9
$USERI5
 70
     0
  9
$USERR1
 40
0.0
  9
$USERR2
 40
0.0
  9
$USERR3
 40
0.0
  9
$USERR4
 40
0.0
  9
$USERR5
 40
0.0
  9
$WORLDVIEW
 70
     1
  9
$SHADEDGE
 70
     3
  9
$SHADEDIF
 70
    70
  9
$TILEMODE
 70
     1
  9
$MAXACTVP
 70
    16
  9
$PLIMCHECK
 70
     0
  9
$PEXTMIN
 10
1.0000000000000000E+020
 20
1.0000000000000000E+020
 30
1.0000000000000000E+020
  9
$PEXTMAX
 10
-1.0000000000000000E+020
 20
-1.0000000000000000E+020
 30
-1.0000000000000000E+020
  9
$PLIMMIN
 10
0.0
 20
0.0
  9
$PLIMMAX
 10
12.0
 20
9.0
  9
$UNITMODE
 70
     0
  9
$VISRETAIN
 70
     0
  9
$PLINEGEN
 70
     0
  9
$PSLTSCALE
 70
     0
  0
ENDSEC
  0
SECTION
  2
TABLES
  0
TABLE
  2
VPORT
 70
     1
  0
VPORT
  2
*ACTIVE
 70
     0
 10
0.0
 20
0.0
 11
1.0
 21
1.0
 12
1207.8629641600071
 22
484.5612125348585
 13
0.0
 23
0.0
 14
30.0
 24
30.0
 15
30.0
 25
30.0
 16
0.0
 26
0.0
 36
1.0
 17
0.0
 27
0.0
 37
0.0
 40
983.6256573435885
 41
2.6019575856443709
 42
50.0
 43
0.0
 44
0.0
 50
0.0
 51
0.0
 71
     0
 72
   500
 73
     1
 74
     0
 75
     0
 76
     0
 77
     0
 78
     2
  0
ENDTAB
  0
TABLE
  2
LTYPE
 70
     4
  0
LTYPE
  2
CONTINUOUS
 70
     0
  3
Solid Line
 72
    65
 73
     0
 40
0.0
  0
LTYPE
  2
CENTER
 70
     0
  3
____ _ ____ _ ____ _ ____ _ ____ _ ____ _ ____
 72
    65
 73
     4
 40
2.0
 49
1.25
 49
-0.25
 49
0.25
 49
-0.25
  0
LTYPE
  2
HIDDEN
 70
     0
  3
_ _ _ _ _ _ _ _ _ _ _ _ _ _ _ _ _ _ _ _ _ _ _
 72
    65
 73
     2
 40
0.375
 49
0.25
 49
-0.125
  0
LTYPE
  2
PHANTOM2
 70
     0
  3
___ _ _ ___ _ _ ___ _ _ ___ _ _
 72
    65
 73
     6
 40
1.25
 49
0.625
 49
-0.125
 49
0.125
 49
-0.125
 49
0.125
 49
-0.125
  0
ENDTAB
  0
TABLE
  2
LAYER
 70
     4
  0
LAYER
  2
0
 70
     0
 62
     7
  6
CONTINUOUS
  0
LAYER
  2
1
 70
     0
 62
     1
  6
CENTER
  0
LAYER
  2
2
 70
     0
 62
     2
  6
HIDDEN
  0
LAYER
  2
3
 70
     0
 62
     3
  6
CONTINUOUS
  0
ENDTAB
  0
TABLE
  2
STYLE
 70
     2
  0
STYLE
  2
STANDARD
 70
     0
 40
0.0
 41
1.0
 50
0.0
 71
     0
 42
0.2
  3
TXT
  4
BIGFONT
  0
STYLE
  2
STANDARD1
 70
     0
 40
0.0
 41
1.0
 50
0.0
 71
     0
 42
3.0
  3
txt
  4

  0
ENDTAB
  0
TABLE
  2
VIEW
 70
     1
  0
VIEW
  2
ALL
 70
     0
 40
810.0
 10
662.97478991596643
 20
405.0
 41
0.0
 11
0.0
 21
0.0
 31
1.0
 12
0.0
 22
0.0
 32
0.0
 42
0.0
 43
0.0
 44
0.0
 50
0.0
 71
     0
  0
ENDTAB
  0
TABLE
  2
UCS
 70
     0
  0
ENDTAB
  0
TABLE
  2
APPID
 70
     4
  0
APPID
  2
ACAD
 70
     0
  0
APPID
  2
ACAD_MLEADERVER
 70
     0
  0
APPID
  2
ACAD_NAV_VCDISPLAY
 70
     0
  0
APPID
  2
ACAD_EXEMPT_FROM_CAD_STANDARDS
 70
     0
  0
ENDTAB
  0
TABLE
  2
DIMSTYLE
 70
     1
  0
DIMSTYLE
  2
STANDARD
 70
     0
  3

  4

  5

  6

  7

 40
1.0
 41
0.18
 42
0.0625
 43
0.38
 44
0.18
 45
0.0
 46
0.0
 47
0.0
 48
0.0
140
0.18
141
0.09
142
0.0
143
25.399999999999999
144
1.0
145
0.0
146
1.0
147
0.09
 71
     0
 72
     0
 73
     1
 74
     1
 75
     0
 76
     0
 77
     0
 78
     0
170
     0
171
     2
172
     0
173
     0
174
     0
175
     0
176
     0
177
     0
178
     0
  0
ENDTAB
  0
ENDSEC
  0
SECTION
  2
BLOCKS
  0
BLOCK
  8
0
  2
$MODEL_SPACE
 70
     0
 10
0.0
 20
0.0
 30
0.0
  3
$MODEL_SPACE
  1

  0
ENDBLK
  5
1C6
  8
0
  0
BLOCK
 67
     1
  8
0
  2
$PAPER_SPACE
 70
     0
 10
0.0
 20
0.0
 30
0.0
  3
$PAPER_SPACE
  1

  0
ENDBLK
  5
1C4
 67
     1
  8
0
  0
ENDSEC
  0
SECTION
  2
ENTITIES
  0
TEXT
  5
6925
  8
0
 62
     3
 10
0.0
 20
0.0
 30
0.0
 40
10.0
  1
HR48-LC
  7
STANDARD1
  0
LINE
  5
6926
  8
0
 10
851.61270201204991
 20
340.93360214680001
 30
0.0
 11
851.61270201197681
 21
484.4740978431999
 31
0.0
  0
LINE
  5
6927
  8
0
 10
807.16269835827688
 20
484.4740978431999
 30
0.0
 11
807.16269835834987
 21
357.26710020749999
 31
0.0
  0
ARC
  5
6928
  8
0
 10
749.99999999997681
 20
484.47410065119988
 30
0.0
 40
101.6127
 50
0.0
 51
180.0
  0
ARC
  5
6929
  8
0
 10
749.99999999997681
 20
484.47410065119988
 30
0.0
 40
57.162700000000029
 50
0.0
 51
180.0
  0
LINE
  5
692A
  8
0
 10
692.83730164174983
 20
357.26710020749999
 30
0.0
 11
692.83730164167673
 21
484.4740978431999
 31
0.0
  0
LINE
  5
692B
  8
0
 10
648.38729798787676
 20
484.4740978431999
 30
0.0
 11
648.38729798794986
 21
340.93360214680001
 31
0.0
  0
LINE
  5
692C
  8
0
 10
691.26249849794976
 20
327.89320110530002
 30
0.0
 11
692.27850064634993
 21
326.87719895689997
 31
0.0
  0
LINE
  5
692D
  8
0
 10
807.72149935364985
 20
326.87719895689997
 30
0.0
 11
808.73750150204978
 21
327.89320110530002
 31
0.0
  0
LINE
  5
692E
  8
0
 10
808.73750150204978
 20
327.89320110530002
 30
0.0
 11
808.73750150204978
 21
338.56119944900001
 31
0.0
  0
LINE
  5
692F
  8
0
 10
691.26249849794976
 20
338.56119944900001
 30
0.0
 11
691.26249849794976
 21
327.89320110530002
 31
0.0
  0
LINE
  5
6930
  8
0
 10
808.73750150204978
 20
338.56119944900001
 30
0.0
 11
807.72149935364985
 21
339.57720159740001
 31
0.0
  0
LINE
  5
6931
  8
0
 10
692.27850064634993
 20
339.57720159740001
 30
0.0
 11
691.26249849794976
 21
338.56119944900001
 31
0.0
  0
LINE
  5
6932
  8
0
 10
803.21300029740917
 20
270.1488003998
 30
0.0
 11
803.21300029754991
 21
281.7413998601001
 31
0.0
  0
LINE
  5
6933
  8
0
 10
696.78699970244975
 20
281.7413998601001
 30
0.0
 11
696.78699970230923
 21
270.1488003998
 31
0.0
  0
LINE
  5
6934
  8
0
 10
803.21300029754991
 20
281.7413998601001
 30
0.0
 11
802.45099961764993
 21
282.50339984150003
 31
0.0
  0
LINE
  5
6935
  8
0
 10
697.54900038244978
 20
282.50339984150003
 30
0.0
 11
696.78699970244975
 21
281.7413998601001
 31
0.0
  0
LINE
  5
6936
  8
0
 10
696.78699970230923
 20
270.1488003998
 30
0.0
 11
697.54900038230915
 21
269.38680065119991
 31
0.0
  0
LINE
  5
6937
  8
0
 10
802.45099961750941
 20
269.38680065119991
 30
0.0
 11
803.21300029740962
 21
270.1488003998
 31
0.0
  0
LINE
  5
693E
  8
0
 10
642.45639741424986
 20
316.99969939139987
 30
0.0
 11
641.44039899114978
 21
315.98370096830001
 31
0.0
  0
LINE
  5
693F
  8
0
 10
641.44039899114978
 20
289.38990033409999
 30
0.0
 11
642.45639741424986
 21
288.37390051409989
 31
0.0
  0
LINE
  5
6940
  8
0
 10
642.45639741424986
 20
288.37390051409989
 30
0.0
 11
652.48940140014975
 21
288.37390051409989
 31
0.0
  0
LINE
  5
6941
  8
0
 10
652.48940140014975
 20
316.99969939139987
 30
0.0
 11
642.45639741424986
 21
316.99969939139987
 31
0.0
  0
LINE
  5
6942
  8
0
 10
857.54360258584995
 20
316.99969939139987
 30
0.0
 11
847.51059859994984
 21
316.99969939139987
 31
0.0
  0
LINE
  5
6943
  8
0
 10
847.51059859994984
 20
288.37390051409989
 30
0.0
 11
857.54360258584995
 21
288.37390051409989
 31
0.0
  0
LINE
  5
6944
  8
0
 10
857.54360258584995
 20
288.37390051409989
 30
0.0
 11
858.55960100894993
 21
289.38990033409999
 31
0.0
  0
LINE
  5
6945
  8
0
 10
858.55960100894993
 20
315.98370096830001
 30
0.0
 11
857.54360258584995
 21
316.99969939139987
 31
0.0
  0
LINE
  5
6946
  8
0
 10
687.87160143254994
 20
291.14885063089997
 30
0.0
 11
688.08750063189984
 21
291.14885063089997
 31
0.0
  0
LINE
  5
6947
  8
0
 10
688.08750063189984
 20
314.22475113719992
 30
0.0
 11
687.87160143254994
 21
314.22475113719997
 31
0.0
  0
LINE
  5
6948
  8
0
 10
812.12839856744984
 20
314.22475113719997
 30
0.0
 11
811.91250309349982
 21
314.22475113719997
 31
0.0
  0
LINE
  5
6949
  8
0
 10
811.91250309349982
 20
291.14885063089997
 30
0.0
 11
812.12839856744984
 21
291.14885063089997
 31
0.0
  0
ARC
  5
694A
  8
0
 10
829.3877000000499
 20
265.1869498415
 30
0.0
 40
22.225000000000051
 50
37.383198417899877
 51
140.9477217334979
  0
LINE
  5
694B
  8
0
 10
812.12839856744984
 20
342.18069895359997
 30
0.0
 11
812.12839856744984
 21
278.68069995380012
 31
0.0
  0
ARC
  5
694C
  8
0
 10
786.72838905094977
 20
342.1806994913
 30
0.0
 40
25.40000951652349
 50
359.9999987870014
 51
36.437998556699057
  0
ARC
  5
694D
  8
0
 10
872.91067677174999
 20
327.09307317310009
 30
0.0
 40
25.40007817177213
 50
146.98209879110291
 51
179.99994364499881
  0
LINE
  5
694E
  8
0
 10
847.51059859994984
 20
278.6806999538
 30
0.0
 11
847.51059859994984
 21
327.09309815620003
 31
0.0
  0
LINE
  5
694F
  8
0
 10
687.87160143254994
 20
278.6806999538
 30
0.0
 11
652.48940140014975
 21
278.6806999538
 31
0.0
  0
ARC
  5
6950
  8
0
 10
670.6123000000498
 20
265.1869498415
 30
0.0
 40
22.225000000000051
 50
39.052278266502107
 51
142.61680158210009
  0
LINE
  5
6951
  8
0
 10
847.51059859994984
 20
278.68069995379989
 30
0.0
 11
812.12839856744984
 21
278.6806999538
 31
0.0
  0
LINE
  5
6952
  8
0
 10
652.48940140014975
 20
327.09309815620003
 30
0.0
 11
652.48940140014975
 21
278.6806999538
 31
0.0
  0
ARC
  5
6953
  8
0
 10
627.08927361154986
 20
327.09305846749999
 30
0.0
 40
25.40012778858258
 50
0.0000895267995168
 51
33.017868037101032
  0
ARC
  5
6954
  8
0
 10
713.27160898634986
 20
342.18070013739998
 30
0.0
 40
25.40000755375392
 50
143.56199998599479
 51
180.00000267029961
  0
LINE
  5
6955
  8
0
 10
687.87160143255005
 20
278.6806999538
 30
0.0
 11
687.87160143254994
 21
342.18069895359997
 31
0.0
  0
LINE
  5
6956
  8
0
 10
688.08750063189927
 20
282.50339984150003
 30
0.0
 11
811.91250309349948
 21
282.50339984150003
 31
0.0
  0
LINE
  5
6959
  8
0
 10
688.08750063189973
 20
326.87719895689997
 30
0.0
 11
688.08750063189927
 21
282.50339984150003
 31
0.0
  0
LINE
  5
695A
  8
0
 10
811.91250309349948
 20
282.50339984150003
 30
0.0
 11
811.91250309349971
 21
326.87719895689997
 31
0.0
  0
LINE
  5
695B
  8
0
 10
811.91250309349982
 20
326.87719895689992
 30
0.0
 11
688.08750063189962
 21
326.87719895689992
 31
0.0
  0
LINE
  5
695E
  8
0
 10
807.72149935364985
 20
339.57720159740001
 30
0.0
 11
692.27850064634993
 21
339.57720159740001
 31
0.0
  0
LINE
  5
695F
  8
0
 10
697.54900038230949
 20
269.38680065119991
 30
0.0
 11
802.45099961750975
 21
269.38680065119991
 31
0.0
  0
LINE
  5
6967
  8
0
 10
641.44039899114978
 20
315.98370096830001
 30
0.0
 11
641.44039899114978
 21
289.38990033409999
 31
0.0
  0
LINE
  5
6968
  8
0
 10
642.45639741424986
 20
316.9996993914001
 30
0.0
 11
642.45639741424986
 21
288.37390051409989
 31
0.0
  0
LINE
  5
6969
  8
0
 10
857.54360258584995
 20
288.37390051409989
 30
0.0
 11
857.54360258584995
 21
316.99969939139987
 31
0.0
  0
LINE
  5
696A
  8
0
 10
858.55960100894993
 20
289.38990033409999
 30
0.0
 11
858.55960100894993
 21
315.98370096830001
 31
0.0
  0
LINE
  5
696B
  8
0
 10
829.38770204784964
 20
875.71799980579988
 30
0.0
 11
670.61229795224983
 21
875.71799980579988
 31
0.0
  0
LINE
  5
696C
  8
0
 10
670.61229795224983
 20
831.26799987729987
 30
0.0
 11
829.38770204784964
 21
831.26799987729987
 31
0.0
  0
LINE
  5
696D
  8
0
 10
642.45639741424986
 20
867.80589951299987
 30
0.0
 11
641.44039899114978
 21
866.78990015859995
 31
0.0
  0
LINE
  5
696E
  8
0
 10
641.44039899114978
 20
840.19609952439987
 30
0.0
 11
642.45639741424986
 21
839.18010017000006
 31
0.0
  0
LINE
  5
696F
  8
0
 10
642.45639741424986
 20
839.18010017000006
 30
0.0
 11
652.48940140014975
 21
839.18010017000006
 31
0.0
  0
LINE
  5
6970
  8
0
 10
652.48940140014975
 20
867.80589951299987
 30
0.0
 11
642.45639741424986
 21
867.80589951299987
 31
0.0
  0
LINE
  5
6971
  8
0
 10
857.54360258584995
 20
867.80589951299987
 30
0.0
 11
847.51059859994984
 21
867.80589951299987
 31
0.0
  0
LINE
  5
6972
  8
0
 10
847.51059859994984
 20
839.18010017000006
 30
0.0
 11
857.54360258584995
 21
839.18010017000006
 31
0.0
  0
LINE
  5
6973
  8
0
 10
857.54360258584995
 20
839.18010017000006
 30
0.0
 11
858.55960100894993
 21
840.19609952439987
 31
0.0
  0
LINE
  5
6974
  8
0
 10
858.55960100894993
 20
866.78990015859995
 30
0.0
 11
857.54360258584995
 21
867.80589951299987
 31
0.0
  0
ARC
  5
6975
  8
0
 10
670.6123000000498
 20
853.4929998414998
 30
0.0
 40
22.225000000000019
 50
90.0
 51
270.0
  0
ARC
  5
6976
  8
0
 10
829.3877000000499
 20
853.4929998414998
 30
0.0
 40
22.224999999999969
 50
0.0
 51
90.0
  0
ARC
  5
6977
  8
0
 10
829.3877000000499
 20
853.4929998414998
 30
0.0
 40
22.225000000000019
 50
270.0
 51
0.0
  0
LINE
  5
6978
  8
0
 10
641.44039899114978
 20
866.78990015859995
 30
0.0
 11
641.44039899114978
 21
840.19609952439987
 31
0.0
  0
LINE
  5
6979
  8
0
 10
642.45639741424986
 20
867.80589951299987
 30
0.0
 11
642.45639741424986
 21
839.18010017000006
 31
0.0
  0
LINE
  5
697A
  8
0
 10
652.48940140014975
 20
839.18010017000006
 30
0.0
 11
652.48940140014975
 21
840.62788767840004
 31
0.0
  0
LINE
  5
697B
  8
0
 10
652.48940140014975
 20
866.3581120046
 30
0.0
 11
652.48940140014975
 21
867.80589951299987
 31
0.0
  0
LINE
  5
697C
  8
0
 10
857.54360258584995
 20
839.18010017000006
 30
0.0
 11
857.54360258584995
 21
867.80589951299987
 31
0.0
  0
LINE
  5
697D
  8
0
 10
847.51059859994984
 20
867.80589951299987
 30
0.0
 11
847.51059859994984
 21
866.3581120046
 31
0.0
  0
LINE
  5
697E
  8
0
 10
847.51059859994984
 20
840.62788767840004
 30
0.0
 11
847.51059859994984
 21
839.18010017000006
 31
0.0
  0
LINE
  5
697F
  8
0
 10
858.55960100894993
 20
840.19609952439987
 30
0.0
 11
858.55960100894993
 21
866.78990015859995
 31
0.0
  0
ARC
  5
6980
  8
0
 10
1100.0000000001
 20
563.86180065119993
 30
0.0
 40
22.225000000000019
 50
0.0
 51
180.0
  0
LINE
  5
6981
  8
0
 10
1122.2249999643
 20
287.41194990650001
 30
0.0
 11
1122.2249999643
 21
563.8617924404
 31
0.0
  0
LINE
  5
6982
  8
0
 10
1077.7750000358001
 20
563.8617924404
 30
0.0
 11
1077.7750000358001
 21
287.41194990650001
 31
0.0
  0
LINE
  5
6983
  8
0
 10
1158.7375015021
 20
327.89320110530002
 30
0.0
 11
1158.7375015021
 21
338.56119944900001
 31
0.0
  0
LINE
  5
6984
  8
0
 10
1041.262498498
 20
338.56119944900001
 30
0.0
 11
1041.262498498
 21
327.89320110530002
 31
0.0
  0
LINE
  5
6985
  8
0
 10
1041.262498498
 20
327.89320110530002
 30
0.0
 11
1042.2785006464001
 21
326.87719895689997
 31
0.0
  0
LINE
  5
6986
  8
0
 10
1157.7214993537
 20
326.87719895689997
 30
0.0
 11
1158.7375015021
 21
327.89320110530002
 31
0.0
  0
LINE
  5
6987
  8
0
 10
1158.7375015021
 20
338.56119944900001
 30
0.0
 11
1157.7214993537
 21
339.57720159740001
 31
0.0
  0
LINE
  5
6988
  8
0
 10
1042.2785006464001
 20
339.57720159740001
 30
0.0
 11
1041.262498498
 21
338.56119944900001
 31
0.0
  0
LINE
  5
6989
  8
0
 10
1046.7869997025
 20
270.1488003998
 30
0.0
 11
1047.5490003825
 21
269.38680065119991
 31
0.0
  0
LINE
  5
698A
  8
0
 10
1152.4509996176
 20
269.38680065119991
 30
0.0
 11
1153.2130002976
 21
270.1488003998
 31
0.0
  0
LINE
  5
698B
  8
0
 10
1153.2130002976
 20
281.7413998601001
 30
0.0
 11
1152.4509996176
 21
282.50339984150003
 31
0.0
  0
LINE
  5
698C
  8
0
 10
1047.5490003825
 20
282.50339984150003
 30
0.0
 11
1046.7869997025
 21
281.7413998601001
 31
0.0
  0
LINE
  5
698D
  8
0
 10
1153.2130002976
 20
270.1488003998
 30
0.0
 11
1153.2130002976
 21
281.7413998601001
 31
0.0
  0
LINE
  5
698E
  8
0
 10
1046.7869997025
 20
281.7413998601001
 30
0.0
 11
1046.7869997025
 21
270.1488003998
 31
0.0
  0
LINE
  5
698F
  8
0
 10
1112.8651121631999
 20
327.09309815620003
 30
0.0
 11
1112.8651121631999
 21
308.9595987063347
 31
0.0
  0
LINE
  5
6990
  8
0
 10
1112.8651121631999
 20
296.41400259606519
 30
0.0
 11
1112.8651121631999
 21
278.6806999538
 31
0.0
  0
POLYLINE
  5
6991
  8
0
 66
     1
 10
0.0
 20
0.0
 30
0.0
 70
   128
  0
VERTEX
  5
6BA2
  8
0
 10
1087.1348878368999
 20
327.09309815620003
 30
0.0
  0
VERTEX
  5
6BA3
  8
0
 10
1087.2863674537
 20
329.41469907020002
 30
0.0
  0
VERTEX
  5
6BA4
  8
0
 10
1087.7435183153
 20
331.67694120850001
 30
0.0
  0
VERTEX
  5
6BA5
  8
0
 10
1088.5213617236
 20
333.82213100050001
 30
0.0
  0
VERTEX
  5
6BA6
  8
0
 10
1089.6252760663999
 20
335.78098549689997
 30
0.0
  0
VERTEX
  5
6BA7
  8
0
 10
1091.0345934331999
 20
337.46038734170003
 30
0.0
  0
VERTEX
  5
6BA8
  8
0
 10
1092.7379246802
 20
338.84500323980001
 30
0.0
  0
VERTEX
  5
6BA9
  8
0
 10
1094.5355253294999
 20
339.82076480239999
 30
0.0
  0
VERTEX
  5
6BAA
  8
0
 10
1096.4975742623999
 20
340.49657344069999
 30
0.0
  0
VERTEX
  5
6BAB
  8
0
 10
1100.0000000001
 20
340.93360214680001
 30
0.0
  0
VERTEX
  5
6BAC
  8
0
 10
1102.0860093645999
 20
340.78057094659999
 30
0.0
  0
VERTEX
  5
6BAD
  8
0
 10
1104.1099782102001
 20
340.3250461742
 30
0.0
  0
VERTEX
  5
6BAE
  8
0
 10
1106.0096946546
 20
339.56572770330001
 30
0.0
  0
VERTEX
  5
6BAF
  8
0
 10
1107.7328751795999
 20
338.51589246840001
 30
0.0
  0
VERTEX
  5
6BB0
  8
0
 10
1109.1963922605
 20
337.2272474989
 30
0.0
  0
VERTEX
  5
6BB1
  8
0
 10
1110.4229766876001
 20
335.71048065270003
 30
0.0
  0
VERTEX
  5
6BB2
  8
0
 10
1111.4256832748999
 20
333.93793537469998
 30
0.0
  0
VERTEX
  5
6BB3
  8
0
 10
1112.1601996943989
 20
332.0094047412
 30
0.0
  0
VERTEX
  5
6BB4
  8
0
 10
1112.6897450537001
 20
329.58823054279998
 30
0.0
  0
VERTEX
  5
6BB5
  8
0
 10
1112.8651121631999
 20
327.09309815620003
 30
0.0
  0
SEQEND
  5
6BB6
  8
0
  0
LINE
  5
6992
  8
0
 10
1087.1348878368999
 20
278.6806999538
 30
0.0
 11
1087.134887836899
 21
296.4140025962144
 31
0.0
  0
LINE
  5
6993
  8
0
 10
1087.134887836899
 20
308.95959870618549
 30
0.0
 11
1087.1348878368999
 21
327.09309815620003
 31
0.0
  0
LINE
  5
6994
  8
0
 10
1112.8651121631999
 20
327.09309815620003
 30
0.0
 11
1087.1348878368999
 21
327.09309815620003
 31
0.0
  0
LINE
  5
6995
  8
0
 10
1113.4937502444
 20
278.6806999538
 30
0.0
 11
1086.5062497557001
 21
278.6806999538
 31
0.0
  0
CIRCLE
  5
6996
  8
0
 10
1100.0000000000859
 20
302.68680065119997
 30
0.0
 40
13.296900000000051
  0
CIRCLE
  5
6997
  8
0
 10
1100.0000000000859
 20
302.68680065119997
 30
0.0
 40
14.3128999999999
  0
LINE
  5
6998
  8
0
 10
1117.31645007474
 20
282.50339984150003
 30
0.0
 11
1165.262497341799
 21
282.50339984150003
 31
0.0
  0
LINE
  5
6999
  8
0
 10
1165.262497341799
 20
326.87719895689997
 30
0.0
 11
1122.2249999643
 21
326.87719895689997
 31
0.0
  0
LINE
  5
699A
  8
0
 10
1077.7750000358001
 20
326.87719895689997
 30
0.0
 11
1034.7375026584
 21
326.87719895689997
 31
0.0
  0
LINE
  5
699B
  8
0
 10
1034.7375026584
 20
282.50339984150003
 30
0.0
 11
1082.683549925431
 21
282.50339984150003
 31
0.0
  0
LINE
  5
699C
  8
0
 10
1157.7214993537
 20
339.57720159740001
 30
0.0
 11
1122.2249999643
 21
339.57720159740001
 31
0.0
  0
LINE
  5
699D
  8
0
 10
1077.7750000358001
 20
339.57720159740001
 30
0.0
 11
1042.2785006464001
 21
339.57720159740001
 31
0.0
  0
LINE
  5
699E
  8
0
 10
1047.5490003825
 20
269.38680065119991
 30
0.0
 11
1152.4509996176
 21
269.38680065119991
 31
0.0
  0
LINE
  5
699F
  8
0
 10
334.73750265824981
 20
326.87719895689997
 30
0.0
 11
333.14999999994978
 21
325.28970002379998
 31
0.0
  0
LINE
  5
69A0
  8
0
 10
333.14999999994978
 20
325.28970002379998
 30
0.0
 11
333.14999999994978
 21
324.91180061541382
 31
0.0
  0
LINE
  5
69A1
  8
0
 10
465.26249734164992
 20
282.50339984150003
 30
0.0
 11
466.84999999994977
 21
284.0908998223
 31
0.0
  0
LINE
  5
69A2
  8
0
 10
466.84999999994977
 20
284.0908998223
 30
0.0
 11
466.84999999994977
 21
325.28970002380009
 31
0.0
  0
LINE
  5
69A3
  8
0
 10
466.84999999994977
 20
325.28970002380009
 30
0.0
 11
465.26249734164992
 21
326.87719895689997
 31
0.0
  0
LINE
  5
69A4
  8
0
 10
458.73750150194979
 20
327.89320110530002
 30
0.0
 11
458.73750150194979
 21
338.56119944900001
 31
0.0
  0
LINE
  5
69A5
  8
0
 10
341.26249849794988
 20
338.56119944900001
 30
0.0
 11
341.26249849794988
 21
327.89320110530002
 31
0.0
  0
LINE
  5
69A6
  8
0
 10
341.26249849794988
 20
327.89320110530002
 30
0.0
 11
342.27850064624988
 21
326.87719895689997
 31
0.0
  0
LINE
  5
69A7
  8
0
 10
457.7214993535498
 20
326.87719895689997
 30
0.0
 11
458.73750150194979
 21
327.89320110530002
 31
0.0
  0
LINE
  5
69A8
  8
0
 10
458.73750150194979
 20
338.56119944900001
 30
0.0
 11
457.7214993535498
 21
339.57720159740001
 31
0.0
  0
LINE
  5
69A9
  8
0
 10
342.27850064624988
 20
339.57720159740001
 30
0.0
 11
341.26249849794988
 21
338.56119944900001
 31
0.0
  0
LINE
  5
69AA
  8
0
 10
346.78699970235022
 20
270.1488003998
 30
0.0
 11
347.54900038235007
 21
269.38680065119991
 31
0.0
  0
LINE
  5
69AB
  8
0
 10
452.45099961755022
 20
269.38680065119991
 30
0.0
 11
453.21300029745009
 21
270.1488003998
 31
0.0
  0
LINE
  5
69AC
  8
0
 10
453.21300029744992
 20
270.1488003998
 30
0.0
 11
453.21300029744992
 21
281.74139986009999
 31
0.0
  0
LINE
  5
69AD
  8
0
 10
346.78699970234999
 20
280.46180068691348
 30
0.0
 11
346.78699970234999
 21
270.1488003998
 31
0.0
  0
LINE
  5
69AE
  8
0
 10
453.21300029744992
 20
281.74139986009999
 30
0.0
 11
452.45099961754988
 21
282.50339984150003
 31
0.0
  0
LINE
  5
69B4
  8
0
 10
375.5483772605499
 20
326.87719895689997
 30
0.0
 11
334.73750265824981
 21
326.87719895689997
 31
0.0
  0
LINE
  5
69B8
  8
0
 10
424.45162273934977
 20
326.87719895689997
 30
0.0
 11
375.5483772605499
 21
326.87719895689997
 31
0.0
  0
LINE
  5
69BB
  8
0
 10
417.31644995370851
 20
282.50339984150003
 30
0.0
 11
424.45162273934977
 21
282.50339984150003
 31
0.0
  0
LINE
  5
69BC
  8
0
 10
424.45162273934977
 20
282.50339984150003
 30
0.0
 11
465.26249734164992
 21
282.50339984150003
 31
0.0
  0
LINE
  5
69BD
  8
0
 10
465.26249734164969
 20
326.87719895689997
 30
0.0
 11
424.45162273934977
 21
326.87719895689997
 31
0.0
  0
LINE
  5
69BE
  8
0
 10
457.7214993535498
 20
339.57720159740001
 30
0.0
 11
342.27850064624988
 21
339.57720159740001
 31
0.0
  0
LINE
  5
69BF
  8
0
 10
347.54900038235007
 20
269.38680065119991
 30
0.0
 11
452.45099961755022
 21
269.38680065119991
 31
0.0
  0
LINE
  5
69C5
  8
0
 10
414.31289967144988
 20
961.03660242729984
 30
0.0
 11
413.2969003170499
 21
962.05260085039993
 31
0.0
  0
LINE
  5
69C6
  8
0
 10
386.70309968285
 20
962.05260085039993
 30
0.0
 11
385.6871003284499
 21
961.03660242729984
 31
0.0
  0
LINE
  5
69C7
  8
0
 10
385.6871003284499
 20
961.03660242729984
 30
0.0
 11
385.6871003284499
 21
951.00359844149989
 31
0.0
  0
LINE
  5
69C8
  8
0
 10
414.31289967144988
 20
951.00359844149989
 30
0.0
 11
414.31289967144988
 21
961.03660242729984
 31
0.0
  0
LINE
  5
69C9
  8
0
 10
414.31289967144988
 20
745.94939725579968
 30
0.0
 11
414.31289967144988
 21
755.98240124159975
 31
0.0
  0
LINE
  5
69CA
  8
0
 10
385.6871003284499
 20
755.98240124159975
 30
0.0
 11
385.6871003284499
 21
745.94939725579968
 31
0.0
  0
LINE
  5
69CB
  8
0
 10
385.6871003284499
 20
745.94939725579968
 30
0.0
 11
386.70309968285
 21
744.93339883269982
 31
0.0
  0
LINE
  5
69CC
  8
0
 10
413.2969003170499
 20
744.93339883269982
 30
0.0
 11
414.31289967144988
 21
745.94939725579968
 31
0.0
  0
CIRCLE
  5
69D0
  8
0
 10
399.99999999994992
 20
853.4929998414998
 30
0.0
 40
57.721499999999999
  0
CIRCLE
  5
69D1
  8
0
 10
399.99999999994992
 20
853.4929998414998
 30
0.0
 40
58.737499999999997
  0
LINE
  5
69D6
  8
0
 10
425.21437012302789
 20
915.4055029349496
 30
0.0
 11
374.78562987687178
 21
915.4055029349496
 31
0.0
  0
LINE
  5
69D8
  8
0
 10
413.2969003170499
 20
962.05260085039993
 30
0.0
 11
386.70309968285
 21
962.05260085039993
 31
0.0
  0
LINE
  5
69D9
  8
0
 10
414.31289967144988
 20
961.03660242729984
 30
0.0
 11
385.6871003284499
 21
961.03660242729984
 31
0.0
  0
LINE
  5
69DA
  8
0
 10
385.6871003284499
 20
745.94939725579968
 30
0.0
 11
414.31289967144988
 21
745.94939725579968
 31
0.0
  0
LINE
  5
69DB
  8
0
 10
386.70309968284982
 20
744.93339883269994
 30
0.0
 11
413.2969003170499
 21
744.93339883269982
 31
0.0
  0
LINE
  5
69DC
  8
0
 10
411.5379500202497
 20
791.36460127399994
 30
0.0
 11
411.5379500202497
 21
791.58050047334984
 31
0.0
  0
LINE
  5
69DD
  8
0
 10
388.46204951394981
 20
791.58050047334984
 30
0.0
 11
388.46204951394981
 21
791.36460127399994
 31
0.0
  0
LINE
  5
69DE
  8
0
 10
388.46204951394981
 20
915.62139840889984
 30
0.0
 11
388.46204951394981
 21
915.4055029349496
 31
0.0
  0
LINE
  5
69DF
  8
0
 10
411.5379500202497
 20
915.4055029349496
 30
0.0
 11
411.5379500202497
 21
915.62139840889984
 31
0.0
  0
LINE
  5
69E2
  8
0
 10
425.21437012302789
 20
791.58049674805011
 30
0.0
 11
374.78562987687189
 21
791.58049674805011
 31
0.0
  0
ARC
  5
69E4
  8
0
 10
399.99999999994992
 20
853.4929998414998
 30
0.0
 40
66.849999999999994
 50
112.159009926237
 51
247.8409900737629
  0
ARC
  5
69E5
  8
0
 10
399.99999999994992
 20
853.4929998414998
 30
0.0
 40
66.849999999999994
 50
292.1590099262371
 51
67.840990073762924
  0
LINE
  5
69E6
  8
0
 10
1034.7375026584
 20
326.87719895689997
 30
0.0
 11
1033.1500000000999
 21
325.28970002379998
 31
0.0
  0
LINE
  5
69E7
  8
0
 10
1033.1500000000999
 20
325.28970002379998
 30
0.0
 11
1033.1500000000999
 21
284.0908998223
 31
0.0
  0
LINE
  5
69E8
  8
0
 10
1033.1500000000999
 20
284.0908998223
 30
0.0
 11
1034.7375026584
 21
282.50339984150003
 31
0.0
  0
LINE
  5
69E9
  8
0
 10
1165.262497341799
 20
282.50339984150003
 30
0.0
 11
1166.8500000001
 21
284.0908998223
 31
0.0
  0
LINE
  5
69EA
  8
0
 10
1166.8500000001
 20
284.0908998223
 30
0.0
 11
1166.8500000001
 21
325.28970002380009
 31
0.0
  0
LINE
  5
69EB
  8
0
 10
1166.8500000001
 20
325.28970002380009
 30
0.0
 11
1165.262497341799
 21
326.87719895689997
 31
0.0
  0
ARC
  5
69F2
  8
0
 10
749.99999999994986
 20
853.49299984150002
 30
0.0
 40
57.721499999999999
 50
202.646130610885
 51
337.35386938911489
  0
ARC
  5
69F3
  8
0
 10
749.99999999994986
 20
853.49299984150002
 30
0.0
 40
57.721499999999999
 50
22.646130610992991
 51
157.353869389007
  0
ARC
  5
69F4
  8
0
 10
749.99999999994986
 20
853.49299984150002
 30
0.0
 40
58.737499999999997
 50
202.2332717605737
 51
337.7667282394263
  0
ARC
  5
69F5
  8
0
 10
749.99999999994986
 20
853.49299984150002
 30
0.0
 40
58.737499999999997
 50
22.233271760678821
 51
157.76672823932111
  0
LINE
  5
69FB
  8
0
 10
811.91250309339966
 20
828.27862971842183
 30
0.0
 11
811.91250309339966
 21
831.26799987729987
 31
0.0
  0
LINE
  5
69FC
  8
0
 10
811.91250309339966
 20
875.71799980579988
 30
0.0
 11
811.91250309339966
 21
878.70736996457822
 31
0.0
  0
LINE
  5
6A01
  8
0
 10
688.08749690649995
 20
828.27862971842183
 30
0.0
 11
688.08749690649995
 21
831.26799987729987
 31
0.0
  0
LINE
  5
6A02
  8
0
 10
688.08749690649995
 20
875.71799980579988
 30
0.0
 11
688.08749690649995
 21
878.70736996457799
 31
0.0
  0
ARC
  5
6A04
  8
0
 10
749.99999999994986
 20
853.49299984150002
 30
0.0
 40
66.849999999999994
 50
22.159009926240081
 51
157.84099007375991
  0
ARC
  5
6A05
  8
0
 10
749.99999999994986
 20
853.49299984150002
 30
0.0
 40
66.849999999999994
 50
202.15900992624009
 51
337.84099007376
  0
LINE
  5
6A22
  8
1
 10
750.00000000005025
 20
596.08680065119995
 30
0.0
 11
749.99999999995464
 21
171.38680065119991
 31
0.0
  0
LINE
  5
6A23
  8
1
 10
1100.00000000005
 20
596.08680065119995
 30
0.0
 11
1100.0000000001021
 21
171.38680065119991
 31
0.0
  0
LINE
  5
6A24
  8
1
 10
399.99999999997777
 20
379.68680065094509
 30
0.0
 11
400.00000000000369
 21
171.38680065119991
 31
0.0
  0
ARC
  5
6A25
  8
2
 10
1100.0000000001
 20
563.86180065119993
 30
0.0
 40
22.225000000000019
 50
180.0
 51
0.0
  0
LINE
  5
6A26
  8
1
 10
868.55960100894993
 20
302.68680065119997
 30
0.0
 11
631.44039899114978
 21
302.68680065119997
 31
0.0
  0
LINE
  5
6A27
  8
1
 10
638.38729798787665
 20
484.47410065119988
 30
0.0
 11
861.61270201197669
 21
484.47410065119988
 31
0.0
  0
LINE
  5
6A28
  8
1
 10
868.55960100894993
 20
853.49299984150002
 30
0.0
 11
631.44039899114978
 21
853.49299984150002
 31
0.0
  0
LINE
  5
6A29
  8
1
 10
749.99999999994986
 20
776.6429998415
 30
0.0
 11
749.99999999994986
 21
930.34299984149993
 31
0.0
  0
LINE
  5
6A2A
  8
1
 10
400.00000000004991
 20
972.05260085039981
 30
0.0
 11
400.00000000004991
 21
734.93339883259989
 31
0.0
  0
LINE
  5
6A2B
  8
1
 10
670.6123000000498
 20
885.71799980574997
 30
0.0
 11
670.6123000000498
 21
821.26799987724985
 31
0.0
  0
LINE
  5
6A2C
  8
1
 10
829.3877000000499
 20
885.71799980574997
 30
0.0
 11
829.3877000000499
 21
821.26799987724985
 31
0.0
  0
LINE
  5
6A2D
  8
1
 10
1067.775000035899
 20
563.86180065119993
 30
0.0
 11
1132.2249999644
 21
563.86180065119993
 31
0.0
  0
LINE
  5
6A2E
  8
1
 10
1075.687100000086
 20
302.68680065119997
 30
0.0
 11
1124.3129000000861
 21
302.68680065119997
 31
0.0
  0
ARC
  5
6A2F
  8
1
 10
749.99999999992679
 20
484.47410065119982
 30
0.0
 40
79.387700000000024
 50
0.0
 51
180.0
  0
LINE
  5
6A30
  8
1
 10
670.61229999992668
 20
484.47410065119982
 30
0.0
 11
670.61229999999978
 21
268.68069995379972
 31
0.0
  0
LINE
  5
6A31
  8
1
 10
829.38769999992678
 20
484.47410065119982
 30
0.0
 11
829.38769999999977
 21
268.68069995379972
 31
0.0
  0
LINE
  5
6A45
  8
0
 10
1077.7750000358001
 20
287.41194990650001
 30
0.0
 11
1086.5062497557001
 21
278.6806999538
 31
0.0
  0
LINE
  5
6A46
  8
0
 10
1113.4937502444
 20
278.6806999538
 30
0.0
 11
1122.2249999643
 21
287.41194990650001
 31
0.0
  0
ARC
  5
6A47
  8
0
 10
138.8249999999874
 20
302.68680065121362
 30
0.0
 40
22.225000000000019
 50
90.0
 51
270.0
  0
LINE
  5
6A48
  8
0
 10
415.27485074468728
 20
324.91180061541382
 30
0.0
 11
138.8250082107873
 21
324.91180061541382
 31
0.0
  0
LINE
  5
6A49
  8
0
 10
138.8250082107873
 20
280.46180068691359
 30
0.0
 11
415.27485074468728
 21
280.46180068691359
 31
0.0
  0
LINE
  5
6A4A
  8
0
 10
375.59370249498738
 20
315.55191281431371
 30
0.0
 11
393.72720194485271
 21
315.55191281431371
 31
0.0
  0
LINE
  5
6A4B
  8
0
 10
406.27279805512211
 20
315.55191281431371
 30
0.0
 11
424.00610069738718
 21
315.55191281431371
 31
0.0
  0
POLYLINE
  5
6A4C
  8
0
 66
     1
 10
0.0
 20
0.0
 30
0.0
 70
   128
  0
VERTEX
  5
6BB7
  8
0
 10
375.59370249498738
 20
289.82168848801371
 30
0.0
  0
VERTEX
  5
6BB8
  8
0
 10
373.2721015809874
 20
289.97316810481379
 30
0.0
  0
VERTEX
  5
6BB9
  8
0
 10
371.00985944268729
 20
290.43031896641378
 30
0.0
  0
VERTEX
  5
6BBA
  8
0
 10
368.86466965068729
 20
291.20816237471382
 30
0.0
  0
VERTEX
  5
6BBB
  8
0
 10
366.90581515428738
 20
292.31207671751372
 30
0.0
  0
VERTEX
  5
6BBC
  8
0
 10
365.22641330948738
 20
293.72139408431372
 30
0.0
  0
VERTEX
  5
6BBD
  8
0
 10
363.8417974113874
 20
295.42472533131382
 30
0.0
  0
VERTEX
  5
6BBE
  8
0
 10
362.86603584878742
 20
297.22232598061368
 30
0.0
  0
VERTEX
  5
6BBF
  8
0
 10
362.19022721048742
 20
299.18437491351369
 30
0.0
  0
VERTEX
  5
6BC0
  8
0
 10
361.7531985043874
 20
302.68680065121362
 30
0.0
  0
VERTEX
  5
6BC1
  8
0
 10
361.90622970458742
 20
304.77281001571367
 30
0.0
  0
VERTEX
  5
6BC2
  8
0
 10
362.3617544769873
 20
306.79677886131373
 30
0.0
  0
VERTEX
  5
6BC3
  8
0
 10
363.1210729478874
 20
308.69649530571382
 30
0.0
  0
VERTEX
  5
6BC4
  8
0
 10
364.17090818278729
 20
310.41967583071369
 30
0.0
  0
VERTEX
  5
6BC5
  8
0
 10
365.45955315228741
 20
311.88319291161361
 30
0.0
  0
VERTEX
  5
6BC6
  8
0
 10
366.97631999848738
 20
313.10977733871368
 30
0.0
  0
VERTEX
  5
6BC7
  8
0
 10
368.74886527648732
 20
314.11248392601368
 30
0.0
  0
VERTEX
  5
6BC8
  8
0
 10
370.6773959099873
 20
314.84700034551361
 30
0.0
  0
VERTEX
  5
6BC9
  8
0
 10
373.09857010838738
 20
315.37654570481368
 30
0.0
  0
VERTEX
  5
6BCA
  8
0
 10
375.59370249498738
 20
315.55191281431371
 30
0.0
  0
SEQEND
  5
6BCB
  8
0
  0
LINE
  5
6A4D
  8
0
 10
424.00610069738718
 20
289.82168848801371
 30
0.0
 11
406.2727980549729
 21
289.82168848801348
 31
0.0
  0
LINE
  5
6A4E
  8
0
 10
393.72720194500181
 20
289.82168848801348
 30
0.0
 11
375.59370249498738
 21
289.82168848801371
 31
0.0
  0
LINE
  5
6A4F
  8
0
 10
375.59370249498738
 20
315.55191281431371
 30
0.0
 11
375.59370249498738
 21
289.82168848801371
 31
0.0
  0
LINE
  5
6A50
  8
0
 10
424.00610069738718
 20
316.18055089551382
 30
0.0
 11
424.00610069738718
 21
289.1930504068136
 31
0.0
  0
CIRCLE
  5
6A51
  8
0
 10
399.99999999998738
 20
302.68680065119997
 30
0.0
 40
13.296900000000051
  0
CIRCLE
  5
6A52
  8
0
 10
399.99999999998738
 20
302.68680065119997
 30
0.0
 40
14.3128999999999
  0
LINE
  5
6A53
  8
1
 10
106.5999999999874
 20
302.68680065116382
 30
0.0
 11
476.84999999995
 21
302.6868006512093
 31
0.0
  0
ARC
  5
6A54
  8
2
 10
138.8249999999874
 20
302.68680065121362
 30
0.0
 40
22.225000000000019
 50
270.0
 51
90.0
  0
LINE
  5
6A55
  8
1
 10
138.8249999999874
 20
270.46180068701352
 30
0.0
 11
138.8249999999874
 21
334.91180061551358
 31
0.0
  0
LINE
  5
6A56
  8
0
 10
415.27485074468728
 20
280.46180068691359
 30
0.0
 11
424.00610069738718
 21
289.1930504068136
 31
0.0
  0
LINE
  5
6A57
  8
0
 10
424.00610069738718
 20
316.18055089551382
 30
0.0
 11
415.27485074468728
 21
324.91180061541382
 31
0.0
  0
LINE
  5
6A58
  8
0
 10
361.75319803874982
 20
955.10570185359973
 30
0.0
 11
218.21270234235001
 21
955.10570185352685
 31
0.0
  0
LINE
  5
6A59
  8
0
 10
218.21270234235001
 20
910.65569819982682
 30
0.0
 11
345.41969997804972
 21
910.6556981998998
 31
0.0
  0
ARC
  5
6A5A
  8
0
 10
218.21269953434989
 20
853.49299984152685
 30
0.0
 40
101.6127
 50
90.0
 51
270.0
  0
ARC
  5
6A5B
  8
0
 10
218.21269953434989
 20
853.49299984152685
 30
0.0
 40
57.162700000000029
 50
90.0
 51
270.0
  0
LINE
  5
6A5C
  8
0
 10
345.41969997804972
 20
796.33030148329965
 30
0.0
 11
218.21270234235001
 21
796.33030148322666
 31
0.0
  0
LINE
  5
6A5D
  8
0
 10
218.21270234235001
 20
751.88029782942669
 30
0.0
 11
361.75319803874982
 21
751.88029782949968
 31
0.0
  0
ARC
  5
6A5E
  8
0
 10
437.49985034404972
 20
932.88069984159984
 30
0.0
 40
22.225000000000051
 50
127.38319841789991
 51
230.94772173349261
  0
LINE
  5
6A5F
  8
0
 10
360.50610123194969
 20
915.62139840899977
 30
0.0
 11
424.00610023174983
 21
915.62139840899977
 31
0.0
  0
ARC
  5
6A60
  8
0
 10
360.50610069424988
 20
890.22138889249993
 30
0.0
 40
25.40000951652349
 50
89.999998786991625
 51
126.4379985566963
  0
ARC
  5
6A61
  8
0
 10
375.59372701244979
 20
976.40367661329992
 30
0.0
 40
25.40007817177213
 50
236.9820987911049
 51
269.99994364499878
  0
LINE
  5
6A62
  8
0
 10
424.00610023174983
 20
951.00359844149989
 30
0.0
 11
375.59370202935003
 21
951.00359844149989
 31
0.0
  0
LINE
  5
6A63
  8
0
 10
424.00610023174983
 20
791.36460127409975
 30
0.0
 11
424.00610023174983
 21
755.98240124169968
 31
0.0
  0
ARC
  5
6A64
  8
0
 10
437.49985034404972
 20
774.10529984159984
 30
0.0
 40
22.225000000000051
 50
129.05227826650739
 51
232.61680158210009
  0
LINE
  5
6A65
  8
0
 10
424.00610023174983
 20
951.00359844149989
 30
0.0
 11
424.00610023174983
 21
915.62139840899977
 31
0.0
  0
LINE
  5
6A66
  8
0
 10
375.59370202935003
 20
755.98240124169968
 30
0.0
 11
424.00610023174983
 21
755.98240124169968
 31
0.0
  0
ARC
  5
6A67
  8
0
 10
375.59374171804978
 20
730.58227345309967
 30
0.0
 40
25.40012778858258
 50
90.000089526796259
 51
123.0178680371007
  0
ARC
  5
6A68
  8
0
 10
360.50610004814979
 20
816.76460882789968
 30
0.0
 40
25.40000755375392
 50
233.5619999859907
 51
270.0000026702964
  0
LINE
  5
6A69
  8
0
 10
424.00610023174983
 20
791.3646012741001
 30
0.0
 11
360.50610123194969
 21
791.36460127409975
 31
0.0
  0
LINE
  5
6A6A
  8
1
 10
106.59999953435
 20
853.49299984160052
 30
0.0
 11
476.84999999994977
 21
853.49299984151685
 31
0.0
  0
LINE
  5
6A6B
  8
1
 10
218.21269953434989
 20
741.88029782942681
 30
0.0
 11
218.21269953434989
 21
965.10570185352685
 31
0.0
  0
ARC
  5
6A6C
  8
1
 10
218.21269953435009
 20
853.49299984147672
 30
0.0
 40
79.387700000000024
 50
90.0
 51
270.0
  0
LINE
  5
6A6D
  8
1
 10
218.21269953435009
 20
774.10529984147684
 30
0.0
 11
434.00610023175022
 21
774.10529984154982
 31
0.0
  0
LINE
  5
6A6E
  8
1
 10
218.21269953435009
 20
932.88069984147671
 30
0.0
 11
434.00610023175022
 21
932.8806998415497
 31
0.0
  0
LINE
  5
6A70
  8
0
 10
376.0
 20
184.56179851729991
 30
0.0
 11
379.1750015915004
 21
181.38680065119991
 31
0.0
  0
LINE
  5
6A71
  8
0
 10
420.82499840859998
 20
181.38680065119991
 30
0.0
 11
424.0
 21
184.56179851729991
 31
0.0
  0
LINE
  5
6A72
  8
0
 10
376.0
 20
269.38680065119991
 30
0.0
 11
376.0
 21
184.56179851729991
 31
0.0
  0
LINE
  5
6A73
  8
0
 10
424.0
 20
184.56179851729991
 30
0.0
 11
424.0
 21
269.38680065119991
 31
0.0
  0
LINE
  5
6A74
  8
0
 10
379.1750015915004
 20
181.38680065119999
 30
0.0
 11
420.82499840860049
 21
181.38680065119991
 31
0.0
  0
LINE
  5
6A75
  8
0
 10
376.0
 20
184.56179851729991
 30
0.0
 11
424.0
 21
184.56179851729991
 31
0.0
  0
LINE
  5
6A76
  8
3
 10
421.21657142862148
 20
269.38676401617357
 30
0.0
 11
421.21657142862199
 21
181.77837321177989
 31
0.0
  0
LINE
  5
6A77
  8
3
 10
378.78342857147891
 20
269.38676401617357
 30
0.0
 11
378.78342857147891
 21
181.7783732117677
 31
0.0
  0
LINE
  5
6A78
  8
0
 10
726.00000000002683
 20
184.56179851768309
 30
0.0
 11
729.17500159152723
 21
181.386800651583
 31
0.0
  0
LINE
  5
6A79
  8
0
 10
770.82499840862693
 20
181.386800651583
 30
0.0
 11
774.00000000002683
 21
184.56179851768309
 31
0.0
  0
LINE
  5
6A7A
  8
0
 10
726.00000000002683
 20
269.38680065158309
 30
0.0
 11
726.00000000002683
 21
184.56179851768309
 31
0.0
  0
LINE
  5
6A7B
  8
0
 10
774.00000000002683
 20
184.56179851768309
 30
0.0
 11
774.00000000002683
 21
269.38680065158309
 31
0.0
  0
LINE
  5
6A7C
  8
0
 10
729.17500159152723
 20
181.38680065158309
 30
0.0
 11
770.82499840862738
 21
181.386800651583
 31
0.0
  0
LINE
  5
6A7D
  8
0
 10
726.00000000002683
 20
184.561798517683
 30
0.0
 11
774.00000000002683
 21
184.56179851768309
 31
0.0
  0
LINE
  5
6A7E
  8
3
 10
771.21657142864842
 20
269.38676401655681
 30
0.0
 11
771.21657142864888
 21
181.77837321216299
 31
0.0
  0
LINE
  5
6A7F
  8
3
 10
728.78342857150574
 20
269.38676401655681
 30
0.0
 11
728.78342857150574
 21
181.77837321215091
 31
0.0
  0
LINE
  5
6A80
  8
0
 10
1076.0000000001
 20
184.56179851729991
 30
0.0
 11
1079.1750015916
 21
181.38680065119991
 31
0.0
  0
LINE
  5
6A81
  8
0
 10
1120.8249984086999
 20
181.38680065119991
 30
0.0
 11
1124.0000000001
 21
184.56179851729991
 31
0.0
  0
LINE
  5
6A82
  8
0
 10
1076.0000000001
 20
269.38680065119991
 30
0.0
 11
1076.0000000001
 21
184.56179851729991
 31
0.0
  0
LINE
  5
6A83
  8
0
 10
1124.0000000001
 20
184.56179851729991
 30
0.0
 11
1124.0000000001
 21
269.38680065119991
 31
0.0
  0
LINE
  5
6A84
  8
0
 10
1079.1750015916
 20
181.38680065119999
 30
0.0
 11
1120.824998408701
 21
181.38680065119991
 31
0.0
  0
LINE
  5
6A85
  8
0
 10
1076.0000000001
 20
184.56179851729991
 30
0.0
 11
1124.0000000001
 21
184.56179851729991
 31
0.0
  0
LINE
  5
6A86
  8
3
 10
1121.2165714287221
 20
269.38676401617357
 30
0.0
 11
1121.2165714287221
 21
181.77837321177989
 31
0.0
  0
LINE
  5
6A87
  8
3
 10
1078.783428571579
 20
269.38676401617357
 30
0.0
 11
1078.783428571579
 21
181.7783732117677
 31
0.0
  0
CIRCLE
  5
6A88
  8
0
 10
400.00000000005002
 20
853.4929998414998
 30
0.0
 40
27.50000000000011
  0
CIRCLE
  5
6A89
  8
0
 10
400.00000000005002
 20
853.4929998414998
 30
0.0
 40
6.3499999999976353
  0
CIRCLE
  5
6A8A
  8
0
 10
400.00000000005002
 20
853.4929998414998
 30
0.0
 40
3.8099999999872121
  0
LINE
  5
6A8B
  8
0
 10
368.24573519462052
 20
853.4929998414998
 30
0.0
 11
384.12286759733519
 21
825.9929998414998
 31
0.0
  0
LINE
  5
6A8C
  8
0
 10
431.75426480547912
 20
853.49299984150002
 30
0.0
 11
415.8771324027648
 21
880.99299984149968
 31
0.0
  0
LINE
  5
6A8D
  8
0
 10
415.8771324027648
 20
825.9929998414998
 30
0.0
 11
384.12286759733519
 21
825.9929998414998
 31
0.0
  0
LINE
  5
6A8E
  8
0
 10
384.12286759733519
 20
880.99299984150002
 30
0.0
 11
415.8771324027648
 21
880.99299984149968
 31
0.0
  0
LINE
  5
6A8F
  8
0
 10
431.75426480547912
 20
853.49299984150002
 30
0.0
 11
415.8771324027648
 21
825.9929998414998
 31
0.0
  0
LINE
  5
6A90
  8
0
 10
384.12286759733519
 20
880.99299984150002
 30
0.0
 11
368.24573519462052
 21
853.4929998414998
 31
0.0
  0
LINE
  5
6A91
  8
0
 10
749.99999999994986
 20
885.24726464692924
 30
0.0
 11
733.49482913633392
 21
875.7179998058001
 31
0.0
  0
LINE
  5
6A92
  8
0
 10
749.99999999994986
 20
821.73873503607058
 30
0.0
 11
766.50517086373884
 21
831.26799987729987
 31
0.0
  0
LINE
  5
6A93
  8
0
 10
749.99999999994986
 20
821.73873503607058
 30
0.0
 11
733.49482913616112
 21
831.26799987729987
 31
0.0
  0
LINE
  5
6A94
  8
0
 10
766.50517086356604
 20
875.7179998058001
 30
0.0
 11
749.99999999994986
 21
885.24726464692924
 31
0.0
  0
ARC
  5
6A95
  8
0
 10
749.99999999994986
 20
853.49299984150002
 30
0.0
 40
27.50000000000011
 50
53.918668492188651
 51
126.0813315078113
  0
ARC
  5
6A96
  8
0
 10
749.99999999994986
 20
853.49299984150002
 30
0.0
 40
27.50000000000011
 50
233.91866849183401
 51
306.08133150816599
  0
LINE
  5
6A97
  8
0
 10
362.50000000003268
 20
369.68680065094509
 30
0.0
 11
356.69872981091112
 21
365.47070335564513
 31
0.0
  0
LINE
  5
6A98
  8
0
 10
364.37650173903279
 20
339.68680065094497
 30
0.0
 11
364.37650173903279
 21
339.57720159714512
 31
0.0
  0
LINE
  5
6A99
  8
0
 10
435.62349826103298
 20
339.57720159714512
 30
0.0
 11
435.62349826103298
 21
339.68680065094497
 31
0.0
  0
LINE
  5
6A9A
  8
0
 10
356.69872981091112
 20
365.47070335564513
 30
0.0
 11
356.69872981091112
 21
339.6868006509452
 31
0.0
  0
LINE
  5
6A9B
  8
0
 10
443.30127018935491
 20
339.68680065094497
 30
0.0
 11
443.30127018935491
 21
365.47070335564513
 31
0.0
  0
POLYLINE
  5
6A9C
  8
0
 66
     1
 10
0.0
 20
0.0
 30
0.0
 70
   128
  0
VERTEX
  5
6BCC
  8
0
 10
378.34936490552172
 20
365.47070335564513
 30
0.0
  0
VERTEX
  5
6BCD
  8
0
 10
375.1669652760329
 20
366.8706674497451
 30
0.0
  0
VERTEX
  5
6BCE
  8
0
 10
372.33128175143253
 20
367.90063571154508
 30
0.0
  0
VERTEX
  5
6BCF
  8
0
 10
369.3983122706332
 20
368.49098991564517
 30
0.0
  0
VERTEX
  5
6BD0
  8
0
 10
366.451216489133
 20
368.56638234074512
 30
0.0
  0
VERTEX
  5
6BD1
  8
0
 10
361.75560355193278
 20
367.60115962444507
 30
0.0
  0
VERTEX
  5
6BD2
  8
0
 10
356.69872981091112
 20
365.47070335564513
 30
0.0
  0
SEQEND
  5
6BD3
  8
0
  0
POLYLINE
  5
6A9D
  8
0
 66
     1
 10
0.0
 20
0.0
 30
0.0
 70
   128
  0
VERTEX
  5
6BD4
  8
0
 10
443.30127018935491
 20
365.47070335564513
 30
0.0
  0
VERTEX
  5
6BD5
  8
0
 10
440.12423753743269
 20
366.8706674497451
 30
0.0
  0
VERTEX
  5
6BD6
  8
0
 10
437.28855773813302
 20
367.90063571154508
 30
0.0
  0
VERTEX
  5
6BD7
  8
0
 10
434.35558825733273
 20
368.49098991564517
 30
0.0
  0
VERTEX
  5
6BD8
  8
0
 10
431.4084924757326
 20
368.56638234074512
 30
0.0
  0
VERTEX
  5
6BD9
  8
0
 10
426.7128776759327
 20
367.60115962444507
 30
0.0
  0
VERTEX
  5
6BDA
  8
0
 10
421.65063509474379
 20
365.47070335564513
 30
0.0
  0
SEQEND
  5
6BDB
  8
0
  0
ARC
  5
6A9E
  8
0
 10
400.00000000013267
 20
291.02540442226922
 30
0.0
 40
77.529688076760081
 50
73.784191028216881
 51
106.2158089717831
  0
LINE
  5
6A9F
  8
0
 10
437.50000000008868
 20
369.68680065094509
 30
0.0
 11
362.50000000003268
 21
369.68680065094509
 31
0.0
  0
LINE
  5
6AA0
  8
0
 10
443.3012701893544
 20
339.68680065094497
 30
0.0
 11
356.69872981091112
 21
339.6868006509452
 31
0.0
  0
LINE
  5
6AA1
  8
0
 10
378.34936490552172
 20
365.47070335564513
 30
0.0
 11
378.34936490552172
 21
339.68680065094509
 31
0.0
  0
LINE
  5
6AA2
  8
0
 10
421.65063509474379
 20
339.68680065094509
 30
0.0
 11
421.65063509474379
 21
365.47070335564513
 31
0.0
  0
LINE
  5
6AA3
  8
0
 10
437.50000000008811
 20
369.68680065094509
 30
0.0
 11
443.3012701892103
 21
365.47070335564513
 31
0.0
  0
LINE
  5
6AA4
  8
0
 10
714.37650173908469
 20
339.68680065119997
 30
0.0
 11
714.37650173908469
 21
339.57720159740001
 31
0.0
  0
LINE
  5
6AA5
  8
0
 10
785.62349826098443
 20
339.57720159740001
 30
0.0
 11
785.62349826098443
 21
339.68680065119997
 31
0.0
  0
LINE
  5
6AA6
  8
0
 10
750.00000000003092
 20
365.47070335592213
 30
0.0
 11
750.00000000003092
 21
339.68680065119997
 31
0.0
  0
ARC
  5
6AA7
  8
0
 10
768.74999999996862
 20
309.25976390723048
 30
0.0
 40
59.255651322886663
 50
71.553107687751009
 51
108.44689231224901
  0
ARC
  5
6AA8
  8
0
 10
731.25
 20
309.25992663905009
 30
0.0
 40
59.255496952731903
 50
71.553057898136956
 51
108.4469421019453
  0
LINE
  5
6AA9
  8
0
 10
787.49999999990268
 20
369.68680065119997
 30
0.0
 11
712.49999999990257
 21
369.68680065119997
 31
0.0
  0
LINE
  5
6AAA
  8
0
 10
787.49999999990268
 20
339.68680065119997
 30
0.0
 11
712.49999999990257
 21
339.68680065119997
 31
0.0
  0
LINE
  5
6AAB
  8
0
 10
712.49999999990257
 20
339.68680065119997
 30
0.0
 11
712.49999999990257
 21
369.68680065120009
 31
0.0
  0
LINE
  5
6AAC
  8
0
 10
787.49999999990268
 20
369.68680065120009
 30
0.0
 11
787.49999999990268
 21
339.68680065119992
 31
0.0
  0
LINE
  5
6AAD
  8
0
 10
1064.3765017391311
 20
339.68680065120009
 30
0.0
 11
1064.3765017391311
 21
339.57720159740001
 31
0.0
  0
LINE
  5
6AAE
  8
0
 10
1056.6987298110089
 20
365.47070335588762
 30
0.0
 11
1056.6987298110089
 21
339.68680065119997
 31
0.0
  0
LINE
  5
6AAF
  8
0
 10
1062.5000000000859
 20
369.68680065119992
 30
0.0
 11
1056.6987298109641
 21
365.47070335590001
 31
0.0
  0
POLYLINE
  5
6AB0
  8
0
 66
     1
 10
0.0
 20
0.0
 30
0.0
 70
   128
  0
VERTEX
  5
6BDC
  8
0
 10
1077.7750000358001
 20
365.72337124435342
 30
0.0
  0
VERTEX
  5
6BDD
  8
0
 10
1075.1669652760861
 20
366.87066744999998
 30
0.0
  0
VERTEX
  5
6BDE
  8
0
 10
1072.3312817514859
 20
367.90063571180002
 30
0.0
  0
VERTEX
  5
6BDF
  8
0
 10
1069.398312270687
 20
368.4909899159
 30
0.0
  0
VERTEX
  5
6BE0
  8
0
 10
1066.4512164891869
 20
368.56638234100001
 30
0.0
  0
VERTEX
  5
6BE1
  8
0
 10
1061.755603551986
 20
367.60115962470002
 30
0.0
  0
VERTEX
  5
6BE2
  8
0
 10
1056.6987298109641
 20
365.47070335590001
 30
0.0
  0
SEQEND
  5
6BE3
  8
0
  0
LINE
  5
6AB1
  8
0
 10
1077.7750000358001
 20
369.68680065119997
 30
0.0
 11
1062.5000000000859
 21
369.68680065119997
 31
0.0
  0
LINE
  5
6AB2
  8
0
 10
1077.7750000358001
 20
339.68680065119997
 30
0.0
 11
1056.6987298110089
 21
339.68680065119997
 31
0.0
  0
LINE
  5
6AB3
  8
0
 10
1135.623498261067
 20
339.68680065120009
 30
0.0
 11
1135.623498261067
 21
339.57720159740001
 31
0.0
  0
LINE
  5
6AB4
  8
0
 10
1143.3012701891901
 20
365.47070335588762
 30
0.0
 11
1143.3012701891901
 21
339.68680065119997
 31
0.0
  0
LINE
  5
6AB5
  8
0
 10
1137.500000000113
 20
369.68680065119992
 30
0.0
 11
1143.3012701892351
 21
365.47070335590001
 31
0.0
  0
POLYLINE
  5
6AB6
  8
0
 66
     1
 10
0.0
 20
0.0
 30
0.0
 70
   128
  0
VERTEX
  5
6BE4
  8
0
 10
1122.2249999644
 20
365.72337124435342
 30
0.0
  0
VERTEX
  5
6BE5
  8
0
 10
1124.8330347241131
 20
366.87066744999998
 30
0.0
  0
VERTEX
  5
6BE6
  8
0
 10
1127.668718248714
 20
367.90063571180002
 30
0.0
  0
VERTEX
  5
6BE7
  8
0
 10
1130.6016877295131
 20
368.4909899159
 30
0.0
  0
VERTEX
  5
6BE8
  8
0
 10
1133.548783511013
 20
368.56638234100001
 30
0.0
  0
VERTEX
  5
6BE9
  8
0
 10
1138.2443964482129
 20
367.60115962470002
 30
0.0
  0
VERTEX
  5
6BEA
  8
0
 10
1143.3012701892351
 20
365.47070335590001
 30
0.0
  0
SEQEND
  5
6BEB
  8
0
  0
LINE
  5
6AB7
  8
0
 10
1122.2249999644
 20
369.68680065119997
 30
0.0
 11
1137.500000000113
 21
369.68680065119997
 31
0.0
  0
LINE
  5
6AB8
  8
0
 10
1122.2249999644
 20
339.68680065119997
 30
0.0
 11
1143.3012701891901
 21
339.68680065119997
 31
0.0
  0
ARC
  5
6B07
  8
0
 10
400.00000000005002
 20
853.4929998414998
 30
0.0
 40
65.269999999899881
 50
108.4572980273808
 51
251.54270197261869
  0
ARC
  5
6B08
  8
0
 10
400.00000000005002
 20
853.4929998414998
 30
0.0
 40
65.269999999899881
 50
288.45729802738128
 51
71.54270197261917
  0
ARC
  5
6B09
  8
0
 10
750.00000000005014
 20
853.49299984160018
 30
0.0
 40
65.269999999899881
 50
199.9078671517085
 51
340.09213284829139
  0
ARC
  5
6B0A
  8
0
 10
750.00000000005014
 20
853.49299984160018
 30
0.0
 40
65.269999999899881
 50
19.907867151614941
 51
160.09213284838501
  0
LINE
  5
6B12
  8
0
 10
425.21437012302709
 20
326.87719895689997
 30
0.0
 11
425.21437012302709
 21
282.50339984150003
 31
0.0
  0
LINE
  5
6B13
  8
0
 10
374.78562987694761
 20
326.87719895689997
 30
0.0
 11
374.7856298769475
 21
324.91180061541382
 31
0.0
  0
LINE
  5
6B14
  8
0
 10
1125.2143701231259
 20
326.87719895689997
 30
0.0
 11
1125.2143701231259
 21
282.50339984150003
 31
0.0
  0
LINE
  5
6B15
  8
0
 10
1074.7856298770459
 20
326.87719895689997
 30
0.0
 11
1074.7856298770459
 21
282.50339984150003
 31
0.0
  0
ENDSEC
  0
EOF
