  0
SECTION
  2
HEADER
  9
$ACADVER
  1
AC1009
  9
$INSBASE
 10
0.0
 20
0.0
 30
0.0
  9
$EXTMIN
 10
0.0
 20
-2.960436562073669
 30
0.0
  9
$EXTMAX
 10
506.1643540252681
 20
506.73839221228621
 30
0.0
  9
$LIMMIN
 10
0.0
 20
0.0
  9
$LIMMAX
 10
375.0
 20
278.0
  9
$ORTHOMODE
 70
     0
  9
$REGENMODE
 70
     1
  9
$FILLMODE
 70
     1
  9
$QTEXTMODE
 70
     0
  9
$MIRRTEXT
 70
     0
  9
$DRAGMODE
 70
     2
  9
$LTSCALE
 40
10.0
  9
$OSMODE
 70
    55
  9
$ATTMODE
 70
     1
  9
$TEXTSIZE
 40
0.2
  9
$TRACEWID
 40
0.05
  9
$TEXTSTYLE
  7
STANDARD
  9
$CLAYER
  8
0
  9
$CELTYPE
  6
BYLAYER
  9
$CECOLOR
 62
   256
  9
$DIMSCALE
 40
1.0
  9
$DIMASZ
 40
3.0
  9
$DIMEXO
 40
1.0
  9
$DIMDLI
 40
6.0
  9
$DIMRND
 40
0.0
  9
$DIMDLE
 40
0.0
  9
$DIMEXE
 40
1.0
  9
$DIMTP
 40
495.0
  9
$DIMTM
 40
0.0
  9
$DIMTXT
 40
3.0
  9
$DIMCEN
 40
0.0
  9
$DIMTSZ
 40
0.0
  9
$DIMTOL
 70
     0
  9
$DIMLIM
 70
     0
  9
$DIMTIH
 70
     0
  9
$DIMTOH
 70
     0
  9
$DIMSE1
 70
     0
  9
$DIMSE2
 70
     0
  9
$DIMTAD
 70
     1
  9
$DIMZIN
 70
     0
  9
$DIMBLK
  1

  9
$DIMASO
 70
     0
  9
$DIMSHO
 70
     0
  9
$DIMPOST
  1

  9
$DIMAPOST
  1

  9
$DIMALT
 70
     0
  9
$DIMALTD
 70
     2
  9
$DIMALTF
 40
25.399999999999999
  9
$DIMLFAC
 40
1.0
  9
$DIMTOFL
 70
     1
  9
$DIMTVP
 40
0.0
  9
$DIMTIX
 70
     1
  9
$DIMSOXD
 70
     0
  9
$DIMSAH
 70
     0
  9
$DIMBLK1
  1

  9
$DIMBLK2
  1

  9
$DIMSTYLE
  2
STANDARD
  9
$DIMCLRD
 70
     0
  9
$DIMCLRE
 70
     0
  9
$DIMCLRT
 70
     4
  9
$DIMTFAC
 40
1.0
  9
$DIMGAP
 40
1.0
  9
$LUNITS
 70
     2
  9
$LUPREC
 70
     4
  9
$SKETCHINC
 40
0.1
  9
$FILLETRAD
 40
0.0
  9
$AUNITS
 70
     0
  9
$AUPREC
 70
     0
  9
$MENU
  1
C:\R13\WIN\SUPPORT\ACAD-I
  9
$ELEVATION
 40
0.0
  9
$PELEVATION
 40
0.0
  9
$THICKNESS
 40
0.0
  9
$LIMCHECK
 70
     0
  9
$BLIPMODE
 70
     0
  9
$CHAMFERA
 40
0.0
  9
$CHAMFERB
 40
0.0
  9
$SKPOLY
 70
     0
  9
$TDCREATE
 40
2450834.4199027782
  9
$TDUPDATE
 40
2456598.6906861351
  9
$TDINDWG
 40
0.2255680093
  9
$TDUSRTIMER
 40
0.2255680093
  9
$USRTIMER
 70
     1
  9
$ANGBASE
 50
0.0
  9
$ANGDIR
 70
     0
  9
$PDMODE
 70
     0
  9
$PDSIZE
 40
0.0
  9
$PLINEWID
 40
0.0
  9
$COORDS
 70
     1
  9
$SPLFRAME
 70
     0
  9
$SPLINETYPE
 70
     6
  9
$SPLINESEGS
 70
     8
  9
$ATTDIA
 70
     0
  9
$ATTREQ
 70
     1
  9
$HANDLING
 70
     1
  9
$HANDSEED
  5
11E7
  9
$SURFTAB1
 70
     6
  9
$SURFTAB2
 70
     6
  9
$SURFTYPE
 70
     6
  9
$SURFU
 70
     6
  9
$SURFV
 70
     6
  9
$UCSNAME
  2

  9
$UCSORG
 10
0.0
 20
0.0
 30
0.0
  9
$UCSXDIR
 10
1.0
 20
0.0
 30
0.0
  9
$UCSYDIR
 10
0.0
 20
1.0
 30
0.0
  9
$PUCSNAME
  2

  9
$PUCSORG
 10
0.0
 20
0.0
 30
0.0
  9
$PUCSXDIR
 10
1.0
 20
0.0
 30
0.0
  9
$PUCSYDIR
 10
0.0
 20
1.0
 30
0.0
  9
$USERI1
 70
     4
  9
$USERI2
 70
     1
  9
$USERI3
 70
     0
  9
$USERI4
 70
     0
  9
$USERI5
 70
     0
  9
$USERR1
 40
1.0
  9
$USERR2
 40
3.0
  9
$USERR3
 40
3.0
  9
$USERR4
 40
3.0
  9
$USERR5
 40
10.0
  9
$WORLDVIEW
 70
     1
  9
$SHADEDGE
 70
     3
  9
$SHADEDIF
 70
    70
  9
$TILEMODE
 70
     1
  9
$MAXACTVP
 70
    16
  9
$PLIMCHECK
 70
     0
  9
$PEXTMIN
 10
1.0000000000000000E+020
 20
1.0000000000000000E+020
 30
1.0000000000000000E+020
  9
$PEXTMAX
 10
-1.0000000000000000E+020
 20
-1.0000000000000000E+020
 30
-1.0000000000000000E+020
  9
$PLIMMIN
 10
0.0
 20
0.0
  9
$PLIMMAX
 10
12.0
 20
9.0
  9
$UNITMODE
 70
     0
  9
$VISRETAIN
 70
     0
  9
$PLINEGEN
 70
     0
  9
$PSLTSCALE
 70
     0
  0
ENDSEC
  0
SECTION
  2
TABLES
  0
TABLE
  2
VPORT
 70
     1
  0
VPORT
  2
*ACTIVE
 70
     0
 10
0.0
 20
0.0
 11
1.0
 21
1.0
 12
253.08217819113989
 22
329.1976844518818
 13
0.0
 23
0.0
 14
10.0
 24
10.0
 15
10.0
 25
10.0
 16
0.0
 26
0.0
 36
1.0
 17
0.0
 27
0.0
 37
0.0
 40
670.23925236507523
 41
1.7807262569832401
 42
50.0
 43
0.0
 44
0.0
 50
0.0
 51
0.0
 71
     0
 72
   100
 73
     1
 74
     0
 75
     0
 76
     0
 77
     0
 78
     0
  0
ENDTAB
  0
TABLE
  2
LTYPE
 70
     4
  0
LTYPE
  2
CONTINUOUS
 70
     0
  3
Solid Line
 72
    65
 73
     0
 40
0.0
  0
LTYPE
  2
CENTER
 70
     0
  3
____ _ ____ _ ____ _ ____ _ ____ _ ____ _ ____
 72
    65
 73
     4
 40
2.0
 49
1.25
 49
-0.25
 49
0.25
 49
-0.25
  0
LTYPE
  2
HIDDEN
 70
     0
  3
__ __ __ __ __ __ __ __ __ __ __ __ __ __ __ __
 72
    65
 73
     2
 40
0.375
 49
0.25
 49
-0.125
  0
LTYPE
  2
PHANTOM2
 70
     0
  3
___ _ _ ___ _ _ ___ _ _ ___ _ _
 72
    65
 73
     6
 40
1.25
 49
0.625
 49
-0.125
 49
0.125
 49
-0.125
 49
0.125
 49
-0.125
  0
ENDTAB
  0
TABLE
  2
LAYER
 70
     4
  0
LAYER
  2
0
 70
     0
 62
     7
  6
CONTINUOUS
  0
LAYER
  2
1
 70
     0
 62
     1
  6
CENTER
  0
LAYER
  2
3
 70
     0
 62
     3
  6
CONTINUOUS
  0
LAYER
  2
2
 70
     0
 62
     2
  6
HIDDEN
  0
ENDTAB
  0
TABLE
  2
STYLE
 70
     3
  0
STYLE
  2
STANDARD
 70
     0
 40
0.0
 41
1.0
 50
0.0
 71
     0
 42
0.2
  3
SIMPLEX
  4
BIGFONT
  0
STYLE
  2
ROMANS
 70
     0
 40
0.0
 41
1.0
 50
0.0
 71
     0
 42
0.18
  3
romans
  4

  0
STYLE
  2
STANDARD1
 70
     0
 40
0.0
 41
1.0
 50
0.0
 71
     0
 42
3.0
  3
txt
  4

  0
ENDTAB
  0
TABLE
  2
VIEW
 70
     0
  0
ENDTAB
  0
TABLE
  2
UCS
 70
     0
  0
ENDTAB
  0
TABLE
  2
APPID
 70
    40
  0
APPID
  2
ACAD
 70
     0
  0
APPID
  2
GENIUS_GENOBJ_13
 70
     0
  0
APPID
  2
GENIUS_GENODEF_13
 70
     0
  0
APPID
  2
GENIUS_GENOENT_13
 70
     0
  0
APPID
  2
GENIUS_GENOLIS_13
 70
     0
  0
APPID
  2
GENIUS_GENOREF_13
 70
     0
  0
APPID
  2
GENIUS_GENOBJ-N-TIT_13
 70
     0
  0
APPID
  2
GENIUS_GENTITLE_13
 70
     0
  0
APPID
  2
GENIUS_GENZVEED_13
 70
     0
  0
APPID
  2
GENIUS_GENOBJ-N-FIL_13
 70
     0
  0
APPID
  2
GENIUS_GENOBJ-N-CRS_13
 70
     0
  0
APPID
  2
GENIUS_GEFINERT_13
 70
     0
  0
APPID
  2
GENIUS_GENOBJ-F-INER_13
 70
     0
  0
APPID
  2
GENIUS_GENOBJ-N-ZOO_13
 70
     0
  0
APPID
  2
GENIUS_GENZOO_13
 70
     0
  0
APPID
  2
GENIUS_GENOBJ-F-TOL_13
 70
     0
  0
APPID
  2
GENIUS_GENOBJ-N-RSSYM_13
 70
     0
  0
APPID
  2
GENIUS_GENSYMENT_13
 70
     0
  0
APPID
  2
GENIUS_GENBH_13
 70
     0
  0
APPID
  2
GENIUS_GENOBJ-NBEHI-BHF_13
 70
     0
  0
APPID
  2
GENIUS_GENOBJ-NBEHI-BHB_13
 70
     0
  0
APPID
  2
GENIUS_GENOBJ-F-PART_13
 70
     0
  0
APPID
  2
GENIUS_GEFSTDP_13
 70
     0
  0
APPID
  2
GENIUS_GENOBJ-N-LEADER_13
 70
     0
  0
APPID
  2
GENIUS_GENOBJ-N-REV_13
 70
     0
  0
APPID
  2
GENIUS_GENCFG_13
 70
     0
  0
APPID
  2
GENIUS_GENCFG0_13
 70
     0
  0
APPID
  2
GENIUS_GENCFG1_13
 70
     0
  0
APPID
  2
GENIUS_GENCFG2_13
 70
     0
  0
APPID
  2
GENIUS_GENCFG3_13
 70
     0
  0
APPID
  2
GENIUS_GEVCFG0_13
 70
     0
  0
APPID
  2
GENIUS_GENCFG4_13
 70
     0
  0
APPID
  2
GENIUS_GENOBJ-N-REC_13
 70
     0
  0
APPID
  2
GENIUS_GENFIL_13
 70
     0
  0
APPID
  2
GENIUS_GENOBJ-N-CHA_13
 70
     0
  0
APPID
  2
GENIUS_GENREC_13
 70
     0
  0
APPID
  2
MCAD_NO_VIS
 70
     0
  0
APPID
  2
ACAD_TEMP_GRAPHIC
 70
     0
  0
APPID
  2
ACAD_MLEADERVER
 70
     0
  0
APPID
  2
ACAD_NAV_VCDISPLAY
 70
     0
  0
ENDTAB
  0
TABLE
  2
DIMSTYLE
 70
     1
  0
DIMSTYLE
  2
STANDARD
 70
     0
  3

  4

  5

  6

  7

 40
1.0
 41
0.18
 42
0.0625
 43
0.38
 44
0.18
 45
0.0
 46
0.0
 47
0.0
 48
0.0
140
0.18
141
0.09
142
0.0
143
25.399999999999999
144
1.0
145
0.0
146
1.0
147
0.09
 71
     0
 72
     0
 73
     1
 74
     1
 75
     0
 76
     0
 77
     0
 78
     0
170
     0
171
     2
172
     0
173
     0
174
     0
175
     0
176
     0
177
     0
178
     0
  0
ENDTAB
  0
ENDSEC
  0
SECTION
  2
BLOCKS
  0
BLOCK
  8
0
  2
$MODEL_SPACE
 70
     0
 10
0.0
 20
0.0
 30
0.0
  3
$MODEL_SPACE
  1

  0
ENDBLK
  5
109D
  8
0
  0
BLOCK
 67
     1
  8
0
  2
$PAPER_SPACE
 70
     0
 10
0.0
 20
0.0
 30
0.0
  3
$PAPER_SPACE
  1

  0
ENDBLK
  5
109B
 67
     1
  8
0
  0
BLOCK
  8
0
  2
STDGX5
 70
     0
 10
0.0
 20
0.0
 30
0.0
  3
STDGX5
  1

  0
ENDBLK
  5
4F
  8
0
  0
ENDSEC
  0
SECTION
  2
ENTITIES
  0
INSERT
  5
DE
  8
0
  2
STDGX5
 10
0.0
 20
0.0
 30
0.0
  0
INSERT
  5
DF
  8
0
  2
STDGX5
 10
0.0
 20
0.0
 30
0.0
  0
INSERT
  5
15C
  8
0
  2
STDGX5
 10
275.0
 20
0.0
 30
0.0
  0
INSERT
  5
15D
  8
0
  2
STDGX5
 10
275.0
 20
0.0
 30
0.0
  0
INSERT
  5
314
  8
0
  2
STDGX5
 10
0.0
 20
0.0
 30
0.0
  0
INSERT
  5
315
  8
0
  2
STDGX5
 10
0.0
 20
0.0
 30
0.0
  0
INSERT
  5
316
  8
0
  2
STDGX5
 10
275.0
 20
0.0
 30
0.0
  0
INSERT
  5
317
  8
0
  2
STDGX5
 10
275.0
 20
0.0
 30
0.0
  0
INSERT
  5
4EF
  8
0
  2
STDGX5
 10
0.0
 20
0.0
 30
0.0
  0
INSERT
  5
4F0
  8
0
  2
STDGX5
 10
0.0
 20
0.0
 30
0.0
  0
INSERT
  5
4F1
  8
0
  2
STDGX5
 10
275.0
 20
0.0
 30
0.0
  0
INSERT
  5
4F2
  8
0
  2
STDGX5
 10
275.0
 20
0.0
 30
0.0
  0
LINE
  5
FB1
  8
0
 10
229.16563498171419
 20
194.3175322410153
 30
0.0
 11
482.55419177078483
 21
194.3175322410153
 31
0.0
  0
LINE
  5
FB2
  8
0
 10
229.16563498171419
 20
167.09720773204859
 30
0.0
 11
482.55419177078483
 21
167.09720773204859
 31
0.0
  0
ARC
  5
FB3
  8
0
 10
179.84881175370501
 20
362.02310942374942
 30
0.0
 40
150.4959273108299
 50
261.52228665177392
 51
278.47771334822602
  0
ARC
  5
FB4
  8
0
 10
179.84881175370501
 20
79.445003734626425
 30
0.0
 40
150.4959273108299
 50
81.522286651773896
 51
98.477713348226104
  0
LINE
  5
FB5
  8
0
 10
131.5567536836796
 20
211.52718211291969
 30
0.0
 11
241.97519945652201
 21
211.52718211291969
 31
0.0
  0
LINE
  5
FB6
  8
0
 10
131.8129449731756
 20
165.59208390625861
 30
0.0
 11
213.37144198427669
 21
165.59208390625861
 31
0.0
  0
LINE
  5
FB7
  8
0
 10
131.8129449731756
 20
195.82265606680531
 30
0.0
 11
213.37144198427669
 21
195.82265606680531
 31
0.0
  0
LINE
  5
FB8
  8
0
 10
139.01704403380779
 20
138.64076025126309
 30
0.0
 11
220.68057947360219
 21
138.64076025126309
 31
0.0
  0
LINE
  5
FB9
  8
0
 10
131.5567536836796
 20
149.8875578601442
 30
0.0
 11
241.97519945652201
 21
149.8875578601442
 31
0.0
  0
LINE
  5
FBA
  8
0
 10
131.5567536836796
 20
164.4904613614257
 30
0.0
 11
229.16563498171419
 21
164.49046136142491
 31
0.0
  0
LINE
  5
FBB
  8
0
 10
131.5567536836796
 20
196.9242786116389
 30
0.0
 11
229.16563498171419
 21
196.9242786116389
 31
0.0
  0
LINE
  5
FBC
  8
0
 10
141.61226179640491
 20
229.94093104545601
 30
0.0
 11
218.0853617110082
 21
229.94093104545601
 31
0.0
  0
LINE
  5
FBD
  8
0
 10
139.01704403380779
 20
147.60745538362841
 30
0.0
 11
220.68057947360219
 21
147.60745538362841
 31
0.0
  0
ARC
  5
FBE
  8
0
 10
146.26213370075789
 20
149.2086509429794
 30
0.0
 40
1.601195559350981
 50
270.0
 51
0.0
1001
GENIUS_GENODEF_13
1002
{
1000
HIER
1070
     0
1002
}
1002
{
1000
MANEDIT
1070
     0
1002
}
1002
{
1000
NOSEL
1070
     0
1002
}
1002
{
1000
BEHIND
1070
     0
1002
}
1002
{
1000
REACTOR
1002
}
1001
GENIUS_GENOBJ-N-FIL_13
1002
{
1000
OWNER
1000
GEN
1002
}
  0
LINE
  5
FBF
  8
0
 10
138.21772721057951
 20
146.80813856040081
 30
0.0
 11
139.01704403380779
 21
147.60745538362841
 31
0.0
  0
LINE
  5
FC0
  8
0
 10
138.21772721057951
 20
139.4400770744914
 30
0.0
 11
139.01704403380779
 21
138.64076025126309
 31
0.0
  0
LINE
  5
FC1
  8
0
 10
138.21772721057951
 20
146.80813856040081
 30
0.0
 11
138.21772721057951
 21
139.4400770744914
 31
0.0
  0
LINE
  5
FC2
  8
0
 10
131.8129449731756
 20
165.59208390625861
 30
0.0
 11
131.8129449731756
 21
195.82265606680531
 31
0.0
  0
LINE
  5
FC3
  8
0
 10
131.5567536836796
 20
164.49046136142491
 30
0.0
 11
131.5567536836796
 21
149.8875578601442
 31
0.0
  0
LINE
  5
FC4
  8
0
 10
147.86332926010891
 20
149.8875578601442
 30
0.0
 11
147.86332926010891
 21
149.2086509429794
 31
0.0
  0
LINE
  5
FC5
  8
0
 10
147.86332926010891
 20
165.59208390625861
 30
0.0
 11
147.86332926010891
 21
164.4904613614257
 31
0.0
  0
LINE
  5
FC6
  8
0
 10
157.661995260509
 20
228.2965046039283
 30
0.0
 11
157.661995260509
 21
213.17160855444749
 31
0.0
  0
LINE
  5
FC7
  8
0
 10
135.47517876731291
 20
228.2965046039283
 30
0.0
 11
135.47517876731291
 21
213.17160855444749
 31
0.0
  0
LINE
  5
FC8
  8
0
 10
131.5567536836796
 20
211.52718211291969
 30
0.0
 11
131.5567536836796
 21
196.9242786116389
 31
0.0
  0
LINE
  5
FC9
  8
0
 10
135.47517876731291
 20
213.17160855444749
 30
0.0
 11
141.61226179640491
 21
211.52718211291969
 31
0.0
  0
LINE
  5
FCA
  8
0
 10
147.86332926010891
 20
196.9242786116389
 30
0.0
 11
147.86332926010891
 21
195.82265606680531
 31
0.0
  0
ARC
  5
FCB
  8
0
 10
146.61001382919369
 20
249.48887767035359
 30
0.0
 40
37.961695557433472
 50
270.0
 51
286.92592407640819
  0
LINE
  5
FCC
  8
0
 10
135.47517876731291
 20
228.2965046039283
 30
0.0
 11
141.61226179640491
 21
229.94093104545601
 31
0.0
  0
ARC
  5
FCD
  8
0
 10
146.61001382919369
 20
191.97923548802291
 30
0.0
 40
37.961695557433472
 50
73.074075923591792
 51
90.0
  0
LINE
  5
FCE
  8
1
 10
179.84881175370501
 20
239.94093104545601
 30
0.0
 11
179.84881175370501
 21
67.427694495498599
 31
0.0
  0
ARC
  5
FCF
  8
0
 10
213.43548980665221
 20
149.2086509429794
 30
0.0
 40
1.601195559350981
 50
180.0
 51
270.0
1001
GENIUS_GENODEF_13
1002
{
1000
HIER
1070
     0
1002
}
1002
{
1000
MANEDIT
1070
     0
1002
}
1002
{
1000
NOSEL
1070
     0
1002
}
1002
{
1000
BEHIND
1070
     0
1002
}
1002
{
1000
REACTOR
1002
}
1001
GENIUS_GENOBJ-N-FIL_13
1002
{
1000
OWNER
1000
GEN
1002
}
  0
LINE
  5
FD0
  8
3
 10
192.6109808399564
 20
78.392254700451986
 30
0.0
 11
192.6109808399564
 21
138.64076025126309
 31
0.0
  0
LINE
  5
FD1
  8
3
 10
167.0866426674537
 20
78.392254700451986
 30
0.0
 11
167.0866426674537
 21
138.64076025126309
 31
0.0
  0
LINE
  5
FD2
  8
0
 10
194.8488117537056
 20
80.630085614200524
 30
0.0
 11
194.8488117537056
 21
138.64076025126309
 31
0.0
  0
LINE
  5
FD3
  8
0
 10
164.84881175370441
 20
80.630085614200524
 30
0.0
 11
164.84881175370441
 21
138.64076025126309
 31
0.0
  0
LINE
  5
FD4
  8
0
 10
164.84881175370441
 20
80.630085614200524
 30
0.0
 11
194.8488117537056
 21
80.630085614200524
 31
0.0
  0
LINE
  5
FD5
  8
0
 10
191.64642063500369
 20
77.427694495498599
 30
0.0
 11
194.8488117537056
 21
80.630085614200524
 31
0.0
  0
LINE
  5
FD6
  8
0
 10
168.05120287240641
 20
77.427694495498599
 30
0.0
 11
191.64642063500369
 21
77.427694495498599
 31
0.0
  0
LINE
  5
FD7
  8
0
 10
164.84881175370441
 20
80.630085614200524
 30
0.0
 11
168.05120287240641
 21
77.427694495498599
 31
0.0
  0
LINE
  5
FD8
  8
0
 10
220.68057947360219
 20
138.64076025126309
 30
0.0
 11
221.47989629683059
 21
139.4400770744914
 31
0.0
  0
LINE
  5
FD9
  8
0
 10
220.68057947360219
 20
147.60745538362841
 30
0.0
 11
221.47989629683059
 21
146.80813856040081
 31
0.0
  0
LINE
  5
FDA
  8
0
 10
221.47989629683059
 20
146.80813856040081
 30
0.0
 11
221.47989629683059
 21
139.4400770744914
 31
0.0
  0
ARC
  5
FDB
  8
0
 10
229.16563498171419
 20
180.707369986532
 30
0.0
 40
13.61016225448334
 50
90.0
 51
270.0
  0
LINE
  5
FDC
  8
0
 10
213.37144198427669
 20
195.82265606680531
 30
0.0
 11
213.37144198427669
 21
165.59208390625861
 31
0.0
  0
LINE
  5
FDD
  8
0
 10
211.83429424730119
 20
149.8875578601442
 30
0.0
 11
211.83429424730119
 21
149.2086509429794
 31
0.0
  0
LINE
  5
FDE
  8
0
 10
211.83429424730119
 20
165.59208390625861
 30
0.0
 11
211.83429424730119
 21
164.4904613614257
 31
0.0
  0
LINE
  5
FDF
  8
2
 10
168.7554035071056
 20
217.1313665706482
 30
0.0
 11
190.9422200003045
 21
217.1313665706482
 31
0.0
  0
LINE
  5
FE0
  8
2
 10
174.30210763040529
 20
229.94093104545601
 30
0.0
 11
174.30210763040529
 21
217.1313665706482
 31
0.0
  0
LINE
  5
FE1
  8
2
 10
168.7554035071056
 20
229.94093104545601
 30
0.0
 11
168.7554035071056
 21
217.1313665706482
 31
0.0
  0
LINE
  5
FE2
  8
2
 10
185.39551587700481
 20
229.94093104545601
 30
0.0
 11
185.39551587700481
 21
217.1313665706482
 31
0.0
  0
LINE
  5
FE3
  8
2
 10
190.9422200003045
 20
229.94093104545601
 30
0.0
 11
190.9422200003045
 21
217.1313665706482
 31
0.0
  0
LINE
  5
FE4
  8
0
 10
202.0356282469011
 20
228.2965046039283
 30
0.0
 11
202.0356282469011
 21
213.17160855444749
 31
0.0
  0
LINE
  5
FE5
  8
0
 10
224.22244474009719
 20
228.2965046039283
 30
0.0
 11
224.22244474009719
 21
213.17160855444749
 31
0.0
  0
ARC
  5
FE6
  8
0
 10
213.08760967821931
 20
249.48887767035291
 30
0.0
 40
37.961695557433472
 50
253.0740759235911
 51
269.99999999999932
  0
LINE
  5
FE7
  8
0
 10
211.83429424730119
 20
196.9242786116389
 30
0.0
 11
211.83429424730119
 21
195.82265606680531
 31
0.0
  0
LINE
  5
FE8
  8
0
 10
224.22244474009719
 20
213.17160855444749
 30
0.0
 11
218.08536171100519
 21
211.52718211291969
 31
0.0
  0
ARC
  5
FE9
  8
0
 10
213.08760967821931
 20
191.97923548802291
 30
0.0
 40
37.961695557433472
 50
90.000000000000668
 51
106.9259240764089
  0
LINE
  5
FEA
  8
0
 10
224.22244474009719
 20
228.2965046039283
 30
0.0
 11
218.0853617110082
 21
229.94093104545601
 31
0.0
  0
ARC
  5
FEB
  8
2
 10
229.16563498171419
 20
180.707369986532
 30
0.0
 40
16.216908625106761
 50
302.93820326958132
 51
57.061796730418962
  0
ARC
  5
FEC
  8
2
 10
229.16563498171419
 20
180.707369986532
 30
0.0
 40
13.61016225448334
 50
270.0
 51
90.0
  0
LINE
  5
FED
  8
2
 10
259.65239843175817
 20
193.849983137685
 30
0.0
 11
259.65239843175817
 21
167.56475683537889
 31
0.0
  0
LINE
  5
FEE
  8
0
 10
259.65239843175817
 20
167.56475683537889
 30
0.0
 11
241.97519945652201
 21
149.8875578601442
 31
0.0
  0
ARC
  5
FEF
  8
0
 10
229.16563498171419
 20
180.707369986532
 30
0.0
 40
16.216908625106761
 50
270.0
 51
302.93820326958138
  0
LINE
  5
FF0
  8
0
 10
241.97519945652201
 20
211.52718211291969
 30
0.0
 11
259.65239843175817
 21
193.849983137685
 31
0.0
  0
ARC
  5
FF1
  8
0
 10
229.16563498171419
 20
180.707369986532
 30
0.0
 40
16.216908625106761
 50
57.061796730418841
 51
90.0
  0
ARC
  5
FF2
  8
0
 10
482.55419177078483
 20
180.707369986532
 30
0.0
 40
13.61016225448334
 50
270.0
 51
90.0
  0
ARC
  5
FF3
  8
2
 10
471.34582285532798
 20
180.707369986532
 30
0.0
 40
13.61016225448334
 50
90.0
 51
270.0
  0
ARC
  5
FF4
  8
0
 10
418.2156685524709
 20
395.06247419349887
 30
0.0
 40
32.023911187019642
 50
270.0
 51
326.38762540153391
  0
ARC
  5
FF5
  8
0
 10
418.2156685524709
 20
444.69953653337927
 30
0.0
 40
32.023911187019642
 50
33.61237459846609
 51
90.0
  0
LINE
  5
FF6
  8
0
 10
241.17460167684649
 20
503.94377222936561
 30
0.0
 11
435.87532059954822
 21
503.94377222936561
 31
0.0
  0
LINE
  5
FF7
  8
0
 10
241.17460167684649
 20
335.8182384975126
 30
0.0
 11
435.87532059954822
 21
335.8182384975126
 31
0.0
  0
LINE
  5
FF8
  8
0
 10
202.0356282469011
 20
458.30969878786271
 30
0.0
 11
157.661995260509
 21
458.30969878786271
 31
0.0
  0
LINE
  5
FF9
  8
0
 10
157.661995260509
 20
381.45231193901549
 30
0.0
 11
202.0356282469011
 21
381.45231193901549
 31
0.0
  0
CIRCLE
  5
FFA
  8
0
 10
179.84881175370501
 20
419.8810053634391
 30
0.0
 40
38.236549957301449
  0
LINE
  5
FFB
  8
0
 10
134.7591448023816
 20
371.5889472934137
 30
0.0
 11
259.65239843175817
 21
371.5889472934137
 31
0.0
  0
LINE
  5
FFC
  8
0
 10
134.7591448023816
 20
468.17306343346451
 30
0.0
 11
259.65239843175817
 21
468.17306343346451
 31
0.0
  0
LINE
  5
FFD
  8
0
 10
157.661995260509
 20
458.30969878786271
 30
0.0
 11
135.47517876731291
 21
419.8810053634391
 31
0.0
  0
LINE
  5
FFE
  8
0
 10
131.5567536836796
 20
464.97067231476251
 30
0.0
 11
131.5567536836796
 21
374.79133841211569
 31
0.0
  0
LINE
  5
FFF
  8
0
 10
135.47517876731291
 20
419.8810053634391
 30
0.0
 11
157.661995260509
 21
381.45231193901549
 31
0.0
  0
LINE
  5
1000
  8
0
 10
131.5567536836796
 20
374.79133841211569
 30
0.0
 11
134.7591448023816
 21
371.5889472934137
 31
0.0
  0
LINE
  5
1001
  8
0
 10
131.5567536836796
 20
464.97067231476251
 30
0.0
 11
134.7591448023816
 21
468.17306343346451
 31
0.0
  0
LINE
  5
1002
  8
0
 10
224.22244474009719
 20
419.8810053634391
 30
0.0
 11
202.0356282469011
 21
458.30969878786271
 31
0.0
  0
LINE
  5
1003
  8
0
 10
241.97519945652201
 20
371.5889472934137
 30
0.0
 11
241.97519945652201
 21
468.17306343346451
 31
0.0
  0
LINE
  5
1004
  8
0
 10
259.65239843175817
 20
468.17306343346451
 30
0.0
 11
259.65239843175817
 21
371.5889472934137
 31
0.0
  0
LINE
  5
1005
  8
0
 10
252.38297059230339
 20
363.03856300647931
 30
0.0
 11
418.2156685524709
 21
363.03856300647931
 31
0.0
  0
LINE
  5
1006
  8
0
 10
215.55547272723081
 20
371.5889472934137
 30
0.0
 11
215.55547272723081
 21
361.43736744712828
 31
0.0
  0
ARC
  5
1007
  8
0
 10
252.38297059230339
 20
372.64573636258518
 30
0.0
 40
9.6071733561058892
 50
186.3153155693567
 51
270.0
  0
ARC
  5
1008
  8
0
 10
241.17460167684649
 20
361.43736744712828
 30
0.0
 40
25.61912894961571
 50
180.0
 51
270.0
  0
LINE
  5
1009
  8
0
 10
202.0356282469011
 20
381.45231193901549
 30
0.0
 11
224.22244474009719
 21
419.8810053634391
 31
0.0
  0
CIRCLE
  5
100B
  8
0
 10
179.84881175370501
 20
419.8810053634391
 30
0.0
 40
11.20836891545687
  0
ARC
  5
100C
  8
3
 10
178.5023497670046
 20
387.84331202113827
 30
0.0
 40
3.1527540563620828
 50
90.0
 51
270.0
  0
ARC
  5
100D
  8
3
 10
178.5023497670046
 20
387.84331202113827
 30
0.0
 40
2.1920367207514939
 50
90.0
 51
270.0
  0
ARC
  5
100E
  8
3
 10
183.84714054411779
 20
387.84331202113827
 30
0.0
 40
3.1527540563620828
 50
90.0
 51
270.0
  0
ARC
  5
100F
  8
3
 10
183.84714054411779
 20
387.84331202113827
 30
0.0
 40
2.1920367207514939
 50
192.6584119890106
 51
270.0
  0
LINE
  5
1010
  8
3
 10
183.84714054411779
 20
385.65127530038728
 30
0.0
 11
183.84714054411779
 21
384.69055796477687
 31
0.0
  0
LINE
  5
1011
  8
3
 10
178.5023497670046
 20
385.65127530038728
 30
0.0
 11
178.5023497670046
 21
384.69055796477687
 31
0.0
  0
TEXT
  5
1012
  8
3
 10
164.9165194516433
 20
393.78282082688941
 30
0.0
 40
4.0990606319385128
  1
350 N m
  7
ROMANS
 72
     1
 11
179.84881175370501
 21
393.78282082688941
 31
0.0
  0
TEXT
  5
1013
  8
3
 10
168.03961326645361
 20
400.36380701724539
 30
0.0
 40
4.0990606319385128
  1
TORQUE
  7
ROMANS
 72
     1
 11
179.84881175370501
 21
400.36380701724539
 31
0.0
  0
CIRCLE
  5
1014
  8
3
 10
186.94002843031419
 20
395.65378146422552
 30
0.0
 40
0.9727637199198493
  0
LINE
  5
1015
  8
3
 10
183.84714054411779
 20
390.03534874189012
 30
0.0
 11
183.84714054411779
 21
390.99606607750047
 31
0.0
  0
LINE
  5
1016
  8
3
 10
183.36678187631369
 20
387.36295335333352
 30
0.0
 11
183.36678187631369
 21
388.32367068894388
 31
0.0
  0
LINE
  5
1017
  8
3
 10
181.7083837708056
 20
387.36295335333352
 30
0.0
 11
183.36678187631369
 21
387.36295335333352
 31
0.0
  0
LINE
  5
1018
  8
3
 10
181.7083837708056
 20
388.32367068894388
 30
0.0
 11
183.36678187631369
 21
388.32367068894388
 31
0.0
  0
LINE
  5
1019
  8
3
 10
178.5023497670046
 20
390.03534874189012
 30
0.0
 11
178.5023497670046
 21
390.99606607750047
 31
0.0
  0
ARC
  5
101A
  8
3
 10
183.84714054411779
 20
387.84331202113827
 30
0.0
 40
2.1920367207514939
 50
90.0
 51
167.34158801098931
  0
TEXT
  5
101B
  8
3
 10
162.57419909053559
 20
439.32597944948452
 30
0.0
 40
4.0990606319385128
  1
M30 X 3.5
  7
ROMANS
 72
     1
 11
179.84881175370501
 21
439.32597944948452
 31
0.0
  0
LINE
  5
101D
  8
0
 10
185.39551587700481
 20
429.48817871954498
 30
0.0
 11
174.30210763040529
 21
429.48817871954498
 31
0.0
  0
LINE
  5
101E
  8
0
 10
174.30210763040529
 20
410.27383200733323
 30
0.0
 11
185.39551587700481
 21
410.27383200733323
 31
0.0
  0
LINE
  5
1020
  8
0
 10
174.30210763040529
 20
429.48817871954498
 30
0.0
 11
168.7554035071056
 21
419.8810053634391
 31
0.0
  0
LINE
  5
1021
  8
0
 10
168.7554035071056
 20
419.8810053634391
 30
0.0
 11
174.30210763040529
 21
410.27383200733323
 31
0.0
  0
LINE
  5
1023
  8
0
 10
190.9422200003045
 20
419.8810053634391
 30
0.0
 11
185.39551587700481
 21
429.48817871954498
 31
0.0
  0
LINE
  5
1025
  8
0
 10
185.39551587700481
 20
410.27383200733323
 30
0.0
 11
190.9422200003045
 21
419.8810053634391
 31
0.0
  0
TEXT
  5
1027
  8
3
 10
166.18527631391001
 20
446.8284223934092
 30
0.0
 40
4.0990606319385128
  1
4850 Kg
  7
ROMANS
 72
     1
 11
179.84881175370501
 21
446.8284223934092
 31
0.0
  0
LINE
  5
1028
  8
0
 10
252.38297059230339
 20
476.72344772039901
 30
0.0
 11
418.2156685524709
 21
476.72344772039901
 31
0.0
  0
ARC
  5
1029
  8
0
 10
241.17460167684649
 20
478.32464327974998
 30
0.0
 40
25.61912894961571
 50
90.0
 51
180.0
  0
LINE
  5
102A
  8
0
 10
215.55547272723081
 20
478.32464327974998
 30
0.0
 11
215.55547272723081
 21
468.17306343346451
 31
0.0
  0
ARC
  5
102B
  8
0
 10
252.38297059230339
 20
467.11627436429308
 30
0.0
 40
9.6071733561058892
 50
90.0
 51
173.68468443064239
  0
TEXT
  5
102C
  8
3
 10
459.37008911203401
 20
457.602355002438
 30
0.0
 40
12.80956447480785
  1
J
 50
291.69897757100989
  7
ROMANS
 72
     1
 11
460.94878329253959
 21
453.63506563683001
 31
0.0
  0
ARC
  5
102D
  8
0
 10
380.8782737519976
 20
419.8810053634391
 30
0.0
 40
115.2860802732707
 50
329.16950256821212
 51
30.830497431787879
  0
ARC
  5
102E
  8
0
 10
380.8782737519976
 20
419.8810053634391
 30
0.0
 40
76.857386848847128
 50
326.38762540153391
 51
33.61237459846609
  0
ARC
  5
102F
  8
0
 10
435.87532059954822
 20
387.05649639674402
 30
0.0
 40
51.238257899231421
 50
270.0
 51
329.16950256821201
  0
TEXT
  5
1030
  8
3
 10
467.53994986874068
 20
415.55341673748018
 30
0.0
 40
12.80956447480785
  1
E
 50
263.27660991578853
  7
ROMANS
 72
     1
 11
466.79010247308491
 21
409.19268058576063
 31
0.0
  0
TEXT
  5
1031
  8
3
 10
463.57101211473957
 20
392.95873064797308
 30
0.0
 40
12.80956447480785
  1
S
 50
249.0654260881779
  7
ROMANS
 72
     1
 11
461.39154609039241
 21
387.26159121684151
 31
0.0
  0
TEXT
  5
1032
  8
3
 10
466.37544936651881
 20
404.5748232948614
 30
0.0
 40
12.80956447480785
  1
N
 50
256.17101800198321
  7
ROMANS
 72
     1
 11
464.77164844629903
 21
398.05954424284539
 31
0.0
  0
TEXT
  5
1033
  8
3
 10
465.76505738981888
 20
438.4305052367273
 30
0.0
 40
12.80956447480785
  1
R
 50
277.4877937433991
  7
ROMANS
 72
     1
 11
466.63944112607192
 21
431.7779499683275
 31
0.0
  0
TEXT
  5
1034
  8
3
 10
462.8589061182451
 20
449.08132023768928
 30
0.0
 40
12.80956447480785
  1
E
 50
284.59338565720458
  7
ROMANS
 72
     1
 11
464.47263994973918
 21
442.88316739755561
 31
0.0
  0
TEXT
  5
1035
  8
3
 10
467.37318025399748
 20
426.8946321144889
 30
0.0
 40
12.80956447480785
  1
G
 50
270.3822018295939
  7
ROMANS
 72
     1
 11
467.41590419205289
 21
420.48999237648002
 31
0.0
  0
ARC
  5
1036
  8
0
 10
435.87532059954822
 20
452.70551433013429
 30
0.0
 40
51.238257899231421
 50
30.830497431787879
 51
90.0
  0
LINE
  5
103D
  8
1
 10
506.16435402526798
 20
180.707369986532
 30
0.0
 11
205.55547272723081
 21
180.707369986532
 31
0.0
  0
LINE
  5
103E
  8
1
 10
229.16563498171419
 20
204.3175322410153
 30
0.0
 11
229.16563498171419
 21
157.09720773204859
 31
0.0
  0
LINE
  5
1040
  8
1
 10
506.1643540252681
 20
419.8810053634391
 30
0.0
 11
121.5567536836796
 21
419.8810053634391
 31
0.0
  0
LINE
  5
1041
  8
1
 10
380.8782737519976
 20
506.73839221228621
 30
0.0
 11
380.8782737519976
 21
333.0236185145921
 31
0.0
  0
TEXT
  5
1150
  8
0
 62
     3
 10
0.0
 20
0.0
 30
0.0
 40
10.0
  1
HR30SP
  7
STANDARD1
  0
ENDSEC
  0
EOF
