  0
SECTION
  2
HEADER
  9
$ACADVER
  1
AC1009
  9
$INSBASE
 10
0.0
 20
0.0
 30
0.0
  9
$EXTMIN
 10
0.0
 20
-2.960436562073669
 30
0.0
  9
$EXTMAX
 10
622.99344921791965
 20
514.41010146384633
 30
0.0
  9
$LIMMIN
 10
0.0
 20
0.0
  9
$LIMMAX
 10
750.0
 20
540.0
  9
$ORTHOMODE
 70
     1
  9
$REGENMODE
 70
     1
  9
$FILLMODE
 70
     1
  9
$QTEXTMODE
 70
     0
  9
$MIRRTEXT
 70
     0
  9
$DRAGMODE
 70
     2
  9
$LTSCALE
 40
20.0
  9
$OSMODE
 70
    55
  9
$ATTMODE
 70
     1
  9
$TEXTSIZE
 40
0.2
  9
$TRACEWID
 40
0.05
  9
$TEXTSTYLE
  7
STANDARD
  9
$CLAYER
  8
0
  9
$CELTYPE
  6
BYLAYER
  9
$CECOLOR
 62
   256
  9
$DIMSCALE
 40
2.0
  9
$DIMASZ
 40
3.0
  9
$DIMEXO
 40
2.0
  9
$DIMDLI
 40
0.38
  9
$DIMRND
 40
0.0
  9
$DIMDLE
 40
0.0
  9
$DIMEXE
 40
2.0
  9
$DIMTP
 40
0.0
  9
$DIMTM
 40
0.0
  9
$DIMTXT
 40
3.2000000000000002
  9
$DIMCEN
 40
0.0
  9
$DIMTSZ
 40
0.0
  9
$DIMTOL
 70
     0
  9
$DIMLIM
 70
     0
  9
$DIMTIH
 70
     0
  9
$DIMTOH
 70
     0
  9
$DIMSE1
 70
     0
  9
$DIMSE2
 70
     0
  9
$DIMTAD
 70
     1
  9
$DIMZIN
 70
     0
  9
$DIMBLK
  1

  9
$DIMASO
 70
     0
  9
$DIMSHO
 70
     0
  9
$DIMPOST
  1

  9
$DIMAPOST
  1

  9
$DIMALT
 70
     0
  9
$DIMALTD
 70
     2
  9
$DIMALTF
 40
25.399999999999999
  9
$DIMLFAC
 40
1.0
  9
$DIMTOFL
 70
     1
  9
$DIMTVP
 40
1.6000000000000001
  9
$DIMTIX
 70
     1
  9
$DIMSOXD
 70
     0
  9
$DIMSAH
 70
     0
  9
$DIMBLK1
  1

  9
$DIMBLK2
  1

  9
$DIMSTYLE
  2
STANDARD
  9
$DIMCLRD
 70
     0
  9
$DIMCLRE
 70
     0
  9
$DIMCLRT
 70
     0
  9
$DIMTFAC
 40
1.0
  9
$DIMGAP
 40
0.09
  9
$LUNITS
 70
     2
  9
$LUPREC
 70
     4
  9
$SKETCHINC
 40
0.1
  9
$FILLETRAD
 40
0.0
  9
$AUNITS
 70
     0
  9
$AUPREC
 70
     4
  9
$MENU
  1
E:\r13\win\SUPPORT\ACAD
  9
$ELEVATION
 40
0.0
  9
$PELEVATION
 40
0.0
  9
$THICKNESS
 40
0.0
  9
$LIMCHECK
 70
     0
  9
$BLIPMODE
 70
     0
  9
$CHAMFERA
 40
0.0
  9
$CHAMFERB
 40
0.0
  9
$SKPOLY
 70
     0
  9
$TDCREATE
 40
2449840.6097685192
  9
$TDUPDATE
 40
2456598.6893750578
  9
$TDINDWG
 40
0.0035193866
  9
$TDUSRTIMER
 40
0.0035193866
  9
$USRTIMER
 70
     1
  9
$ANGBASE
 50
0.0
  9
$ANGDIR
 70
     0
  9
$PDMODE
 70
     0
  9
$PDSIZE
 40
0.0
  9
$PLINEWID
 40
0.0
  9
$COORDS
 70
     1
  9
$SPLFRAME
 70
     0
  9
$SPLINETYPE
 70
     6
  9
$SPLINESEGS
 70
     8
  9
$ATTDIA
 70
     0
  9
$ATTREQ
 70
     1
  9
$HANDLING
 70
     1
  9
$HANDSEED
  5
32C
  9
$SURFTAB1
 70
     6
  9
$SURFTAB2
 70
     6
  9
$SURFTYPE
 70
     6
  9
$SURFU
 70
     6
  9
$SURFV
 70
     6
  9
$UCSNAME
  2

  9
$UCSORG
 10
0.0
 20
0.0
 30
0.0
  9
$UCSXDIR
 10
1.0
 20
0.0
 30
0.0
  9
$UCSYDIR
 10
0.0
 20
1.0
 30
0.0
  9
$PUCSNAME
  2

  9
$PUCSORG
 10
0.0
 20
0.0
 30
0.0
  9
$PUCSXDIR
 10
1.0
 20
0.0
 30
0.0
  9
$PUCSYDIR
 10
0.0
 20
1.0
 30
0.0
  9
$USERI1
 70
     0
  9
$USERI2
 70
     1
  9
$USERI3
 70
     0
  9
$USERI4
 70
     0
  9
$USERI5
 70
     0
  9
$USERR1
 40
0.0
  9
$USERR2
 40
0.0
  9
$USERR3
 40
0.0
  9
$USERR4
 40
0.0
  9
$USERR5
 40
0.0
  9
$WORLDVIEW
 70
     1
  9
$SHADEDGE
 70
     3
  9
$SHADEDIF
 70
    70
  9
$TILEMODE
 70
     1
  9
$MAXACTVP
 70
    16
  9
$PLIMCHECK
 70
     0
  9
$PEXTMIN
 10
1.0000000000000000E+020
 20
1.0000000000000000E+020
 30
1.0000000000000000E+020
  9
$PEXTMAX
 10
-1.0000000000000000E+020
 20
-1.0000000000000000E+020
 30
-1.0000000000000000E+020
  9
$PLIMMIN
 10
0.0
 20
0.0
  9
$PLIMMAX
 10
12.0
 20
9.0
  9
$UNITMODE
 70
     0
  9
$VISRETAIN
 70
     0
  9
$PLINEGEN
 70
     0
  9
$PSLTSCALE
 70
     0
  0
ENDSEC
  0
SECTION
  2
TABLES
  0
TABLE
  2
VPORT
 70
     1
  0
VPORT
  2
*ACTIVE
 70
     0
 10
0.0
 20
0.0
 11
1.0
 21
1.0
 12
374.98855678130462
 22
350.86677766270412
 13
0.0
 23
0.0
 14
20.0
 24
20.0
 15
20.0
 25
20.0
 16
0.0
 26
0.0
 36
1.0
 17
0.0
 27
0.0
 37
0.0
 40
713.9403104474975
 41
1.7807262569832401
 42
50.0
 43
0.0
 44
0.0
 50
0.0
 51
0.0
 71
     0
 72
   500
 73
     1
 74
     0
 75
     0
 76
     0
 77
     0
 78
     2
  0
ENDTAB
  0
TABLE
  2
LTYPE
 70
     4
  0
LTYPE
  2
CONTINUOUS
 70
     0
  3
Solid Line
 72
    65
 73
     0
 40
0.0
  0
LTYPE
  2
CENTER
 70
     0
  3
____ _ ____ _ ____ _ ____ _ ____ _ ____ _ ____
 72
    65
 73
     4
 40
2.0
 49
1.25
 49
-0.25
 49
0.25
 49
-0.25
  0
LTYPE
  2
HIDDEN
 70
     0
  3
_ _ _ _ _ _ _ _ _ _ _ _ _ _ _ _ _ _ _ _ _ _ _
 72
    65
 73
     2
 40
0.375
 49
0.25
 49
-0.125
  0
LTYPE
  2
PHANTOM2
 70
     0
  3
___ _ _ ___ _ _ ___ _ _ ___ _ _
 72
    65
 73
     6
 40
1.25
 49
0.625
 49
-0.125
 49
0.125
 49
-0.125
 49
0.125
 49
-0.125
  0
ENDTAB
  0
TABLE
  2
LAYER
 70
     4
  0
LAYER
  2
0
 70
     0
 62
     7
  6
CONTINUOUS
  0
LAYER
  2
1
 70
     0
 62
     1
  6
CENTER
  0
LAYER
  2
2
 70
     0
 62
     2
  6
HIDDEN
  0
LAYER
  2
3
 70
     0
 62
     3
  6
CONTINUOUS
  0
ENDTAB
  0
TABLE
  2
STYLE
 70
     2
  0
STYLE
  2
STANDARD
 70
     0
 40
0.0
 41
1.0
 50
0.0
 71
     0
 42
0.2
  3
TXT
  4
BIGFONT
  0
STYLE
  2
STANDARD1
 70
     0
 40
0.0
 41
1.0
 50
0.0
 71
     0
 42
3.0
  3
txt
  4

  0
ENDTAB
  0
TABLE
  2
VIEW
 70
     1
  0
VIEW
  2
ALL
 70
     0
 40
540.0
 10
441.98319327731087
 20
270.0
 41
0.0
 11
0.0
 21
0.0
 31
1.0
 12
0.0
 22
0.0
 32
0.0
 42
0.0
 43
0.0
 44
0.0
 50
0.0
 71
     0
  0
ENDTAB
  0
TABLE
  2
UCS
 70
     0
  0
ENDTAB
  0
TABLE
  2
APPID
 70
     3
  0
APPID
  2
ACAD
 70
     0
  0
APPID
  2
ACAD_MLEADERVER
 70
     0
  0
APPID
  2
ACAD_NAV_VCDISPLAY
 70
     0
  0
ENDTAB
  0
TABLE
  2
DIMSTYLE
 70
     1
  0
DIMSTYLE
  2
STANDARD
 70
     0
  3

  4

  5

  6

  7

 40
1.0
 41
0.18
 42
0.0625
 43
0.38
 44
0.18
 45
0.0
 46
0.0
 47
0.0
 48
0.0
140
0.18
141
0.09
142
0.0
143
25.399999999999999
144
1.0
145
0.0
146
1.0
147
0.09
 71
     0
 72
     0
 73
     1
 74
     1
 75
     0
 76
     0
 77
     0
 78
     0
170
     0
171
     2
172
     0
173
     0
174
     0
175
     0
176
     0
177
     0
178
     0
  0
ENDTAB
  0
ENDSEC
  0
SECTION
  2
BLOCKS
  0
BLOCK
  8
0
  2
$MODEL_SPACE
 70
     0
 10
0.0
 20
0.0
 30
0.0
  3
$MODEL_SPACE
  1

  0
ENDBLK
  5
1C8
  8
0
  0
BLOCK
 67
     1
  8
0
  2
$PAPER_SPACE
 70
     0
 10
0.0
 20
0.0
 30
0.0
  3
$PAPER_SPACE
  1

  0
ENDBLK
  5
1C6
 67
     1
  8
0
  0
ENDSEC
  0
SECTION
  2
ENTITIES
  0
LINE
  5
37
  8
1
 10
469.1507287528172
 20
237.567657995014
 30
0.0
 11
326.87512875281692
 21
237.567657995014
 31
0.0
  0
LINE
  5
38
  8
0
 10
459.15072875281311
 20
237.567657995014
 30
0.0
 11
459.15074588129198
 21
177.78707777466681
 31
0.0
  0
LINE
  5
39
  8
0
 10
433.1919287528284
 20
237.567657995014
 30
0.0
 11
433.19194588130739
 21
190.49325799463199
 31
0.0
  0
ARC
  5
3A
  8
0
 10
398.01292875281689
 20
237.567657995014
 30
0.0
 40
35.179000000000002
 50
0.0000789047124335
 51
180.0
  0
ARC
  5
3B
  8
0
 10
398.01292875281689
 20
237.567657995014
 30
0.0
 40
61.137800000000261
 50
359.99996789581661
 51
180.0
  0
LINE
  5
3C
  8
1
 10
446.17132875282181
 20
237.567657995014
 30
0.0
 11
446.17134588130068
 21
131.21725799463189
 31
0.0
  0
ARC
  5
3D
  8
1
 10
398.01292875281717
 20
237.567657995014
 30
0.0
 40
48.158400000006672
 50
0.0
 51
180.0
  0
LINE
  5
3E
  8
0
 10
362.04019588129688
 20
190.49325799463239
 30
0.0
 11
362.83394588128488
 21
190.49325799463239
 31
0.0
  0
ARC
  5
3F
  8
0
 10
362.04019588129688
 20
188.11200799463239
 30
0.0
 40
2.3812499999999992
 50
90.000000000000071
 51
180.0
  0
LINE
  5
40
  8
0
 10
359.65894588129692
 20
141.21725799463181
 30
0.0
 11
359.65894588129692
 21
188.11200799463239
 31
0.0
  0
ARC
  5
41
  8
0
 10
336.70369588140937
 20
175.4120079946324
 30
0.0
 40
2.3812499999999992
 50
0.0000000000000636
 51
90.000000000000028
  0
LINE
  5
42
  8
0
 10
339.08494588140979
 20
141.21725799463181
 30
0.0
 11
339.0849458814094
 21
175.4120079946324
 31
0.0
  0
LINE
  5
43
  8
0
 10
362.83392875280589
 20
237.567657995014
 30
0.0
 11
362.83394588128488
 21
190.49325799463199
 31
0.0
  0
LINE
  5
44
  8
0
 10
336.87512875282141
 20
237.567657995014
 30
0.0
 11
336.8751458813004
 21
177.79325799463251
 31
0.0
  0
LINE
  5
45
  8
0
 10
339.08494588140979
 20
141.21725799463209
 30
0.0
 11
359.65894588129692
 21
141.21725799463181
 31
0.0
  0
LINE
  5
46
  8
1
 10
398.01292875281717
 20
308.70545799501429
 30
0.0
 11
398.01294588129622
 21
89.647457994628326
 31
0.0
  0
LINE
  5
47
  8
1
 10
84.213142544249791
 20
178.54765799459881
 30
0.0
 11
84.213142544249791
 21
132.58885799466529
 31
0.0
  0
LINE
  5
48
  8
0
 10
84.213142544249791
 20
168.54765799457601
 30
0.0
 11
218.9182419623001
 21
168.5476579945759
 31
0.0
  0
LINE
  5
49
  8
0
 10
84.213142544249791
 20
142.58885799468891
 30
0.0
 11
218.91824196214131
 21
142.58885799468879
 31
0.0
  0
ARC
  5
4A
  8
0
 10
215.22819254459071
 20
155.56825799463161
 30
0.0
 40
13.49375
 50
285.87047550656899
 51
74.129524492784057
  0
ARC
  5
4B
  8
0
 10
84.213142544249791
 20
155.5682579946324
 30
0.0
 40
12.97939999996704
 50
90.000151222641037
 51
270.0
  0
LINE
  5
4C
  8
0
 10
226.6124250113613
 20
162.8126033898368
 30
0.0
 11
220.55520359946911
 21
162.8126033898368
 31
0.0
  0
LINE
  5
4D
  8
0
 10
192.14594254467741
 20
160.43135338959101
 30
0.0
 11
192.14594254467741
 21
150.70516259967229
 31
0.0
  0
LINE
  5
4E
  8
0
 10
194.52715828771909
 20
148.32391259942719
 30
0.0
 11
208.18668148988689
 21
148.32391259942719
 31
0.0
  0
ARC
  5
4F
  8
0
 10
194.52719254467769
 20
160.43135338959101
 30
0.0
 40
2.3812500002465322
 50
90.0
 51
180.0
  0
ARC
  5
50
  8
0
 10
194.52719254467769
 20
150.70516259967229
 30
0.0
 40
2.3812500002465322
 50
180.0
 51
270.0
  0
LINE
  5
51
  8
0
 10
208.18668148988641
 20
162.8126033898368
 30
0.0
 11
194.52719254467769
 21
162.8126033898368
 31
0.0
  0
LINE
  5
52
  8
0
 10
220.5552035994688
 20
148.32391259942719
 30
0.0
 11
226.61242501125841
 21
148.32391259942719
 31
0.0
  0
LINE
  5
53
  8
1
 10
349.85452875281248
 20
237.567657995014
 30
0.0
 11
349.8545458812917
 21
131.21725799463189
 31
0.0
  0
LINE
  5
54
  8
1
 10
322.66194588141002
 20
155.5682579946324
 30
0.0
 11
473.36394588118242
 21
155.5682579946324
 31
0.0
  0
LINE
  5
55
  8
0
 10
359.9129458812962
 20
142.9952579946322
 30
0.0
 11
436.1129458812963
 21
142.9952579946322
 31
0.0
  0
LINE
  5
56
  8
0
 10
359.9129458812962
 20
171.6972579946318
 30
0.0
 11
359.9129458812962
 21
142.9952579946322
 31
0.0
  0
LINE
  5
57
  8
0
 10
332.66194588141002
 20
164.33125799457071
 30
0.0
 11
332.66194588141002
 21
146.80525799469379
 31
0.0
  0
LINE
  5
58
  8
0
 10
333.42394588141008
 20
146.04325799469379
 30
0.0
 11
338.88494588140941
 21
146.0432579946941
 31
0.0
  0
LINE
  5
59
  8
0
 10
338.88494588140941
 20
146.0432579946941
 30
0.0
 11
338.88494588140992
 21
165.09325799457071
 31
0.0
  0
LINE
  5
5A
  8
0
 10
338.88494588140992
 20
165.09325799457071
 30
0.0
 11
333.42394588141008
 21
165.09325799457071
 31
0.0
  0
LINE
  5
5B
  8
0
 10
338.92463338140999
 20
162.72470799458199
 30
0.0
 11
339.08494588140962
 21
162.72470799458199
 31
0.0
  0
LINE
  5
5C
  8
0
 10
333.42394588141008
 20
146.04325799469379
 30
0.0
 11
332.66194588141002
 21
146.80525799469379
 31
0.0
  0
LINE
  5
5D
  8
0
 10
332.66194588141002
 20
164.33125799457071
 30
0.0
 11
333.42394588141008
 21
165.09325799457071
 31
0.0
  0
LINE
  5
5E
  8
0
 10
333.42394588141008
 20
165.09325799457071
 30
0.0
 11
333.42394588140979
 21
146.04325799469311
 31
0.0
  0
ARC
  5
5F
  8
0
 10
338.92463338140999
 20
162.76439549458209
 30
0.0
 40
0.0396875
 50
180.0
 51
269.99999999999989
  0
ARC
  5
60
  8
0
 10
338.92463338140948
 20
148.37212049468241
 30
0.0
 40
0.0396875
 50
90.0
 51
179.99999999999989
  0
LINE
  5
61
  8
0
 10
339.08494588140968
 20
148.41180799468259
 30
0.0
 11
338.92463338140948
 21
148.4118079946825
 31
0.0
  0
LINE
  5
62
  8
0
 10
359.65894588129692
 20
162.72470799458199
 30
0.0
 11
359.9129458812962
 21
162.72470799458199
 31
0.0
  0
LINE
  5
63
  8
0
 10
359.9129458812962
 20
162.72470799458199
 30
0.0
 11
359.9129458812962
 21
162.72470799458199
 31
0.0
  0
LINE
  5
64
  8
0
 10
359.9129458812962
 20
148.4118079946829
 30
0.0
 11
359.9129458812962
 21
148.4118079946829
 31
0.0
  0
LINE
  5
65
  8
0
 10
359.65894588129692
 20
148.4118079946829
 30
0.0
 11
359.9129458812962
 21
148.4118079946829
 31
0.0
  0
LINE
  5
66
  8
0
 10
174.6199425446728
 20
171.69725799463171
 30
0.0
 11
173.03244254467279
 21
170.10975799463171
 31
0.0
  0
LINE
  5
67
  8
0
 10
255.7094425446821
 20
170.10975799463171
 30
0.0
 11
254.1219425446821
 21
171.69725799463171
 31
0.0
  0
LINE
  5
68
  8
0
 10
254.1219425446821
 20
142.9952579946322
 30
0.0
 11
255.7094425446821
 21
144.58275799463229
 31
0.0
  0
LINE
  5
69
  8
0
 10
255.7094425446821
 20
144.58275799463229
 30
0.0
 11
255.7094425446821
 21
170.10975799463171
 31
0.0
  0
LINE
  5
6A
  8
0
 10
173.03244254467279
 20
170.10975799463171
 30
0.0
 11
173.03244254467279
 21
168.54765799457601
 31
0.0
  0
CIRCLE
  5
6B
  8
0
 10
214.37094254467769
 20
155.5682579946324
 30
0.0
 40
9.5249999999384301
  0
LINE
  5
6C
  8
0
 10
220.12727001514631
 20
142.9952579946322
 30
0.0
 11
254.1219425446821
 21
142.9952579946322
 31
0.0
  0
LINE
  5
6D
  8
0
 10
254.12194254468221
 20
171.69725799463171
 30
0.0
 11
174.6199425446728
 21
171.69725799463171
 31
0.0
  0
LINE
  5
6E
  8
0
 10
250.75644254466621
 20
172.4592579946314
 30
0.0
 11
250.75644254466621
 21
178.88545799462821
 31
0.0
  0
LINE
  5
6F
  8
0
 10
177.98544254468899
 20
178.88545799462821
 30
0.0
 11
177.98544254468899
 21
172.45925799463211
 31
0.0
  0
LINE
  5
70
  8
0
 10
177.98544254468899
 20
172.45925799463211
 30
0.0
 11
178.74744254468911
 21
171.69725799463211
 31
0.0
  0
LINE
  5
71
  8
0
 10
249.99444254466621
 20
171.6972579946314
 30
0.0
 11
250.75644254466621
 21
172.4592579946314
 31
0.0
  0
LINE
  5
72
  8
0
 10
361.62744588130772
 20
172.4592579946322
 30
0.0
 11
362.38944588130772
 21
171.69725799463211
 31
0.0
  0
LINE
  5
73
  8
0
 10
362.38944588130732
 20
179.6474579946283
 30
0.0
 11
361.62744588130738
 21
178.88545799462821
 31
0.0
  0
LINE
  5
74
  8
0
 10
361.62744588130772
 20
178.88545799462821
 30
0.0
 11
361.62744588130772
 21
172.4592579946322
 31
0.0
  0
LINE
  5
75
  8
0
 10
433.636445881285
 20
179.6474579946283
 30
0.0
 11
362.38944588130732
 21
179.6474579946283
 31
0.0
  0
LINE
  5
76
  8
0
 10
369.1839458812554
 20
136.13725799463219
 30
0.0
 11
426.84194588133732
 21
136.13725799463219
 31
0.0
  0
LINE
  5
77
  8
0
 10
426.84194588133749
 20
142.66505799463161
 30
0.0
 11
369.183945881255
 21
142.66505799463161
 31
0.0
  0
LINE
  5
78
  8
0
 10
368.67594588125507
 20
142.15705799463171
 30
0.0
 11
368.67594588125542
 21
136.64525799463209
 31
0.0
  0
ARC
  5
79
  8
0
 10
377.81994588120932
 20
143.9350579946319
 30
0.0
 40
1.27
 50
270.0
 51
312.26858442928813
  0
LINE
  5
7A
  8
0
 10
368.67594588125542
 20
136.64525799463209
 30
0.0
 11
369.1839458812554
 21
136.13725799463219
 31
0.0
  0
LINE
  5
7B
  8
0
 10
368.67594588125507
 20
142.15705799463171
 30
0.0
 11
369.183945881255
 21
142.66505799463161
 31
0.0
  0
LINE
  5
7C
  8
0
 10
185.0339425446364
 20
142.1570579946316
 30
0.0
 11
185.46574254469371
 21
142.58885799468879
 31
0.0
  0
LINE
  5
7D
  8
0
 10
185.0339425446368
 20
136.645257994632
 30
0.0
 11
185.5419425446367
 21
136.13725799463211
 31
0.0
  0
LINE
  5
7E
  8
0
 10
185.0339425446364
 20
142.1570579946316
 30
0.0
 11
185.0339425446368
 21
136.645257994632
 31
0.0
  0
LINE
  5
7F
  8
0
 10
243.19994254471891
 20
142.6650579946315
 30
0.0
 11
219.1764477063663
 21
142.6650579946315
 31
0.0
  0
LINE
  5
80
  8
0
 10
185.5419425446367
 20
136.13725799463211
 30
0.0
 11
243.1999425447197
 21
136.1372579946318
 31
0.0
  0
LINE
  5
81
  8
0
 10
243.70794254471889
 20
142.1570579946316
 30
0.0
 11
243.70794254471841
 21
136.645257994632
 31
0.0
  0
ARC
  5
82
  8
0
 10
234.56394254476459
 20
143.93505799463179
 30
0.0
 40
1.27
 50
227.7314155707119
 51
270.0
  0
LINE
  5
83
  8
0
 10
243.70794254471841
 20
136.645257994632
 30
0.0
 11
243.1999425447186
 21
136.13725799463211
 31
0.0
  0
LINE
  5
84
  8
0
 10
243.70794254471889
 20
142.1570579946316
 30
0.0
 11
243.19994254471891
 21
142.6650579946315
 31
0.0
  0
LINE
  5
85
  8
0
 10
436.1129458812963
 20
171.6972579946318
 30
0.0
 11
359.9129458812962
 21
171.6972579946318
 31
0.0
  0
LINE
  5
86
  8
0
 10
380.01294588129622
 20
203.20545799501201
 30
0.0
 11
381.74499668886523
 21
204.2054579950119
 31
0.0
  0
LINE
  5
87
  8
0
 10
380.01294588129622
 20
203.20545799501201
 30
0.0
 11
416.01294588129622
 21
203.20545799501201
 31
0.0
  0
LINE
  5
88
  8
3
 10
387.63594588129621
 20
135.7054579950119
 30
0.0
 11
387.63594588129621
 21
101.02445799462831
 31
0.0
  0
LINE
  5
89
  8
3
 10
408.38994588129628
 20
135.7054579950119
 30
0.0
 11
408.38994588129628
 21
101.02445799462831
 31
0.0
  0
LINE
  5
8A
  8
0
 10
410.01294588129622
 20
102.6474579946283
 30
0.0
 11
386.01294588129622
 21
102.6474579946283
 31
0.0
  0
LINE
  5
8B
  8
0
 10
407.01294588129622
 20
99.647457994628354
 30
0.0
 11
410.01294588129622
 21
102.6474579946283
 31
0.0
  0
LINE
  5
8C
  8
0
 10
386.01294588129622
 20
102.6474579946283
 30
0.0
 11
389.01294588129622
 21
99.647457994628297
 31
0.0
  0
LINE
  5
8D
  8
0
 10
381.74499668886523
 20
204.20545799501201
 30
0.0
 11
414.28089507372738
 21
204.20545799501201
 31
0.0
  0
LINE
  5
8E
  8
0
 10
380.01294588129622
 20
179.6474579946283
 30
0.0
 11
380.01294588129622
 21
203.20545799501201
 31
0.0
  0
LINE
  5
8F
  8
0
 10
389.01294588129622
 20
99.647457994628297
 30
0.0
 11
407.01294588129622
 21
99.647457994628354
 31
0.0
  0
LINE
  5
90
  8
0
 10
410.01294588129622
 20
135.7054579950119
 30
0.0
 11
410.01294588129622
 21
102.6474579946283
 31
0.0
  0
LINE
  5
91
  8
0
 10
386.01294588129622
 20
135.7054579950119
 30
0.0
 11
386.01294588129622
 21
102.6474579946283
 31
0.0
  0
LINE
  5
92
  8
0
 10
385.26276588129519
 20
135.7054579950119
 30
0.0
 11
410.76312588129719
 21
135.7054579950119
 31
0.0
  0
LINE
  5
93
  8
0
 10
178.74744254468871
 20
179.64745799462821
 30
0.0
 11
177.98544254468871
 21
178.88545799462821
 31
0.0
  0
LINE
  5
94
  8
0
 10
250.75644254466661
 20
178.88545799462821
 30
0.0
 11
249.99444254466641
 21
179.64745799462821
 31
0.0
  0
LINE
  5
95
  8
0
 10
249.9944425446665
 20
179.64745799462821
 30
0.0
 11
178.74744254468871
 21
179.64745799462821
 31
0.0
  0
LINE
  5
96
  8
0
 10
196.3709425446776
 20
179.6474579946283
 30
0.0
 11
196.3709425446776
 21
203.2054579950119
 31
0.0
  0
LINE
  5
97
  8
0
 10
198.1029933522465
 20
204.2054579950119
 30
0.0
 11
230.63889173710859
 21
204.2054579950119
 31
0.0
  0
LINE
  5
98
  8
0
 10
232.37094254467769
 20
203.2054579950119
 30
0.0
 11
232.3709425446776
 21
179.6474579946283
 31
0.0
  0
LINE
  5
99
  8
0
 10
196.3709425446776
 20
203.2054579950119
 30
0.0
 11
232.3709425446776
 21
203.2054579950119
 31
0.0
  0
LINE
  5
9A
  8
0
 10
232.3709425446776
 20
203.2054579950119
 30
0.0
 11
230.63889173710879
 21
204.2054579950119
 31
0.0
  0
LINE
  5
9B
  8
0
 10
196.3709425446776
 20
203.2054579950119
 30
0.0
 11
198.1029933522465
 21
204.2054579950119
 31
0.0
  0
LINE
  5
9C
  8
0
 10
202.37094254467769
 20
135.7054579950119
 30
0.0
 11
202.37094254467769
 21
102.6474579946283
 31
0.0
  0
LINE
  5
9D
  8
0
 10
226.3709425446776
 20
135.7054579950119
 30
0.0
 11
226.3709425446776
 21
102.6474579946283
 31
0.0
  0
LINE
  5
9E
  8
0
 10
205.3709425446776
 20
99.647457994628326
 30
0.0
 11
223.37094254467769
 21
99.647457994628397
 31
0.0
  0
LINE
  5
9F
  8
0
 10
202.37094254467769
 20
102.6474579946283
 30
0.0
 11
205.3709425446776
 21
99.647457994628326
 31
0.0
  0
LINE
  5
A0
  8
0
 10
223.37094254467769
 20
99.647457994628397
 30
0.0
 11
226.3709425446776
 21
102.6474579946283
 31
0.0
  0
LINE
  5
A1
  8
0
 10
226.3709425446776
 20
102.6474579946283
 30
0.0
 11
202.37094254467769
 21
102.6474579946283
 31
0.0
  0
LINE
  5
A2
  8
3
 10
224.7479425446777
 20
135.7054579950119
 30
0.0
 11
224.7479425446777
 21
101.02445799462841
 31
0.0
  0
LINE
  5
A3
  8
3
 10
203.99394254467759
 20
135.7054579950119
 30
0.0
 11
203.99394254467759
 21
101.02445799462841
 31
0.0
  0
ARC
  5
A4
  8
0
 10
349.85454588129068
 20
137.5272085769347
 30
0.0
 40
13.49375
 50
43.398868868100877
 51
142.95072498241089
  0
LINE
  5
A5
  8
0
 10
198.33156655150361
 20
171.69725799463171
 30
0.0
 11
198.3315665515035
 21
168.5476579945759
 31
0.0
  0
LINE
  5
A6
  8
0
 10
230.41031853785171
 20
171.69725799463171
 30
0.0
 11
230.41031853785171
 21
142.9952579946322
 31
0.0
  0
ARC
  5
A7
  8
2
 10
84.213142544249791
 20
155.5682579946324
 30
0.0
 40
12.97939999996704
 50
270.0
 51
89.999848777358949
  0
LINE
  5
A8
  8
0
 10
385.26276588129519
 20
136.13725799463219
 30
0.0
 11
385.26276588129519
 21
135.7054579950119
 31
0.0
  0
LINE
  5
A9
  8
0
 10
201.62076254467661
 20
136.13725799463219
 30
0.0
 11
201.62076254467661
 21
135.7054579950119
 31
0.0
  0
LINE
  5
AA
  8
0
 10
201.62076254467661
 20
135.7054579950119
 30
0.0
 11
227.12112254467871
 21
135.7054579950119
 31
0.0
  0
LINE
  5
AB
  8
0
 10
227.1211225446786
 20
136.1372579946318
 30
0.0
 11
227.12112254467871
 21
135.7054579950119
 31
0.0
  0
CIRCLE
  5
AC
  8
0
 10
214.37094254467769
 20
155.5682579946324
 30
0.0
 40
8.7629999999385575
  0
LINE
  5
AD
  8
0
 10
410.7631258812973
 20
136.13725799463219
 30
0.0
 11
410.7631258812973
 21
135.7054579950119
 31
0.0
  0
ARC
  5
AE
  8
0
 10
446.17134588130187
 20
137.5272085769347
 30
0.0
 40
13.49375
 50
37.049275017589153
 51
136.60113113189911
  0
LINE
  5
AF
  8
0
 10
416.01294588129628
 20
179.6474579946283
 30
0.0
 11
416.01294588129628
 21
203.20545799501201
 31
0.0
  0
LINE
  5
B0
  8
0
 10
416.01294588129628
 20
203.20545799501201
 30
0.0
 11
414.28089507372738
 21
204.2054579950119
 31
0.0
  0
LINE
  5
B1
  8
0
 10
427.34994588133748
 20
142.15705799463171
 30
0.0
 11
426.84194588133749
 21
142.66505799463161
 31
0.0
  0
LINE
  5
B2
  8
0
 10
427.34994588133708
 20
136.64525799463209
 30
0.0
 11
426.84194588133732
 21
136.13725799463219
 31
0.0
  0
ARC
  5
B3
  8
0
 10
418.20594588138317
 20
143.9350579946319
 30
0.0
 40
1.27
 50
227.73141557071199
 51
270.00000000000011
  0
LINE
  5
B4
  8
0
 10
427.34994588133748
 20
142.15705799463171
 30
0.0
 11
427.34994588133708
 21
136.64525799463209
 31
0.0
  0
LINE
  5
B5
  8
0
 10
434.39844588128489
 20
178.88545799462821
 30
0.0
 11
434.39844588128489
 21
172.4592579946322
 31
0.0
  0
LINE
  5
B6
  8
0
 10
433.63644588128523
 20
179.6474579946283
 30
0.0
 11
434.39844588128511
 21
178.88545799462821
 31
0.0
  0
LINE
  5
B7
  8
0
 10
434.39844588128489
 20
172.4592579946322
 30
0.0
 11
433.63644588128483
 21
171.69725799463211
 31
0.0
  0
LINE
  5
B8
  8
0
 10
436.36694588129581
 20
148.4118079946829
 30
0.0
 11
436.1129458812963
 21
148.4118079946829
 31
0.0
  0
LINE
  5
B9
  8
0
 10
436.1129458812963
 20
148.4118079946829
 30
0.0
 11
436.1129458812963
 21
148.4118079946829
 31
0.0
  0
LINE
  5
BA
  8
0
 10
436.1129458812963
 20
162.72470799458199
 30
0.0
 11
436.1129458812963
 21
162.72470799458199
 31
0.0
  0
LINE
  5
BB
  8
0
 10
436.36694588129581
 20
162.72470799458199
 30
0.0
 11
436.1129458812963
 21
162.72470799458199
 31
0.0
  0
LINE
  5
BC
  8
0
 10
456.94094588118281
 20
148.41180799468259
 30
0.0
 11
457.10125838118302
 21
148.4118079946825
 31
0.0
  0
ARC
  5
BD
  8
0
 10
457.10125838118302
 20
148.37212049468241
 30
0.0
 40
0.0396875
 50
0.0000000000000763
 51
90.000000000000028
  0
ARC
  5
BE
  8
0
 10
457.10125838118262
 20
162.76439549458209
 30
0.0
 40
0.0396875
 50
270.00000000000011
 51
0.0000000000000254
  0
LINE
  5
BF
  8
0
 10
462.60194588118242
 20
165.09325799457071
 30
0.0
 11
462.60194588118293
 21
146.04325799469311
 31
0.0
  0
LINE
  5
C0
  8
0
 10
463.36394588118259
 20
164.33125799457071
 30
0.0
 11
462.60194588118242
 21
165.09325799457071
 31
0.0
  0
LINE
  5
C1
  8
0
 10
462.60194588118242
 20
146.04325799469379
 30
0.0
 11
463.36394588118259
 21
146.80525799469379
 31
0.0
  0
LINE
  5
C2
  8
0
 10
457.10125838118262
 20
162.72470799458199
 30
0.0
 11
456.9409458811831
 21
162.72470799458199
 31
0.0
  0
LINE
  5
C3
  8
0
 10
457.14094588118257
 20
165.09325799457071
 30
0.0
 11
462.60194588118242
 21
165.09325799457071
 31
0.0
  0
LINE
  5
C4
  8
0
 10
457.14094588118309
 20
146.0432579946941
 30
0.0
 11
457.14094588118257
 21
165.09325799457071
 31
0.0
  0
LINE
  5
C5
  8
0
 10
462.60194588118242
 20
146.04325799469379
 30
0.0
 11
457.14094588118309
 21
146.0432579946941
 31
0.0
  0
LINE
  5
C6
  8
0
 10
463.36394588118259
 20
164.33125799457071
 30
0.0
 11
463.36394588118259
 21
146.80525799469379
 31
0.0
  0
LINE
  5
C7
  8
0
 10
436.1129458812963
 20
171.6972579946318
 30
0.0
 11
436.1129458812963
 21
142.9952579946322
 31
0.0
  0
LINE
  5
C8
  8
0
 10
456.94094588118281
 20
141.21725799463209
 30
0.0
 11
436.36694588129581
 21
141.21725799463181
 31
0.0
  0
LINE
  5
C9
  8
0
 10
456.94094588118281
 20
141.21725799463181
 30
0.0
 11
456.9409458811831
 21
175.4120079946324
 31
0.0
  0
ARC
  5
CA
  8
0
 10
459.32219588118318
 20
175.4120079946324
 30
0.0
 40
2.3812499999999992
 50
94.128868718612765
 51
179.99999999999989
  0
LINE
  5
CB
  8
0
 10
436.36694588129581
 20
141.21725799463181
 30
0.0
 11
436.36694588129581
 21
188.11200799463239
 31
0.0
  0
ARC
  5
CC
  8
0
 10
433.98569588129573
 20
188.11200799463239
 30
0.0
 40
2.3812499999999992
 50
0.0000000000000254
 51
89.999999999999943
  0
LINE
  5
CD
  8
0
 10
433.98569588129573
 20
190.49325799463239
 30
0.0
 11
433.19194588130762
 21
190.49325799463239
 31
0.0
  0
CIRCLE
  5
CE
  8
0
 10
581.6549492179148
 20
155.5682579946324
 30
0.0
 40
8.7629999999385575
  0
LINE
  5
CF
  8
0
 10
568.90476921791367
 20
136.1372579946318
 30
0.0
 11
568.90476921791367
 21
135.7054579950119
 31
0.0
  0
LINE
  5
D0
  8
0
 10
594.40512921791583
 20
135.7054579950119
 30
0.0
 11
568.90476921791367
 21
135.7054579950119
 31
0.0
  0
LINE
  5
D1
  8
0
 10
594.40512921791583
 20
136.13725799463219
 30
0.0
 11
594.40512921791583
 21
135.7054579950119
 31
0.0
  0
LINE
  5
D2
  8
0
 10
587.73576969363148
 20
142.6650579946315
 30
0.0
 11
610.48394921795602
 21
142.6650579946315
 31
0.0
  0
ARC
  5
D3
  8
2
 10
581.6549492179148
 20
285.72605799505618
 30
0.0
 40
12.97939999996704
 50
180.00015122264099
 51
0.0
  0
LINE
  5
D4
  8
0
 10
565.61557322474073
 20
171.69725799463171
 30
0.0
 11
565.61557322474073
 21
142.9952579946322
 31
0.0
  0
LINE
  5
D5
  8
0
 10
597.69432521108877
 20
171.69725799463171
 30
0.0
 11
597.69432521108877
 21
142.9952579946322
 31
0.0
  0
LINE
  5
D6
  8
3
 10
592.03194921791487
 20
135.7054579950119
 30
0.0
 11
592.03194921791487
 21
101.02445799462841
 31
0.0
  0
LINE
  5
D7
  8
3
 10
571.27794921791474
 20
135.7054579950119
 30
0.0
 11
571.27794921791474
 21
101.02445799462841
 31
0.0
  0
LINE
  5
D8
  8
0
 10
569.6549492179148
 20
102.6474579946283
 30
0.0
 11
593.6549492179148
 21
102.6474579946283
 31
0.0
  0
LINE
  5
D9
  8
0
 10
572.6549492179148
 20
99.647457994628397
 30
0.0
 11
569.6549492179148
 21
102.6474579946283
 31
0.0
  0
LINE
  5
DA
  8
0
 10
593.6549492179148
 20
102.6474579946283
 30
0.0
 11
590.6549492179148
 21
99.647457994628326
 31
0.0
  0
LINE
  5
DB
  8
0
 10
590.6549492179148
 20
99.647457994628326
 30
0.0
 11
572.6549492179148
 21
99.647457994628397
 31
0.0
  0
LINE
  5
DC
  8
0
 10
569.6549492179148
 20
135.7054579950119
 30
0.0
 11
569.6549492179148
 21
102.6474579946283
 31
0.0
  0
LINE
  5
DD
  8
0
 10
593.6549492179148
 20
135.7054579950119
 30
0.0
 11
593.6549492179148
 21
102.6474579946283
 31
0.0
  0
LINE
  5
DE
  8
0
 10
568.67554921797125
 20
204.2054579950119
 30
0.0
 11
565.38700002548364
 21
204.2054579950119
 31
0.0
  0
LINE
  5
DF
  8
0
 10
568.67554921797125
 20
203.2054579950119
 30
0.0
 11
563.6549492179148
 21
203.2054579950119
 31
0.0
  0
LINE
  5
E0
  8
0
 10
599.6549492179148
 20
203.2054579950119
 30
0.0
 11
597.92289841034585
 21
204.2054579950119
 31
0.0
  0
LINE
  5
E1
  8
0
 10
563.6549492179148
 20
203.2054579950119
 30
0.0
 11
565.38700002548364
 21
204.2054579950119
 31
0.0
  0
LINE
  5
E2
  8
0
 10
599.6549492179148
 20
203.2054579950119
 30
0.0
 11
594.63434921785824
 21
203.2054579950119
 31
0.0
  0
LINE
  5
E3
  8
0
 10
563.65494921791458
 20
203.2054579950119
 30
0.0
 11
563.6549492179148
 21
179.6474579946283
 31
0.0
  0
LINE
  5
E4
  8
0
 10
597.92289841034585
 20
204.2054579950119
 30
0.0
 11
594.63434921785824
 21
204.2054579950119
 31
0.0
  0
LINE
  5
E5
  8
0
 10
599.6549492179148
 20
179.6474579946283
 30
0.0
 11
599.65494921791469
 21
203.2054579950119
 31
0.0
  0
LINE
  5
E6
  8
0
 10
594.63434921785824
 20
179.64745799462821
 30
0.0
 11
617.2784492179037
 21
179.64745799462821
 31
0.0
  0
LINE
  5
E7
  8
0
 10
546.03144921792602
 20
179.64745799462821
 30
0.0
 11
568.67554921797125
 21
179.64745799462821
 31
0.0
  0
LINE
  5
E8
  8
0
 10
545.26944921792585
 20
178.88545799462821
 30
0.0
 11
546.03144921792602
 21
179.64745799462821
 31
0.0
  0
LINE
  5
E9
  8
0
 10
617.2784492179037
 20
179.64745799462821
 30
0.0
 11
618.04044921790364
 21
178.88545799462821
 31
0.0
  0
LINE
  5
EA
  8
0
 10
552.31794921787355
 20
142.1570579946316
 30
0.0
 11
552.82594921787336
 21
142.6650579946315
 31
0.0
  0
LINE
  5
EB
  8
0
 10
552.317949217874
 20
136.645257994632
 30
0.0
 11
552.82594921787381
 21
136.13725799463211
 31
0.0
  0
ARC
  5
EC
  8
0
 10
561.46194921782785
 20
143.93505799463179
 30
0.0
 40
1.27
 50
270.00000000000011
 51
312.26858442928813
  0
LINE
  5
ED
  8
0
 10
552.31794921787355
 20
142.1570579946316
 30
0.0
 11
552.317949217874
 21
136.645257994632
 31
0.0
  0
LINE
  5
EE
  8
0
 10
610.48394921795557
 20
136.13725799463211
 30
0.0
 11
552.82594921787256
 21
136.1372579946318
 31
0.0
  0
LINE
  5
EF
  8
0
 10
552.82594921787336
 20
142.6650579946315
 30
0.0
 11
575.57412874219949
 21
142.6650579946315
 31
0.0
  0
LINE
  5
F0
  8
0
 10
610.99194921795595
 20
142.1570579946316
 30
0.0
 11
610.99194921795561
 21
136.645257994632
 31
0.0
  0
ARC
  5
F1
  8
0
 10
601.84794921800165
 20
143.93505799463179
 30
0.0
 40
1.27
 50
227.73141557071199
 51
270.00000000000011
  0
LINE
  5
F2
  8
0
 10
610.99194921795561
 20
136.645257994632
 30
0.0
 11
610.48394921795557
 21
136.13725799463211
 31
0.0
  0
LINE
  5
F3
  8
0
 10
610.99194921795595
 20
142.1570579946316
 30
0.0
 11
610.48394921795602
 21
142.6650579946315
 31
0.0
  0
LINE
  5
F4
  8
0
 10
546.03144921792625
 20
171.6972579946314
 30
0.0
 11
545.26944921792608
 21
172.4592579946314
 31
0.0
  0
LINE
  5
F5
  8
0
 10
618.04044921790342
 20
172.45925799463211
 30
0.0
 11
617.27844921790324
 21
171.69725799463211
 31
0.0
  0
LINE
  5
F6
  8
0
 10
618.04044921790342
 20
178.88545799462821
 30
0.0
 11
618.04044921790342
 21
172.45925799463211
 31
0.0
  0
LINE
  5
F7
  8
0
 10
545.26944921792608
 20
172.4592579946314
 30
0.0
 11
545.26944921792608
 21
178.88545799462821
 31
0.0
  0
LINE
  5
F8
  8
0
 10
594.63434921785824
 20
171.69725799463171
 30
0.0
 11
621.40594921791956
 21
171.69725799463171
 31
0.0
  0
LINE
  5
F9
  8
0
 10
574.95998909869388
 20
142.9952579946322
 30
0.0
 11
541.90394921791017
 21
142.9952579946322
 31
0.0
  0
CIRCLE
  5
FA
  8
0
 10
581.6549492179148
 20
155.5682579946324
 30
0.0
 40
9.5249999999384301
  0
LINE
  5
FB
  8
0
 10
622.99344921791965
 20
170.10975799463171
 30
0.0
 11
622.99344921791965
 21
144.58275799463229
 31
0.0
  0
LINE
  5
FC
  8
0
 10
621.40594921791956
 20
142.9952579946322
 30
0.0
 11
588.34990933713686
 21
142.9952579946322
 31
0.0
  0
LINE
  5
FD
  8
0
 10
540.3164492179103
 20
144.58275799463229
 30
0.0
 11
540.3164492179103
 21
170.10975799463171
 31
0.0
  0
LINE
  5
FE
  8
0
 10
541.90394921791017
 20
171.69725799463171
 30
0.0
 11
568.67554921797125
 21
171.69725799463171
 31
0.0
  0
LINE
  5
FF
  8
0
 10
622.99344921791965
 20
144.58275799463229
 30
0.0
 11
621.40594921791956
 21
142.9952579946322
 31
0.0
  0
LINE
  5
100
  8
0
 10
541.90394921791017
 20
142.9952579946322
 30
0.0
 11
540.3164492179103
 21
144.58275799463229
 31
0.0
  0
LINE
  5
101
  8
0
 10
540.3164492179103
 20
170.10975799463171
 30
0.0
 11
541.90394921791017
 21
171.69725799463171
 31
0.0
  0
LINE
  5
102
  8
0
 10
621.40594921791956
 20
171.69725799463171
 30
0.0
 11
622.99344921791965
 21
170.10975799463171
 31
0.0
  0
LINE
  5
103
  8
1
 10
581.6549492179148
 20
308.70545799502321
 30
0.0
 11
581.6549492179148
 21
89.647457994628326
 31
0.0
  0
LINE
  5
104
  8
0
 10
588.89929461311999
 20
149.3839969398413
 30
0.0
 11
588.89929461311999
 21
143.3267755280516
 31
0.0
  0
LINE
  5
105
  8
0
 10
574.41060382271041
 20
161.75251904942371
 30
0.0
 11
574.41060382271041
 21
175.41200799463229
 31
0.0
  0
ARC
  5
106
  8
0
 10
586.51804461287475
 20
175.41200799463229
 30
0.0
 40
2.3812500002465322
 50
0.0000000000000254
 51
90.0
  0
ARC
  5
107
  8
0
 10
576.79185382295623
 20
175.41200799463229
 30
0.0
 40
2.3812500002465322
 50
90.000000000000028
 51
180.0
  0
LINE
  5
108
  8
0
 10
588.89929461311999
 20
175.41204225159089
 30
0.0
 11
588.89929461311999
 21
161.75251904942311
 31
0.0
  0
LINE
  5
109
  8
0
 10
576.79185382295623
 20
177.79325799463271
 30
0.0
 11
586.51804461287475
 21
177.79325799463271
 31
0.0
  0
LINE
  5
10A
  8
0
 10
574.41060382271041
 20
143.32677552794871
 30
0.0
 11
574.41060382271041
 21
149.38399693984101
 31
0.0
  0
ARC
  5
10B
  8
0
 10
581.6549492179148
 20
285.72605799505618
 30
0.0
 40
12.97939999996704
 50
0.0000000000000254
 51
179.99984877735889
  0
ARC
  5
10C
  8
0
 10
581.65494921791549
 20
154.71100799471941
 30
0.0
 40
13.49375
 50
195.87047550721601
 51
344.12952449343112
  0
LINE
  5
10D
  8
0
 10
594.63434921785824
 20
285.72605799505618
 30
0.0
 11
594.63434921785824
 21
151.0209585771687
 31
0.0
  0
LINE
  5
10E
  8
0
 10
568.67554921797125
 20
285.72605799505618
 30
0.0
 11
568.67554921797125
 21
151.02095857700991
 31
0.0
  0
LINE
  5
10F
  8
1
 10
558.67554921794829
 20
285.72605799505618
 30
0.0
 11
604.63434921788178
 21
285.72605799505618
 31
0.0
  0
LINE
  5
110
  8
1
 10
601.17994921785316
 20
155.5682579946324
 30
0.0
 11
562.12994921797633
 21
155.5682579946324
 31
0.0
  0
LINE
  5
111
  8
0
 10
446.17134588130091
 20
452.03850146390357
 30
0.0
 11
349.8545458812917
 21
452.03850146390357
 31
0.0
  0
LINE
  5
112
  8
0
 10
446.17134588130091
 20
426.07970146401652
 30
0.0
 11
349.8545458812917
 21
426.07970146401652
 31
0.0
  0
ARC
  5
113
  8
0
 10
398.01294588129622
 20
439.05910146396008
 30
0.0
 40
41.338500000004437
 50
202.83016780729079
 51
337.16983219270918
  0
ARC
  5
114
  8
0
 10
398.01294588129622
 20
439.05910146396008
 30
0.0
 40
36.385499999988546
 50
200.8988361468831
 51
339.10116385311687
  0
ARC
  5
115
  8
0
 10
398.01294588129622
 20
439.05910146396008
 30
0.0
 40
39.751000000004467
 50
199.05754199785201
 51
340.94245800214799
  0
ARC
  5
116
  8
0
 10
398.01294588129622
 20
439.05910146396008
 30
0.0
 40
35.62349999998878
 50
201.36754768825051
 51
338.6324523117496
  0
ARC
  5
117
  8
0
 10
398.01294588129622
 20
439.05910146396008
 30
0.0
 40
16.267949192431121
 50
232.92537795551999
 51
307.07462204448018
  0
ARC
  5
118
  8
0
 10
398.01294588129622
 20
439.05910146396008
 30
0.0
 40
18.0
 50
226.1435356009068
 51
313.8564643990934
  0
LINE
  5
119
  8
0
 10
359.9129458812962
 20
455.0984774571325
 30
0.0
 11
359.9129458812962
 21
452.03850146390357
 31
0.0
  0
LINE
  5
11A
  8
0
 10
436.11294588129618
 20
455.0984774571325
 30
0.0
 11
436.11294588129618
 21
452.03850146390357
 31
0.0
  0
ARC
  5
11B
  8
0
 10
398.01294588129622
 20
439.05910146396008
 30
0.0
 40
39.751000000004467
 50
19.057541997851839
 51
160.9424580021481
  0
ARC
  5
11C
  8
0
 10
398.01294588129622
 20
439.05910146396008
 30
0.0
 40
41.338500000004437
 50
22.830167807290831
 51
157.16983219270909
  0
ARC
  5
11D
  8
0
 10
214.3709425446776
 20
439.05910146396008
 30
0.0
 40
41.338500000004437
 50
112.83016780729081
 51
247.16983219270921
  0
ARC
  5
11E
  8
0
 10
214.3709425446776
 20
439.05910146396008
 30
0.0
 40
39.751000000004467
 50
106.5711201161422
 51
253.4288798838578
  0
LINE
  5
11F
  8
0
 10
198.3315665515052
 20
477.1591014639601
 30
0.0
 11
230.41031853785009
 21
477.1591014639601
 31
0.0
  0
LINE
  5
120
  8
0
 10
198.33156655150509
 20
400.95910146396
 30
0.0
 11
230.41031853785009
 21
400.95910146396
 31
0.0
  0
CIRCLE
  5
121
  8
0
 10
214.3709425446776
 20
439.05910146396008
 30
0.0
 40
18.0
  0
LINE
  5
122
  8
0
 10
208.886114987377
 20
429.559101463959
 30
0.0
 11
219.85577010197821
 21
429.55910146396121
 31
0.0
  0
LINE
  5
123
  8
0
 10
203.40128743007429
 20
439.05910146396008
 30
0.0
 11
208.886114987377
 21
429.559101463959
 31
0.0
  0
LINE
  5
124
  8
0
 10
208.88611498737379
 20
448.55910146396008
 30
0.0
 11
203.40128743007429
 21
439.05910146396008
 31
0.0
  0
LINE
  5
125
  8
0
 10
219.85577010197821
 20
448.55910146396008
 30
0.0
 11
208.88611498737379
 21
448.55910146396008
 31
0.0
  0
LINE
  5
126
  8
0
 10
225.34059765927989
 20
439.0591014639611
 30
0.0
 11
219.85577010197821
 21
448.55910146396008
 31
0.0
  0
LINE
  5
127
  8
0
 10
219.85577010197821
 20
429.55910146396121
 30
0.0
 11
225.34059765927989
 21
439.0591014639611
 31
0.0
  0
CIRCLE
  5
128
  8
0
 10
214.3709425446776
 20
439.05910146396008
 30
0.0
 40
16.267949192431121
  0
CIRCLE
  5
129
  8
0
 10
214.3709425446776
 20
439.05910146396008
 30
0.0
 40
35.62349999998878
  0
ARC
  5
12A
  8
0
 10
214.3709425446776
 20
439.05910146396008
 30
0.0
 40
39.751000000004467
 50
286.57112011614231
 51
73.428879883857746
  0
CIRCLE
  5
12B
  8
0
 10
214.3709425446776
 20
439.05910146396008
 30
0.0
 40
36.385499999988546
  0
ARC
  5
12C
  8
0
 10
214.3709425446776
 20
439.05910146396008
 30
0.0
 40
41.338500000004437
 50
292.83016780729088
 51
67.16983219270918
  0
LINE
  5
12D
  8
1
 10
322.66194588141002
 20
439.05910146396008
 30
0.0
 11
473.36394588118242
 21
439.05910146396008
 31
0.0
  0
LINE
  5
12E
  8
1
 10
214.3709425446776
 20
363.70810146407388
 30
0.0
 11
214.37094254467769
 21
514.41010146384633
 31
0.0
  0
LINE
  5
12F
  8
1
 10
398.01294588129622
 20
490.39760146396458
 30
0.0
 11
398.01294588129622
 21
387.72060146395569
 31
0.0
  0
LINE
  5
130
  8
0
 10
339.02633976223387
 20
431.90265146401032
 30
0.0
 11
338.92463338140948
 21
431.90265146401021
 31
0.0
  0
ARC
  5
131
  8
0
 10
338.92463338140948
 20
431.86296396401002
 30
0.0
 40
0.0396875
 50
90.0
 51
179.99999999999989
  0
ARC
  5
132
  8
0
 10
338.92463338140999
 20
446.25523896390979
 30
0.0
 40
0.0396875
 50
180.0
 51
269.99999999999989
  0
LINE
  5
133
  8
0
 10
333.42394588141008
 20
448.58410146389832
 30
0.0
 11
333.42394588140979
 21
429.53410146402069
 31
0.0
  0
LINE
  5
134
  8
0
 10
332.66194588141002
 20
447.82210146389832
 30
0.0
 11
333.42394588141008
 21
448.58410146389832
 31
0.0
  0
LINE
  5
135
  8
0
 10
333.42394588141008
 20
429.53410146402138
 30
0.0
 11
332.66194588141002
 21
430.29610146402149
 31
0.0
  0
LINE
  5
136
  8
0
 10
338.92463338140999
 20
446.21555146390961
 30
0.0
 11
339.02633976223342
 21
446.21555146390949
 31
0.0
  0
LINE
  5
137
  8
0
 10
338.88494588140992
 20
448.58410146389832
 30
0.0
 11
333.42394588141008
 21
448.58410146389832
 31
0.0
  0
LINE
  5
138
  8
0
 10
338.88494588140941
 20
429.53410146402177
 30
0.0
 11
338.88494588140941
 21
432.12132803142998
 31
0.0
  0
LINE
  5
139
  8
0
 10
333.42394588141008
 20
429.53410146402138
 30
0.0
 11
338.88494588140941
 21
429.53410146402177
 31
0.0
  0
LINE
  5
13A
  8
0
 10
332.66194588141002
 20
447.82210146389832
 30
0.0
 11
332.66194588141002
 21
430.29610146402149
 31
0.0
  0
LINE
  5
13B
  8
0
 10
359.9129458812962
 20
426.07970146401652
 30
0.0
 11
359.9129458812962
 21
423.01972547078759
 31
0.0
  0
ARC
  5
13C
  8
0
 10
398.01294588129622
 20
439.05910146396008
 30
0.0
 40
16.267949192431121
 50
52.925377955515678
 51
127.0746220444841
  0
ARC
  5
13D
  8
0
 10
398.01294588129622
 20
439.05910146396008
 30
0.0
 40
18.0
 50
46.143535600903959
 51
133.85646439909601
  0
ARC
  5
13E
  8
0
 10
398.01294588129622
 20
439.05910146396008
 30
0.0
 40
35.62349999998878
 50
21.367547688250198
 51
158.6324523117498
  0
ARC
  5
13F
  8
0
 10
398.01294588129622
 20
439.05910146396008
 30
0.0
 40
36.385499999988546
 50
20.898836146882829
 51
159.10116385311721
  0
LINE
  5
140
  8
0
 10
436.11294588129618
 20
426.07970146401652
 30
0.0
 11
436.11294588129618
 21
423.01972547078759
 31
0.0
  0
LINE
  5
141
  8
1
 10
349.85454588129159
 20
457.03850146390357
 30
0.0
 11
349.85454588129159
 21
421.07970146401652
 31
0.0
  0
ARC
  5
142
  8
0
 10
349.85454588129159
 20
439.05910146396008
 30
0.0
 40
12.979399999943549
 50
90.0
 51
270.00000000000051
  0
LINE
  5
143
  8
1
 10
61.233742544282741
 20
155.5682579946324
 30
0.0
 11
265.70944254468208
 21
155.5682579946324
 31
0.0
  0
LINE
  5
144
  8
1
 10
214.37094254467769
 20
89.647457994628354
 30
0.0
 11
214.37094254467769
 21
213.6474579946283
 31
0.0
  0
LINE
  5
145
  8
0
 10
179.44594254468191
 20
475.03185146395941
 30
0.0
 11
179.44594254468191
 21
474.23810146397147
 31
0.0
  0
ARC
  5
146
  8
0
 10
181.82719254468179
 20
475.03185146395941
 30
0.0
 40
2.3812499999999992
 50
90.000000000000028
 51
179.99999999999989
  0
LINE
  5
147
  8
0
 10
228.72194254468241
 20
477.41310146395961
 30
0.0
 11
181.82719254468179
 21
477.41310146395961
 31
0.0
  0
ARC
  5
148
  8
0
 10
194.5271925446817
 20
500.36835146384709
 30
0.0
 40
2.3812499999999992
 50
184.12886871861281
 51
269.99999999999989
  0
LINE
  5
149
  8
0
 10
228.72194254468241
 20
497.98710146384673
 30
0.0
 11
194.5271925446817
 21
497.9871014638469
 31
0.0
  0
LINE
  5
14A
  8
0
 10
228.72194254468209
 20
497.98710146384673
 30
0.0
 11
228.72194254468241
 21
477.41310146395961
 31
0.0
  0
LINE
  5
14B
  8
0
 10
205.60794254474351
 20
504.4101014638465
 30
0.0
 11
223.1339425446204
 21
504.4101014638465
 31
0.0
  0
LINE
  5
14C
  8
0
 10
223.8959425446204
 20
503.64810146384627
 30
0.0
 11
223.89594254462011
 21
498.18710146384689
 31
0.0
  0
LINE
  5
14D
  8
0
 10
223.89594254462011
 20
498.18710146384689
 30
0.0
 11
204.84594254474351
 21
498.18710146384649
 31
0.0
  0
LINE
  5
14E
  8
0
 10
204.84594254474351
 20
498.18710146384649
 30
0.0
 11
204.84594254474351
 21
503.64810146384627
 31
0.0
  0
LINE
  5
14F
  8
0
 10
207.2144925447322
 20
498.1474139638463
 30
0.0
 11
207.2144925447322
 21
497.9871014638469
 31
0.0
  0
LINE
  5
150
  8
0
 10
223.8959425446204
 20
503.64810146384627
 30
0.0
 11
223.1339425446204
 21
504.4101014638465
 31
0.0
  0
LINE
  5
151
  8
0
 10
205.60794254474351
 20
504.4101014638465
 30
0.0
 11
204.84594254474351
 21
503.64810146384627
 31
0.0
  0
LINE
  5
152
  8
0
 10
204.84594254474351
 20
503.64810146384627
 30
0.0
 11
223.89594254462111
 21
503.64810146384667
 31
0.0
  0
ARC
  5
153
  8
0
 10
207.1748050447321
 20
498.1474139638463
 30
0.0
 40
0.0396875
 50
0.0000000000000877
 51
90.000000000000028
  0
ARC
  5
154
  8
0
 10
221.56708004463181
 20
498.14741396384687
 30
0.0
 40
0.0396875
 50
90.000000000000071
 51
180.0
  0
LINE
  5
155
  8
0
 10
221.52739254463171
 20
497.98710146384673
 30
0.0
 11
221.52739254463171
 21
498.14741396384687
 31
0.0
  0
LINE
  5
156
  8
0
 10
207.2144925447322
 20
477.41310146395961
 30
0.0
 11
207.2144925447322
 21
477.15910146396021
 31
0.0
  0
LINE
  5
157
  8
0
 10
207.2144925447322
 20
477.15910146396021
 30
0.0
 11
207.2144925447322
 21
477.15910146396021
 31
0.0
  0
LINE
  5
158
  8
0
 10
221.52739254463131
 20
477.15910146396021
 30
0.0
 11
221.52739254463131
 21
477.15910146396021
 31
0.0
  0
LINE
  5
159
  8
0
 10
221.52739254463131
 20
477.41310146395961
 30
0.0
 11
221.52739254463131
 21
477.15910146396021
 31
0.0
  0
ARC
  5
15A
  8
0
 10
232.41199196237949
 20
487.21750146396568
 30
0.0
 40
13.49375
 50
127.0492750175891
 51
226.60113113189911
  0
ARC
  5
15B
  8
0
 10
232.41199196237949
 20
390.90070146395459
 30
0.0
 40
13.49375
 50
133.39886886810089
 51
232.95072498241089
  0
LINE
  5
15C
  8
0
 10
221.52739254463131
 20
400.70510146396072
 30
0.0
 11
221.52739254463131
 21
400.95910146396
 31
0.0
  0
LINE
  5
15D
  8
0
 10
221.52739254463131
 20
400.95910146396
 30
0.0
 11
221.52739254463131
 21
400.95910146396
 31
0.0
  0
LINE
  5
15E
  8
0
 10
207.2144925447322
 20
400.95910146396
 30
0.0
 11
207.2144925447322
 21
400.95910146396
 31
0.0
  0
LINE
  5
15F
  8
0
 10
207.2144925447322
 20
400.70510146396072
 30
0.0
 11
207.2144925447322
 21
400.95910146396
 31
0.0
  0
LINE
  5
160
  8
0
 10
221.52739254463171
 20
380.13110146407348
 30
0.0
 11
221.52739254463171
 21
379.97078896407339
 31
0.0
  0
ARC
  5
161
  8
0
 10
221.56708004463181
 20
379.97078896407339
 30
0.0
 40
0.0396875
 50
180.0
 51
269.99999999999989
  0
ARC
  5
162
  8
0
 10
207.1748050447321
 20
379.9707889640739
 30
0.0
 40
0.0396875
 50
270.0
 51
360.0
  0
LINE
  5
163
  8
0
 10
204.84594254474351
 20
374.47010146407388
 30
0.0
 11
223.89594254462111
 21
374.47010146407359
 31
0.0
  0
LINE
  5
164
  8
0
 10
205.60794254474351
 20
373.70810146407388
 30
0.0
 11
204.84594254474351
 21
374.47010146407388
 31
0.0
  0
LINE
  5
165
  8
0
 10
223.8959425446204
 20
374.47010146407388
 30
0.0
 11
223.1339425446204
 21
373.70810146407388
 31
0.0
  0
LINE
  5
166
  8
0
 10
207.2144925447322
 20
379.9707889640739
 30
0.0
 11
207.2144925447322
 21
380.13110146407342
 31
0.0
  0
LINE
  5
167
  8
0
 10
204.84594254474351
 20
379.93110146407372
 30
0.0
 11
204.84594254474351
 21
374.47010146407388
 31
0.0
  0
LINE
  5
168
  8
0
 10
223.89594254462011
 20
379.93110146407321
 30
0.0
 11
204.84594254474351
 21
379.93110146407372
 31
0.0
  0
LINE
  5
169
  8
0
 10
223.8959425446204
 20
374.47010146407388
 30
0.0
 11
223.89594254462011
 21
379.93110146407321
 31
0.0
  0
LINE
  5
16A
  8
0
 10
205.60794254474351
 20
373.70810146407388
 30
0.0
 11
223.1339425446204
 21
373.70810146407388
 31
0.0
  0
LINE
  5
16B
  8
1
 10
132.37154254428299
 20
390.90070146395578
 30
0.0
 11
238.72194254468229
 21
390.9007014639555
 31
0.0
  0
LINE
  5
16C
  8
0
 10
228.72194254468209
 20
380.13110146407371
 30
0.0
 11
228.72194254468241
 21
400.70510146396072
 31
0.0
  0
LINE
  5
16D
  8
0
 10
132.37154254428299
 20
377.9213014639646
 30
0.0
 11
192.1459425446817
 21
377.9213014639642
 31
0.0
  0
LINE
  5
16E
  8
0
 10
132.37154254428299
 20
403.88010146394907
 30
0.0
 11
179.4459425446822
 21
403.88010146394868
 31
0.0
  0
LINE
  5
16F
  8
0
 10
228.72194254468241
 20
380.13110146407371
 30
0.0
 11
194.5271925446817
 21
380.13110146407331
 31
0.0
  0
ARC
  5
170
  8
0
 10
194.5271925446817
 20
377.74985146407329
 30
0.0
 40
2.3812499999999992
 50
90.000000000000057
 51
180.0
  0
LINE
  5
171
  8
0
 10
228.72194254468241
 20
400.70510146396072
 30
0.0
 11
181.82719254468179
 21
400.70510146396072
 31
0.0
  0
ARC
  5
172
  8
0
 10
181.82719254468179
 20
403.08635146396068
 30
0.0
 40
2.3812499999999992
 50
180.00000000000011
 51
270.0
  0
LINE
  5
173
  8
0
 10
179.44594254468191
 20
403.08635146396068
 30
0.0
 11
179.44594254468191
 21
403.88010146394868
 31
0.0
  0
ARC
  5
174
  8
1
 10
132.37154254428299
 20
439.05910146396042
 30
0.0
 40
48.158400000006672
 50
90.0
 51
270.0
  0
LINE
  5
175
  8
1
 10
132.37154254428299
 20
487.21750146396499
 30
0.0
 11
238.72194254468229
 21
487.2175014639646
 31
0.0
  0
ARC
  5
176
  8
0
 10
132.37154254428299
 20
439.05910146396008
 30
0.0
 40
61.137800000000261
 50
89.999967895816539
 51
270.0
  0
ARC
  5
177
  8
0
 10
132.37154254428299
 20
439.05910146396008
 30
0.0
 40
35.179000000000002
 50
90.000078904712424
 51
270.0
  0
LINE
  5
178
  8
0
 10
132.37154254428299
 20
474.23810146397159
 30
0.0
 11
179.4459425446822
 21
474.2381014639713
 31
0.0
  0
LINE
  5
179
  8
0
 10
132.37154254428299
 20
500.19690146395629
 30
0.0
 11
192.1521227646474
 21
500.1969014639559
 31
0.0
  0
LINE
  5
17A
  8
1
 10
132.37154254428299
 20
510.19690146396039
 30
0.0
 11
132.37154254428299
 21
367.92130146396022
 31
0.0
  0
LINE
  5
17B
  8
1
 10
61.233742544282762
 20
439.05910146396047
 30
0.0
 11
265.70944254468208
 21
439.05910146396002
 31
0.0
  0
LINE
  5
17C
  8
0
 10
338.88494588140969
 20
445.99687489649068
 30
0.0
 11
338.88494588140992
 21
448.58410146389832
 31
0.0
  0
LINE
  5
17D
  8
0
 10
457.14094588118269
 20
445.99687489649068
 30
0.0
 11
457.14094588118257
 21
448.58410146389832
 31
0.0
  0
ARC
  5
17E
  8
0
 10
446.17134588130091
 20
439.05910146396008
 30
0.0
 40
12.979399999943549
 50
269.99999999999949
 51
90.000000000000028
  0
LINE
  5
17F
  8
1
 10
446.17134588130091
 20
457.03850146390357
 30
0.0
 11
446.17134588130091
 21
421.07970146401652
 31
0.0
  0
LINE
  5
180
  8
0
 10
463.36394588118247
 20
447.82210146389832
 30
0.0
 11
463.36394588118247
 21
430.29610146402149
 31
0.0
  0
LINE
  5
181
  8
0
 10
462.60194588118242
 20
429.53410146402138
 30
0.0
 11
457.14094588118309
 21
429.53410146402177
 31
0.0
  0
LINE
  5
182
  8
0
 10
457.14094588118309
 20
429.53410146402177
 30
0.0
 11
457.14094588118309
 21
432.12132803142998
 31
0.0
  0
LINE
  5
183
  8
0
 10
457.14094588118257
 20
448.58410146389832
 30
0.0
 11
462.60194588118242
 21
448.58410146389832
 31
0.0
  0
LINE
  5
184
  8
0
 10
457.10125838118262
 20
446.21555146390961
 30
0.0
 11
456.99955200035907
 21
446.21555146390949
 31
0.0
  0
LINE
  5
185
  8
0
 10
462.60194588118242
 20
429.53410146402138
 30
0.0
 11
463.36394588118247
 21
430.29610146402149
 31
0.0
  0
LINE
  5
186
  8
0
 10
463.36394588118247
 20
447.82210146389832
 30
0.0
 11
462.60194588118242
 21
448.58410146389832
 31
0.0
  0
LINE
  5
187
  8
0
 10
462.60194588118242
 20
448.58410146389832
 30
0.0
 11
462.6019458811827
 21
429.53410146402069
 31
0.0
  0
ARC
  5
188
  8
0
 10
457.10125838118262
 20
446.25523896390979
 30
0.0
 40
0.0396875
 50
270.00000000000011
 51
0.0000000000000254
  0
ARC
  5
189
  8
0
 10
457.10125838118302
 20
431.86296396401002
 30
0.0
 40
0.0396875
 50
0.0000000000000763
 51
90.000000000000028
  0
LINE
  5
18A
  8
0
 10
456.99955200035862
 20
431.90265146401032
 30
0.0
 11
457.10125838118302
 21
431.90265146401021
 31
0.0
  0
TEXT
  5
293
  8
0
 62
     3
 10
0.0
 20
0.0
 30
0.0
 40
10.0
  1
HR24
  7
STANDARD1
  0
ENDSEC
  0
EOF
