  0
SECTION
  2
HEADER
  9
$ACADVER
  1
AC1009
  9
$INSBASE
 10
0.0
 20
0.0
 30
0.0
  9
$EXTMIN
 10
0.0
 20
-2.960436562073669
 30
0.0
  9
$EXTMAX
 10
649.38910009569963
 20
510.14084997324971
 30
0.0
  9
$LIMMIN
 10
0.0
 20
0.0
  9
$LIMMAX
 10
750.0
 20
540.0
  9
$ORTHOMODE
 70
     1
  9
$REGENMODE
 70
     1
  9
$FILLMODE
 70
     1
  9
$QTEXTMODE
 70
     0
  9
$MIRRTEXT
 70
     0
  9
$DRAGMODE
 70
     2
  9
$LTSCALE
 40
20.0
  9
$OSMODE
 70
    37
  9
$ATTMODE
 70
     1
  9
$TEXTSIZE
 40
0.2
  9
$TRACEWID
 40
0.05
  9
$TEXTSTYLE
  7
STANDARD
  9
$CLAYER
  8
0
  9
$CELTYPE
  6
BYLAYER
  9
$CECOLOR
 62
   256
  9
$DIMSCALE
 40
2.0
  9
$DIMASZ
 40
3.0
  9
$DIMEXO
 40
2.0
  9
$DIMDLI
 40
0.38
  9
$DIMRND
 40
0.0
  9
$DIMDLE
 40
0.0
  9
$DIMEXE
 40
2.0
  9
$DIMTP
 40
0.0
  9
$DIMTM
 40
0.0
  9
$DIMTXT
 40
3.2000000000000002
  9
$DIMCEN
 40
0.0
  9
$DIMTSZ
 40
0.0
  9
$DIMTOL
 70
     0
  9
$DIMLIM
 70
     0
  9
$DIMTIH
 70
     0
  9
$DIMTOH
 70
     0
  9
$DIMSE1
 70
     0
  9
$DIMSE2
 70
     0
  9
$DIMTAD
 70
     1
  9
$DIMZIN
 70
     0
  9
$DIMBLK
  1

  9
$DIMASO
 70
     0
  9
$DIMSHO
 70
     0
  9
$DIMPOST
  1

  9
$DIMAPOST
  1

  9
$DIMALT
 70
     0
  9
$DIMALTD
 70
     2
  9
$DIMALTF
 40
25.399999999999999
  9
$DIMLFAC
 40
1.0
  9
$DIMTOFL
 70
     1
  9
$DIMTVP
 40
1.6000000000000001
  9
$DIMTIX
 70
     1
  9
$DIMSOXD
 70
     0
  9
$DIMSAH
 70
     0
  9
$DIMBLK1
  1

  9
$DIMBLK2
  1

  9
$DIMSTYLE
  2
STANDARD
  9
$DIMCLRD
 70
     0
  9
$DIMCLRE
 70
     0
  9
$DIMCLRT
 70
     0
  9
$DIMTFAC
 40
1.0
  9
$DIMGAP
 40
0.09
  9
$LUNITS
 70
     2
  9
$LUPREC
 70
     4
  9
$SKETCHINC
 40
0.1
  9
$FILLETRAD
 40
0.0
  9
$AUNITS
 70
     0
  9
$AUPREC
 70
     4
  9
$MENU
  1
E:\r13\win\SUPPORT\ACAD
  9
$ELEVATION
 40
0.0
  9
$PELEVATION
 40
0.0
  9
$THICKNESS
 40
0.0
  9
$LIMCHECK
 70
     0
  9
$BLIPMODE
 70
     0
  9
$CHAMFERA
 40
0.0
  9
$CHAMFERB
 40
0.0
  9
$SKPOLY
 70
     0
  9
$TDCREATE
 40
2449840.6097453712
  9
$TDUPDATE
 40
2457906.6016403702
  9
$TDINDWG
 40
0.1524432986
  9
$TDUSRTIMER
 40
0.1524432986
  9
$USRTIMER
 70
     1
  9
$ANGBASE
 50
0.0
  9
$ANGDIR
 70
     0
  9
$PDMODE
 70
     0
  9
$PDSIZE
 40
0.0
  9
$PLINEWID
 40
0.0
  9
$COORDS
 70
     1
  9
$SPLFRAME
 70
     0
  9
$SPLINETYPE
 70
     6
  9
$SPLINESEGS
 70
     8
  9
$ATTDIA
 70
     0
  9
$ATTREQ
 70
     1
  9
$HANDLING
 70
     1
  9
$HANDSEED
  5
3C3F
  9
$SURFTAB1
 70
     6
  9
$SURFTAB2
 70
     6
  9
$SURFTYPE
 70
     6
  9
$SURFU
 70
     6
  9
$SURFV
 70
     6
  9
$UCSNAME
  2

  9
$UCSORG
 10
0.0
 20
0.0
 30
0.0
  9
$UCSXDIR
 10
1.0
 20
0.0
 30
0.0
  9
$UCSYDIR
 10
0.0
 20
1.0
 30
0.0
  9
$PUCSNAME
  2

  9
$PUCSORG
 10
0.0
 20
0.0
 30
0.0
  9
$PUCSXDIR
 10
1.0
 20
0.0
 30
0.0
  9
$PUCSYDIR
 10
0.0
 20
1.0
 30
0.0
  9
$USERI1
 70
     0
  9
$USERI2
 70
     1
  9
$USERI3
 70
     0
  9
$USERI4
 70
     0
  9
$USERI5
 70
     0
  9
$USERR1
 40
0.0
  9
$USERR2
 40
0.0
  9
$USERR3
 40
0.0
  9
$USERR4
 40
0.0
  9
$USERR5
 40
0.0
  9
$WORLDVIEW
 70
     1
  9
$SHADEDGE
 70
     3
  9
$SHADEDIF
 70
    70
  9
$TILEMODE
 70
     1
  9
$MAXACTVP
 70
    16
  9
$PLIMCHECK
 70
     0
  9
$PEXTMIN
 10
1.0000000000000000E+020
 20
1.0000000000000000E+020
 30
1.0000000000000000E+020
  9
$PEXTMAX
 10
-1.0000000000000000E+020
 20
-1.0000000000000000E+020
 30
-1.0000000000000000E+020
  9
$PLIMMIN
 10
0.0
 20
0.0
  9
$PLIMMAX
 10
12.0
 20
9.0
  9
$UNITMODE
 70
     0
  9
$VISRETAIN
 70
     0
  9
$PLINEGEN
 70
     0
  9
$PSLTSCALE
 70
     0
  0
ENDSEC
  0
SECTION
  2
TABLES
  0
TABLE
  2
VPORT
 70
     1
  0
VPORT
  2
*ACTIVE
 70
     0
 10
0.0
 20
0.0
 11
1.0
 21
1.0
 12
653.28095422367767
 22
253.5894588685513
 13
0.0
 23
0.0
 14
20.0
 24
20.0
 15
20.0
 25
20.0
 16
0.0
 26
0.0
 36
1.0
 17
0.0
 27
0.0
 37
0.0
 40
517.61733855699754
 41
2.6019575856443709
 42
50.0
 43
0.0
 44
0.0
 50
0.0
 51
0.0
 71
     0
 72
   500
 73
     1
 74
     0
 75
     0
 76
     0
 77
     0
 78
     2
  0
ENDTAB
  0
TABLE
  2
LTYPE
 70
     4
  0
LTYPE
  2
CONTINUOUS
 70
     0
  3
Solid Line
 72
    65
 73
     0
 40
0.0
  0
LTYPE
  2
CENTER
 70
     0
  3
____ _ ____ _ ____ _ ____ _ ____ _ ____ _ ____
 72
    65
 73
     4
 40
2.0
 49
1.25
 49
-0.25
 49
0.25
 49
-0.25
  0
LTYPE
  2
HIDDEN
 70
     0
  3
_ _ _ _ _ _ _ _ _ _ _ _ _ _ _ _ _ _ _ _ _ _ _
 72
    65
 73
     2
 40
0.375
 49
0.25
 49
-0.125
  0
LTYPE
  2
PHANTOM2
 70
     0
  3
___ _ _ ___ _ _ ___ _ _ ___ _ _
 72
    65
 73
     6
 40
1.25
 49
0.625
 49
-0.125
 49
0.125
 49
-0.125
 49
0.125
 49
-0.125
  0
ENDTAB
  0
TABLE
  2
LAYER
 70
     4
  0
LAYER
  2
0
 70
     0
 62
     7
  6
CONTINUOUS
  0
LAYER
  2
1
 70
     0
 62
     1
  6
CENTER
  0
LAYER
  2
2
 70
     0
 62
     2
  6
HIDDEN
  0
LAYER
  2
3
 70
     0
 62
     3
  6
CONTINUOUS
  0
ENDTAB
  0
TABLE
  2
STYLE
 70
     2
  0
STYLE
  2
STANDARD
 70
     0
 40
0.0
 41
1.0
 50
0.0
 71
     0
 42
0.2
  3
TXT
  4
BIGFONT
  0
STYLE
  2
STANDARD1
 70
     0
 40
0.0
 41
1.0
 50
0.0
 71
     0
 42
3.0
  3
txt
  4

  0
ENDTAB
  0
TABLE
  2
VIEW
 70
     1
  0
VIEW
  2
ALL
 70
     0
 40
540.0
 10
441.98319327731087
 20
270.0
 41
0.0
 11
0.0
 21
0.0
 31
1.0
 12
0.0
 22
0.0
 32
0.0
 42
0.0
 43
0.0
 44
0.0
 50
0.0
 71
     0
  0
ENDTAB
  0
TABLE
  2
UCS
 70
     0
  0
ENDTAB
  0
TABLE
  2
APPID
 70
     4
  0
APPID
  2
ACAD
 70
     0
  0
APPID
  2
ACAD_MLEADERVER
 70
     0
  0
APPID
  2
ACAD_EXEMPT_FROM_CAD_STANDARDS
 70
     0
  0
APPID
  2
ACAD_NAV_VCDISPLAY
 70
     0
  0
ENDTAB
  0
TABLE
  2
DIMSTYLE
 70
     1
  0
DIMSTYLE
  2
STANDARD
 70
     0
  3

  4

  5

  6

  7

 40
1.0
 41
0.18
 42
0.0625
 43
0.38
 44
0.18
 45
0.0
 46
0.0
 47
0.0
 48
0.0
140
0.18
141
0.09
142
0.0
143
25.399999999999999
144
1.0
145
0.0
146
1.0
147
0.09
 71
     0
 72
     0
 73
     1
 74
     1
 75
     0
 76
     0
 77
     0
 78
     0
170
     0
171
     2
172
     0
173
     0
174
     0
175
     0
176
     0
177
     0
178
     0
  0
ENDTAB
  0
ENDSEC
  0
SECTION
  2
BLOCKS
  0
BLOCK
  8
0
  2
$MODEL_SPACE
 70
     0
 10
0.0
 20
0.0
 30
0.0
  3
$MODEL_SPACE
  1

  0
ENDBLK
  5
1BF
  8
0
  0
BLOCK
 67
     1
  8
0
  2
$PAPER_SPACE
 70
     0
 10
0.0
 20
0.0
 30
0.0
  3
$PAPER_SPACE
  1

  0
ENDBLK
  5
1BD
 67
     1
  8
0
  0
ENDSEC
  0
SECTION
  2
ENTITIES
  0
TEXT
  5
3889
  8
0
 62
     3
 10
0.0
 20
0.0
 30
0.0
 40
10.0
  1
HR24-LC
  7
STANDARD1
  0
LINE
  5
388A
  8
0
 10
443.58910009564988
 20
233.17060028530011
 30
0.0
 11
443.58910009570019
 21
186.2374580456999
 31
0.0
  0
LINE
  5
388B
  8
0
 10
468.98910009564992
 20
233.17060028532811
 30
0.0
 11
468.9891000957017
 21
184.77195724839049
 31
0.0
  0
LINE
  5
388C
  8
0
 10
372.48910009570011
 20
186.2374580456999
 30
0.0
 11
372.48910009564992
 21
233.17060028530011
 31
0.0
  0
LINE
  5
388D
  8
0
 10
347.08910009570178
 20
184.77195724839021
 30
0.0
 11
347.08910009564988
 21
233.1705988891496
 31
0.0
  0
LINE
  5
388E
  8
0
 10
446.4185010642002
 20
137.63644996790001
 30
0.0
 11
448.37430082260011
 21
135.6806500349
 31
0.0
  0
LINE
  5
388F
  8
0
 10
465.18909893929998
 20
135.6806500349
 30
0.0
 11
467.06870161000001
 21
137.5602499698
 31
0.0
  0
LINE
  5
3890
  8
0
 10
349.00949858130002
 20
137.5602499698
 30
0.0
 11
350.88910125199999
 21
135.6806500349
 31
0.0
  0
LINE
  5
3891
  8
0
 10
367.70389936870021
 20
135.6806500349
 30
0.0
 11
369.65969912710011
 21
137.63644996790001
 31
0.0
  0
ARC
  5
3892
  8
0
 10
408.03910009564993
 20
233.17060028530011
 30
0.0
 40
60.950000000000003
 50
0.0
 51
180.0
  0
ARC
  5
3893
  8
0
 10
408.03910009564993
 20
233.17060028530011
 30
0.0
 40
35.549999999999997
 50
0.0
 51
180.0
  0
LINE
  5
3894
  8
0
 10
371.52659855790012
 20
167.53860041499999
 30
0.0
 11
372.54260070620012
 21
166.52260012919999
 31
0.0
  0
LINE
  5
3895
  8
0
 10
443.53559948510008
 20
166.52260012919999
 30
0.0
 11
444.55160163350018
 21
167.53860041499999
 31
0.0
  0
LINE
  5
3896
  8
0
 10
371.52659855790012
 20
174.00660170610001
 30
0.0
 11
371.52659855790012
 21
167.53860041499999
 31
0.0
  0
LINE
  5
3897
  8
0
 10
444.55160163350018
 20
167.53860041499999
 30
0.0
 11
444.5516016335003
 21
174.0066017060997
 31
0.0
  0
LINE
  5
3898
  8
0
 10
444.55160163350013
 20
174.00660170610001
 30
0.0
 11
443.53559948510008
 21
175.02260012919999
 31
0.0
  0
LINE
  5
3899
  8
0
 10
372.54260070620001
 20
175.02260012919999
 30
0.0
 11
371.5265985579
 21
174.00660170610001
 31
0.0
  0
LINE
  5
38A0
  8
0
 10
472.32310167254991
 20
160.0710008293
 30
0.0
 11
467.06870161000001
 21
160.0710008293
 31
0.0
  0
LINE
  5
38A1
  8
0
 10
467.06870161000001
 20
140.9701999742
 30
0.0
 11
472.32310167254991
 21
140.97019997419989
 31
0.0
  0
LINE
  5
38A2
  8
0
 10
343.75509851874989
 20
140.97019997419989
 30
0.0
 11
349.00949858130002
 21
140.9701999742
 31
0.0
  0
LINE
  5
38A3
  8
0
 10
349.00949858130002
 20
160.0710008293
 30
0.0
 11
343.75509851874989
 21
160.0710008293
 31
0.0
  0
LINE
  5
38A4
  8
0
 10
343.75509851874989
 20
160.0710008293
 30
0.0
 11
342.73910009564992
 21
159.0550005435
 31
0.0
  0
LINE
  5
38A5
  8
0
 10
342.73910009564992
 20
141.98620002710001
 30
0.0
 11
343.75509851874989
 21
140.9701999742
 31
0.0
  0
LINE
  5
38A6
  8
0
 10
472.32310167254991
 20
140.9701999742
 30
0.0
 11
473.33910009564988
 21
141.98620002710001
 31
0.0
  0
LINE
  5
38A7
  8
0
 10
473.33910009564988
 20
159.0550005435
 30
0.0
 11
472.32310167254991
 21
160.0710008293
 31
0.0
  0
LINE
  5
38A8
  8
0
 10
446.4185010642002
 20
157.6834008097
 30
0.0
 11
446.13909870395008
 21
157.6834008097
 31
0.0
  0
LINE
  5
38A9
  8
0
 10
446.13909870395008
 20
143.35779976099991
 30
0.0
 11
446.4185010642002
 21
143.357799761
 31
0.0
  0
LINE
  5
38AA
  8
0
 10
369.65969912710011
 20
143.357799761
 30
0.0
 11
369.93909776215008
 21
143.357799761
 31
0.0
  0
LINE
  5
38AB
  8
0
 10
369.93909776215008
 20
157.6834008097
 30
0.0
 11
369.65969912710011
 21
157.6834008097
 31
0.0
  0
ARC
  5
38AC
  8
0
 10
421.25925290401358
 20
174.54568625294681
 30
0.0
 40
25.205547073172308
 50
356.5267066567514
 51
27.636280119966301
  0
ARC
  5
38AD
  8
0
 10
538.81803083170234
 20
167.32891279888531
 30
0.0
 40
71.974574450986481
 50
165.9747139295925
 51
175.46591958691829
  0
LINE
  5
38AE
  8
0
 10
467.06870161000001
 20
137.5602499698
 30
0.0
 11
467.06870161000001
 21
173.01865145560001
 31
0.0
  0
LINE
  5
38AF
  8
0
 10
446.4185010642002
 20
140.44314986090001
 30
0.0
 11
467.06870161000001
 21
140.44314986090001
 31
0.0
  0
LINE
  5
38B0
  8
0
 10
446.4185010642002
 20
173.01865145560001
 30
0.0
 11
446.4185010642002
 21
137.63644996790001
 31
0.0
  0
ARC
  5
38B1
  8
0
 10
394.81901411660402
 20
174.54567194846081
 30
0.0
 40
25.20561291309043
 50
152.3637615391539
 51
183.47325168353359
  0
LINE
  5
38B2
  8
0
 10
369.65969912710023
 20
137.63644996790001
 30
0.0
 11
369.65969912710011
 21
173.01865145560001
 31
0.0
  0
LINE
  5
38B3
  8
0
 10
349.00949858130002
 20
140.44314986090001
 30
0.0
 11
369.65969912710011
 21
140.44314986090001
 31
0.0
  0
LINE
  5
38B4
  8
0
 10
349.00949858130002
 20
173.01865145560001
 30
0.0
 11
349.00949858130002
 21
137.5602499698
 31
0.0
  0
ARC
  5
38B5
  8
0
 10
277.26008222588172
 20
167.3288984814796
 30
0.0
 40
71.974662457072739
 50
4.5340863122802206
 51
14.025280317875129
  0
LINE
  5
38B6
  8
0
 10
448.37430082260011
 20
135.6806500349
 30
0.0
 11
465.18909893929998
 21
135.6806500349
 31
0.0
  0
LINE
  5
38B7
  8
0
 10
350.88910125199999
 20
135.6806500349
 30
0.0
 11
367.70389936870021
 21
135.6806500349
 31
0.0
  0
LINE
  5
38B8
  8
0
 10
369.93909776215071
 20
166.52260012919999
 30
0.0
 11
446.13909870394991
 21
166.52260012919999
 31
0.0
  0
LINE
  5
38BB
  8
0
 10
369.93909776215071
 20
166.52260012919999
 30
0.0
 11
369.93909776215042
 21
137.82059997319999
 31
0.0
  0
LINE
  5
38BC
  8
0
 10
446.13909870394991
 20
137.82059997319999
 30
0.0
 11
446.13909870394991
 21
166.52260012919999
 31
0.0
  0
LINE
  5
38BD
  8
0
 10
369.93909776215042
 20
137.82059997319999
 30
0.0
 11
446.13909870394991
 21
137.82059997319999
 31
0.0
  0
LINE
  5
38C0
  8
0
 10
443.53559948510008
 20
175.02260012919999
 30
0.0
 11
372.54260070620001
 21
175.02260012919999
 31
0.0
  0
LINE
  5
38C6
  8
0
 10
472.32310167254991
 20
140.9701999742
 30
0.0
 11
472.32310167254991
 21
160.0710008293
 31
0.0
  0
LINE
  5
38C7
  8
0
 10
343.75509851874989
 20
160.0710008293
 30
0.0
 11
343.75509851874989
 21
140.9701999742
 31
0.0
  0
LINE
  5
38C8
  8
0
 10
342.73910009564992
 20
159.0550005435
 30
0.0
 11
342.73910009564992
 21
141.98620002710001
 31
0.0
  0
LINE
  5
38C9
  8
0
 10
473.33910009564988
 20
141.98620002710001
 30
0.0
 11
473.33910009564971
 21
159.05500054350011
 31
0.0
  0
ARC
  5
38CC
  8
0
 10
608.03910009564993
 20
281.42060028530011
 30
0.0
 40
12.699999999999999
 50
0.0
 51
180.0
  0
LINE
  5
38CD
  8
0
 10
595.33910009564977
 20
281.42060028530011
 30
0.0
 11
595.33910009569968
 21
140.4431440212
 31
0.0
  0
LINE
  5
38CE
  8
0
 10
620.7391000957
 20
140.4431440212
 30
0.0
 11
620.73910009564997
 21
281.42060028530011
 31
0.0
  0
LINE
  5
38CF
  8
0
 10
595.33910009569968
 20
140.44314986090021
 30
0.0
 11
600.10159968889968
 21
135.6806500349002
 31
0.0
  0
LINE
  5
38D0
  8
0
 10
615.97660050250033
 20
135.6806500349
 30
0.0
 11
620.7391000957
 21
140.44314986090001
 31
0.0
  0
LINE
  5
38D1
  8
0
 10
571.52659855789955
 20
167.53860041499991
 30
0.0
 11
572.5426007062996
 21
166.52260012919999
 31
0.0
  0
LINE
  5
38D2
  8
0
 10
643.53559948509974
 20
166.52260012919999
 30
0.0
 11
644.55160163349967
 21
167.53860041499999
 31
0.0
  0
LINE
  5
38D3
  8
0
 10
644.55160163349956
 20
174.00660170610001
 30
0.0
 11
643.53559948509962
 21
175.02260012919999
 31
0.0
  0
LINE
  5
38D4
  8
0
 10
572.5426007062996
 20
175.0226001291999
 30
0.0
 11
571.52659855789955
 21
174.0066017060999
 31
0.0
  0
LINE
  5
38D5
  8
0
 10
571.52659855789966
 20
174.0066017061001
 30
0.0
 11
571.52659855789955
 21
167.53860041499991
 31
0.0
  0
LINE
  5
38D6
  8
0
 10
644.55160163349967
 20
167.53860041499999
 30
0.0
 11
644.55160163349979
 21
174.00660170609979
 31
0.0
  0
LINE
  5
38D7
  8
0
 10
616.26247540119959
 20
140.44314986090001
 30
0.0
 11
620.7391000957
 21
140.44314986090001
 31
0.0
  0
LINE
  5
38D8
  8
0
 10
616.26247540119959
 20
173.01865145560001
 30
0.0
 11
616.26247540119959
 21
155.37716671819999
 31
0.0
  0
LINE
  5
38D9
  8
0
 10
616.26247540119959
 20
145.6640329212
 30
0.0
 11
616.26247540119959
 21
140.44314986090001
 31
0.0
  0
POLYLINE
  5
38DA
  8
0
 66
     1
 10
0.0
 20
0.0
 30
0.0
 70
   128
  0
VERTEX
  5
3C07
  8
0
 10
599.81572479009969
 20
173.01865145560001
 30
0.0
  0
VERTEX
  5
3C08
  8
0
 10
599.96492639189967
 20
175.4647403955
 30
0.0
  0
VERTEX
  5
3C09
  8
0
 10
600.4312801174998
 20
177.84744724629999
 30
0.0
  0
VERTEX
  5
3C0A
  8
0
 10
601.0540364310998
 20
179.63827624909999
 30
0.0
  0
VERTEX
  5
3C0B
  8
0
 10
601.93702150139984
 20
181.28841221330001
 30
0.0
  0
VERTEX
  5
3C0C
  8
0
 10
602.77659716089988
 20
182.3733210563
 30
0.0
  0
VERTEX
  5
3C0D
  8
0
 10
603.78423463559989
 20
183.30629765980001
 30
0.0
  0
VERTEX
  5
3C0E
  8
0
 10
605.7845970149998
 20
184.39175784579999
 30
0.0
  0
VERTEX
  5
3C0F
  8
0
 10
608.03910009569972
 20
184.77195724840001
 30
0.0
  0
VERTEX
  5
3C10
  8
0
 10
610.10974985549979
 20
184.45267006750001
 30
0.0
  0
VERTEX
  5
3C11
  8
0
 10
611.95345120509967
 20
183.5535190999
 30
0.0
  0
VERTEX
  5
3C12
  8
0
 10
613.58572160829965
 20
182.04494044180001
 30
0.0
  0
VERTEX
  5
3C13
  8
0
 10
614.54675197599965
 20
180.61473071570001
 30
0.0
  0
VERTEX
  5
3C14
  8
0
 10
615.2676329016997
 20
179.031009227
 30
0.0
  0
VERTEX
  5
3C15
  8
0
 10
615.90203680099989
 20
176.7693445086
 30
0.0
  0
VERTEX
  5
3C16
  8
0
 10
616.21455233549977
 20
174.40983131519999
 30
0.0
  0
VERTEX
  5
3C17
  8
0
 10
616.26247540119959
 20
173.01865145560001
 30
0.0
  0
SEQEND
  5
3C18
  8
0
  0
LINE
  5
38DB
  8
0
 10
599.81572479009969
 20
140.44314986090001
 30
0.0
 11
599.81572479009969
 21
145.6640329212
 31
0.0
  0
LINE
  5
38DC
  8
0
 10
599.81572479009969
 20
155.37716671819999
 30
0.0
 11
599.81572479009969
 21
173.01865145560001
 31
0.0
  0
LINE
  5
38DD
  8
0
 10
595.33910009569968
 20
140.44314986090021
 30
0.0
 11
599.81572479009969
 21
140.44314986090021
 31
0.0
  0
LINE
  5
38DE
  8
0
 10
599.81572479009969
 20
173.01865145560001
 30
0.0
 11
616.26247540119959
 21
173.01865145560001
 31
0.0
  0
POLYLINE
  5
38DF
  8
0
 66
     1
 10
0.0
 20
0.0
 30
0.0
 70
   128
  0
VERTEX
  5
3C19
  8
0
 10
616.26247540119959
 20
140.44314986090001
 30
0.0
  0
VERTEX
  5
3C1A
  8
0
 10
613.7815051711998
 20
139.0517795458
 30
0.0
  0
VERTEX
  5
3C1B
  8
0
 10
611.14110881469958
 20
138.01777541230001
 30
0.0
  0
VERTEX
  5
3C1C
  8
0
 10
609.31040744769984
 20
137.64172742369999
 30
0.0
  0
VERTEX
  5
3C1D
  8
0
 10
607.44473363739985
 20
137.57740644500001
 30
0.0
  0
VERTEX
  5
3C1E
  8
0
 10
605.59892551979988
 20
137.8475479665
 30
0.0
  0
VERTEX
  5
3C1F
  8
0
 10
603.81229352209971
 20
138.39477256399999
 30
0.0
  0
VERTEX
  5
3C20
  8
0
 10
601.76542764529972
 20
139.3210741458
 30
0.0
  0
VERTEX
  5
3C21
  8
0
 10
599.81572479009969
 20
140.44314986090001
 30
0.0
  0
SEQEND
  5
3C22
  8
0
  0
LINE
  5
38E0
  8
0
 10
600.10159968889991
 20
135.6806500349
 30
0.0
 11
615.97660050250033
 21
135.6806500349
 31
0.0
  0
CIRCLE
  5
38E1
  8
0
 10
608.03910009569972
 20
150.52059997320001
 30
0.0
 40
8.5343999999998914
  0
CIRCLE
  5
38E2
  8
0
 10
608.03910009569972
 20
150.52059997320001
 30
0.0
 40
9.550399999999966
  0
LINE
  5
38E3
  8
0
 10
643.53559948509962
 20
175.02260012919999
 30
0.0
 11
620.73910009568772
 21
175.02260012919999
 31
0.0
  0
LINE
  5
38E4
  8
0
 10
595.33910009568751
 20
175.0226001291999
 30
0.0
 11
572.5426007062996
 21
175.0226001291999
 31
0.0
  0
LINE
  5
38E5
  8
0
 10
359.78910009564999
 20
422.14084997309982
 30
0.0
 11
456.28910009564993
 21
422.14084997309982
 31
0.0
  0
LINE
  5
38E6
  8
0
 10
456.28910009564993
 20
447.54084997309951
 30
0.0
 11
359.78910009564999
 21
447.54084997309968
 31
0.0
  0
LINE
  5
38E7
  8
0
 10
472.3231016725498
 20
444.39125005139971
 30
0.0
 11
467.06870161000001
 21
444.3912500513996
 31
0.0
  0
LINE
  5
38E8
  8
0
 10
467.06870161000001
 20
425.29044989479968
 30
0.0
 11
472.3231016725498
 21
425.29044989479968
 31
0.0
  0
LINE
  5
38E9
  8
0
 10
472.3231016725498
 20
425.29044989479968
 30
0.0
 11
473.33910009564983
 21
426.30645018059971
 31
0.0
  0
LINE
  5
38EA
  8
0
 10
473.33910009564983
 20
443.37524976569961
 30
0.0
 11
472.3231016725498
 21
444.3912500513996
 31
0.0
  0
LINE
  5
38EB
  8
0
 10
343.75509851874989
 20
444.3912500513996
 30
0.0
 11
342.73910009564992
 21
443.37524976569961
 31
0.0
  0
LINE
  5
38EC
  8
0
 10
342.73910009564992
 20
426.30645018059971
 30
0.0
 11
343.75509851874989
 21
425.29044989479968
 31
0.0
  0
LINE
  5
38ED
  8
0
 10
343.75509851874989
 20
425.29044989479968
 30
0.0
 11
349.00949858130002
 21
425.29044989479968
 31
0.0
  0
LINE
  5
38EE
  8
0
 10
349.00949858130002
 20
444.3912500513996
 30
0.0
 11
343.75509851874989
 21
444.39125005139971
 31
0.0
  0
ARC
  5
38EF
  8
0
 10
456.28910009564993
 20
434.84084950739981
 30
0.0
 40
12.699999999999999
 50
0.0
 51
90.0
  0
ARC
  5
38F0
  8
0
 10
456.28910009564993
 20
434.84084950739981
 30
0.0
 40
12.699999999999999
 50
270.0
 51
0.0
  0
ARC
  5
38F1
  8
0
 10
359.78910009564993
 20
434.84084950739958
 30
0.0
 40
12.699999999999999
 50
180.0
 51
270.0
  0
ARC
  5
38F2
  8
0
 10
359.78910009564993
 20
434.84084950739958
 30
0.0
 40
12.699999999999999
 50
90.0
 51
180.0
  0
LINE
  5
38F3
  8
0
 10
467.06870161000001
 20
444.3912500513996
 30
0.0
 11
467.06870161000001
 21
441.5557725294322
 31
0.0
  0
LINE
  5
38F4
  8
0
 10
467.06870160999989
 20
428.1259264853673
 30
0.0
 11
467.06870161000001
 21
425.29044989479968
 31
0.0
  0
LINE
  5
38F5
  8
0
 10
472.3231016725498
 20
425.29044989479968
 30
0.0
 11
472.3231016725498
 21
444.3912500513996
 31
0.0
  0
LINE
  5
38F6
  8
0
 10
473.33910009564983
 20
426.30645018059971
 30
0.0
 11
473.33910009564983
 21
443.37524976569961
 31
0.0
  0
LINE
  5
38F7
  8
0
 10
342.73910009564992
 20
443.37524976569961
 30
0.0
 11
342.73910009564992
 21
426.30645018059971
 31
0.0
  0
LINE
  5
38F8
  8
0
 10
343.75509851874989
 20
444.3912500513996
 30
0.0
 11
343.75509851874989
 21
425.29044989479968
 31
0.0
  0
LINE
  5
38F9
  8
0
 10
349.00949858130002
 20
425.29044989479968
 30
0.0
 11
349.00949858130002
 21
428.12592648536702
 31
0.0
  0
LINE
  5
38FA
  8
0
 10
349.00949858130002
 20
441.55577252943237
 30
0.0
 11
349.00949858130002
 21
444.3912500513996
 31
0.0
  0
LINE
  5
38FB
  8
0
 10
168.2765990286502
 20
166.52260012919999
 30
0.0
 11
166.68910009565019
 21
164.93509933350001
 31
0.0
  0
LINE
  5
38FC
  8
0
 10
166.68910009565019
 20
164.93509933350001
 30
0.0
 11
166.68910009565019
 21
163.69049955599991
 31
0.0
  0
LINE
  5
38FD
  8
0
 10
247.8016011626498
 20
137.82059997319999
 30
0.0
 11
249.38910009564981
 21
139.40809995399999
 31
0.0
  0
LINE
  5
38FE
  8
0
 10
249.38910009564981
 20
139.40809995399999
 30
0.0
 11
249.38910009564981
 21
164.93509933350001
 31
0.0
  0
LINE
  5
38FF
  8
0
 10
249.38910009564981
 20
164.93509933350001
 30
0.0
 11
247.8016011626498
 21
166.52260012919999
 31
0.0
  0
LINE
  5
3900
  8
0
 10
171.52659855784981
 20
174.0066017061001
 30
0.0
 11
171.52659855784981
 21
167.53860041499999
 31
0.0
  0
LINE
  5
3901
  8
0
 10
244.55160163344999
 20
167.53860041499999
 30
0.0
 11
244.55160163344999
 21
174.0066017060999
 31
0.0
  0
LINE
  5
3902
  8
0
 10
171.52659855784981
 20
167.53860041499999
 30
0.0
 11
172.54260070624991
 21
166.52260012919999
 31
0.0
  0
LINE
  5
3903
  8
0
 10
243.53559948505
 20
166.52260012919999
 30
0.0
 11
244.55160163344999
 21
167.53860041499999
 31
0.0
  0
LINE
  5
3904
  8
0
 10
244.55160163344991
 20
174.00660170610001
 30
0.0
 11
243.5355994850498
 21
175.02260012919999
 31
0.0
  0
LINE
  5
3905
  8
0
 10
172.5426007062498
 20
175.02260012919999
 30
0.0
 11
171.5265985578497
 21
174.00660170610001
 31
0.0
  0
CIRCLE
  5
390B
  8
0
 10
208.0391000956499
 20
150.52059997320001
 30
0.0
 40
8.5343999999999767
  0
CIRCLE
  5
390C
  8
0
 10
208.0391000956499
 20
150.52059997320001
 30
0.0
 40
9.5504000000000246
  0
LINE
  5
390D
  8
0
 10
168.27659902865011
 20
166.52260012919999
 30
0.0
 11
247.8016011626496
 21
166.52260012919999
 31
0.0
  0
LINE
  5
3910
  8
0
 10
218.1165502079497
 20
137.82059997319999
 30
0.0
 11
247.8016011626498
 21
137.82059997319999
 31
0.0
  0
LINE
  5
3914
  8
0
 10
243.5355994850498
 20
175.02260012919999
 30
0.0
 11
172.5426007062498
 21
175.02260012919999
 31
0.0
  0
CIRCLE
  5
391F
  8
0
 10
208.0391000956499
 20
434.84084997314972
 30
0.0
 40
35.496500000000012
  0
CIRCLE
  5
3920
  8
0
 10
208.0391000956499
 20
434.84084997314972
 30
0.0
 40
36.512500000000031
  0
LINE
  5
3924
  8
0
 10
224.1080952740588
 20
472.94084858149972
 30
0.0
 11
191.97010491724109
 21
472.94084858149972
 31
0.0
  0
LINE
  5
393B
  8
0
 10
224.10808644174861
 20
396.74084763969972
 30
0.0
 11
191.9701137495513
 21
396.74084763969972
 31
0.0
  0
ARC
  5
393C
  8
0
 10
208.0391000956499
 20
434.84084997314972
 30
0.0
 40
41.350000000000001
 50
292.86798128205652
 51
67.132005435689209
  0
ARC
  5
393D
  8
0
 10
208.0391000956499
 20
434.84084997314972
 30
0.0
 40
41.350000000000001
 50
112.86799456431081
 51
247.13201871794351
  0
LINE
  5
3940
  8
0
 10
200.87629910564959
 20
473.22025094174973
 30
0.0
 11
200.87629910564959
 21
472.94084858149972
 31
0.0
  0
LINE
  5
3941
  8
0
 10
215.20190015434989
 20
472.94084858149972
 30
0.0
 11
215.20190015434989
 21
473.22025094174973
 31
0.0
  0
LINE
  5
3942
  8
0
 10
215.20190015434989
 20
396.46144900464969
 30
0.0
 11
215.20190015434989
 21
396.74084763969972
 31
0.0
  0
LINE
  5
3943
  8
0
 10
200.87629910564959
 20
396.74084763969972
 30
0.0
 11
200.87629910564959
 21
396.46144900464969
 31
0.0
  0
LINE
  5
3944
  8
0
 10
568.27659902862013
 20
166.52260012919999
 30
0.0
 11
595.33910009569036
 21
166.52260012919999
 31
0.0
  0
LINE
  5
3945
  8
0
 10
620.73910009569056
 20
166.52260012919999
 30
0.0
 11
647.8016011626496
 21
166.52260012919999
 31
0.0
  0
LINE
  5
3946
  8
0
 10
568.276599028791
 20
137.82059997319999
 30
0.0
 11
597.96164985520466
 21
137.82059997319999
 31
0.0
  0
LINE
  5
3947
  8
0
 10
618.11655033619525
 20
137.82059997319999
 30
0.0
 11
647.80160116264983
 21
137.82059997319999
 31
0.0
  0
ARC
  5
3948
  8
0
 10
408.03910009560008
 20
434.84084997319968
 30
0.0
 40
35.496500000000012
 50
20.964028234470021
 51
159.03597176552981
  0
ARC
  5
3949
  8
0
 10
408.03910009560008
 20
434.84084997319968
 30
0.0
 40
35.496500000000012
 50
200.9640282348156
 51
339.0359717651844
  0
ARC
  5
394A
  8
0
 10
408.03910009560008
 20
434.84084997319968
 30
0.0
 40
36.512500000000031
 50
20.35440639806971
 51
159.6455936019301
  0
ARC
  5
394B
  8
0
 10
408.03910009560008
 20
434.84084997319968
 30
0.0
 40
36.512500000000031
 50
200.35440639840431
 51
339.64559360159558
  0
LINE
  5
3950
  8
0
 10
369.9391014872503
 20
450.90984515160852
 30
0.0
 11
369.9391014872503
 21
447.54084997309968
 31
0.0
  0
LINE
  5
3951
  8
0
 10
369.9391014872503
 20
422.14084997309982
 30
0.0
 11
369.9391014872503
 21
418.77185479479078
 31
0.0
  0
LINE
  5
3956
  8
0
 10
446.13910242905013
 20
450.90983631929828
 30
0.0
 11
446.13910242905013
 21
447.54084997309963
 31
0.0
  0
LINE
  5
3957
  8
0
 10
446.13910242905013
 20
422.14084997309988
 30
0.0
 11
446.13910242905013
 21
418.77186362710108
 31
0.0
  0
ARC
  5
3958
  8
0
 10
408.03910009560008
 20
434.84084997319968
 30
0.0
 40
41.350000000000001
 50
22.86798128205961
 51
157.13200543568149
  0
ARC
  5
3959
  8
0
 10
408.03910009560008
 20
434.84084997319968
 30
0.0
 40
41.350000000000001
 50
202.86799456431839
 51
337.13201871794041
  0
LINE
  5
395C
  8
1
 10
208.0391000956499
 20
84.1206002853001
 30
0.0
 11
208.0391000956499
 21
201.7205999732
 31
0.0
  0
LINE
  5
395D
  8
1
 10
408.03910009564993
 20
84.1206002853001
 30
0.0
 11
408.03910009564993
 21
304.1205999732
 31
0.0
  0
LINE
  5
395E
  8
1
 10
608.03910009564993
 20
84.1206002853001
 30
0.0
 11
608.03910009564993
 21
304.1205999732
 31
0.0
  0
ARC
  5
395F
  8
2
 10
608.03910009564993
 20
281.42060028530011
 30
0.0
 40
12.699999999999999
 50
180.0
 51
0.0
  0
LINE
  5
3960
  8
1
 10
332.73910009564992
 20
150.52060028529991
 30
0.0
 11
483.33910009564988
 21
150.52060028530019
 31
0.0
  0
LINE
  5
3961
  8
1
 10
332.73910009564992
 20
434.84084950739958
 30
0.0
 11
483.33910009564988
 21
434.84084950739981
 31
0.0
  0
LINE
  5
3962
  8
1
 10
478.98910009567578
 20
233.17060028530011
 30
0.0
 11
337.0891000956758
 21
233.17060028530011
 31
0.0
  0
LINE
  5
3963
  8
1
 10
630.73910009564986
 20
281.42060028530022
 30
0.0
 11
585.33910009564988
 21
281.42060028530022
 31
0.0
  0
LINE
  5
3964
  8
1
 10
208.03910009565021
 20
359.54084997324969
 30
0.0
 11
208.0391000956499
 21
510.14084997324971
 31
0.0
  0
LINE
  5
3965
  8
1
 10
408.03910488846088
 20
486.19084997319942
 30
0.0
 11
408.03910488846088
 21
383.49084997319989
 31
0.0
  0
LINE
  5
3966
  8
1
 10
359.78910009564993
 20
412.14084997309982
 30
0.0
 11
359.78910009564993
 21
457.54084997309968
 31
0.0
  0
LINE
  5
3967
  8
1
 10
456.28910009564993
 20
412.14084997309982
 30
0.0
 11
456.28910009564993
 21
457.54084997309968
 31
0.0
  0
LINE
  5
3968
  8
1
 10
627.58950009569946
 20
150.52059997320001
 30
0.0
 11
588.48870009569976
 21
150.52059997320001
 31
0.0
  0
LINE
  5
3979
  8
0
 10
647.80160116269963
 20
137.82059997319999
 30
0.0
 11
649.38910009569963
 21
139.40809995399999
 31
0.0
  0
LINE
  5
397A
  8
0
 10
649.38910009569963
 20
139.40809995399999
 30
0.0
 11
649.38910009569963
 21
164.93509933350001
 31
0.0
  0
LINE
  5
397B
  8
0
 10
649.38910009569963
 20
164.93509933350001
 30
0.0
 11
647.80160116269963
 21
166.52260012919999
 31
0.0
  0
LINE
  5
397C
  8
0
 10
568.2765990286573
 20
137.82059997333371
 30
0.0
 11
566.68910009566264
 21
139.40809995413909
 31
0.0
  0
LINE
  5
397D
  8
0
 10
566.68910009566264
 20
139.40809995413909
 30
0.0
 11
566.68910009574836
 21
164.9350993336391
 31
0.0
  0
LINE
  5
397E
  8
0
 10
566.68910009574836
 20
164.9350993336391
 30
0.0
 11
568.27659902875382
 21
166.52260012933371
 31
0.0
  0
LINE
  5
3989
  8
0
 10
378.68910009564991
 20
131.8826004996001
 30
0.0
 11
379.45110077564971
 21
131.1206002853001
 31
0.0
  0
LINE
  5
398A
  8
0
 10
436.62709941564981
 20
131.1206002853001
 30
0.0
 11
437.38910009564989
 21
131.8826004996001
 31
0.0
  0
LINE
  5
398B
  8
0
 10
437.38910009564989
 20
131.8826001875
 30
0.0
 11
437.38910009564989
 21
137.05859999169999
 31
0.0
  0
LINE
  5
398C
  8
0
 10
378.68910009564991
 20
137.05859999169999
 30
0.0
 11
378.68910009564991
 21
131.8826001875
 31
0.0
  0
LINE
  5
398D
  8
0
 10
437.38910009564989
 20
137.05859999169999
 30
0.0
 11
436.62709941564981
 21
137.82059997319999
 31
0.0
  0
LINE
  5
398E
  8
0
 10
379.45110077564971
 20
137.82059997319999
 30
0.0
 11
378.68910009564991
 21
137.05859999169999
 31
0.0
  0
LINE
  5
398F
  8
0
 10
379.45110077564971
 20
131.1206002853001
 30
0.0
 11
436.62709941564981
 21
131.1206002853001
 31
0.0
  0
LINE
  5
3990
  8
0
 10
179.45110077564979
 20
131.1205999732
 30
0.0
 11
236.62709941565001
 21
131.1205999732
 31
0.0
  0
LINE
  5
3991
  8
0
 10
579.45110077564959
 20
131.1205999732
 30
0.0
 11
636.62709941565004
 21
131.1205999732
 31
0.0
  0
LINE
  5
3992
  8
0
 10
178.68910009564999
 20
131.8826001875
 30
0.0
 11
179.45110077564979
 21
131.1205999732
 31
0.0
  0
LINE
  5
3993
  8
0
 10
236.62709941565001
 20
131.1205999732
 30
0.0
 11
237.38910009565009
 21
131.8826001875
 31
0.0
  0
LINE
  5
3994
  8
0
 10
237.38910009565009
 20
131.8825998753999
 30
0.0
 11
237.38910009565009
 21
137.05859967959989
 31
0.0
  0
LINE
  5
3995
  8
0
 10
178.68910009564999
 20
137.05859967959989
 30
0.0
 11
178.68910009564999
 21
131.8825998753999
 31
0.0
  0
LINE
  5
3996
  8
0
 10
237.38910009565009
 20
137.05859967959989
 30
0.0
 11
236.62709941565001
 21
137.82059966109989
 31
0.0
  0
LINE
  5
3997
  8
0
 10
179.4511010877363
 20
137.82059997318629
 30
0.0
 11
178.68910009564999
 21
137.05859967959989
 31
0.0
  0
LINE
  5
3998
  8
0
 10
578.68910009565002
 20
131.8826001875
 30
0.0
 11
579.45110077564982
 21
131.1205999732
 31
0.0
  0
LINE
  5
3999
  8
0
 10
636.62709941565004
 20
131.1205999732
 30
0.0
 11
637.38910009565006
 21
131.8826001875
 31
0.0
  0
LINE
  5
399A
  8
0
 10
637.38910009565006
 20
131.8825998753999
 30
0.0
 11
637.38910009565006
 21
137.05859967959989
 31
0.0
  0
LINE
  5
399B
  8
0
 10
578.68910009565002
 20
137.05859967959989
 30
0.0
 11
578.68910009565002
 21
131.8825998753999
 31
0.0
  0
LINE
  5
399C
  8
0
 10
637.38910009565006
 20
137.05859967959989
 30
0.0
 11
636.62709941565004
 21
137.82059966109989
 31
0.0
  0
LINE
  5
399D
  8
0
 10
579.45110077564982
 20
137.82059966109989
 30
0.0
 11
578.68910009565002
 21
137.05859967959989
 31
0.0
  0
ARC
  5
399E
  8
1
 10
408.03910009567579
 20
233.17060028530011
 30
0.0
 40
48.250000000025921
 50
0.0
 51
180.0
  0
LINE
  5
399F
  8
1
 10
359.78910009564993
 20
233.17060028530011
 30
0.0
 11
359.78910009564993
 21
125.6806500349
 31
0.0
  0
LINE
  5
39A0
  8
1
 10
456.28910009570183
 20
233.17060028530011
 30
0.0
 11
456.28910009570171
 21
125.6806500349
 31
0.0
  0
LINE
  5
39A1
  8
0
 10
125.38910009564999
 20
470.39084997324977
 30
0.0
 11
172.32224233525019
 21
470.39084997330002
 31
0.0
  0
LINE
  5
39A2
  8
0
 10
125.3891000956221
 20
495.79084997324969
 30
0.0
 11
173.7877431325596
 21
495.79084997330159
 31
0.0
  0
LINE
  5
39A3
  8
0
 10
172.32224233525019
 20
399.29084997330011
 30
0.0
 11
125.38910009564999
 21
399.29084997324981
 31
0.0
  0
LINE
  5
39A4
  8
0
 10
173.7877431325598
 20
373.89084997330173
 30
0.0
 11
125.3891014918006
 21
373.89084997324977
 31
0.0
  0
LINE
  5
39A5
  8
0
 10
220.92325041305011
 20
473.22025094179997
 30
0.0
 11
222.87905034605009
 21
475.17605070019999
 31
0.0
  0
LINE
  5
39A6
  8
0
 10
222.87905034605009
 20
491.99084881689981
 30
0.0
 11
220.99945041115021
 21
493.87045148759989
 31
0.0
  0
LINE
  5
39A7
  8
0
 10
220.99945041115021
 20
375.81124845889991
 30
0.0
 11
222.87905034605009
 21
377.69085112959988
 31
0.0
  0
LINE
  5
39A8
  8
0
 10
222.87905034605009
 20
394.50564924629998
 30
0.0
 11
220.92325041305011
 21
396.46144900469989
 31
0.0
  0
ARC
  5
39A9
  8
0
 10
125.38910009564999
 20
434.84084997324982
 30
0.0
 40
60.950000000000003
 50
90.0
 51
270.0
  0
ARC
  5
39AA
  8
0
 10
125.38910009564999
 20
434.84084997324982
 30
0.0
 40
35.549999999999997
 50
90.0
 51
270.0
  0
LINE
  5
39AB
  8
0
 10
198.48869955165009
 20
499.12485155014969
 30
0.0
 11
198.48869955165009
 21
493.87045148759989
 31
0.0
  0
LINE
  5
39AC
  8
0
 10
217.5895004067502
 20
493.87045148759989
 30
0.0
 11
217.5895004067502
 21
499.12485155014969
 31
0.0
  0
LINE
  5
39AD
  8
0
 10
217.5895004067502
 20
370.55684839634972
 30
0.0
 11
217.5895004067502
 21
375.81124845889991
 31
0.0
  0
LINE
  5
39AE
  8
0
 10
198.48869955165009
 20
375.81124845889991
 30
0.0
 11
198.48869955165009
 21
370.55684839634972
 31
0.0
  0
LINE
  5
39AF
  8
0
 10
198.48869955165009
 20
370.55684839634978
 30
0.0
 11
199.50469983745009
 21
369.54084997324981
 31
0.0
  0
LINE
  5
39B0
  8
0
 10
216.57350035385011
 20
369.54084997324981
 30
0.0
 11
217.5895004067502
 21
370.55684839634978
 31
0.0
  0
LINE
  5
39B1
  8
0
 10
217.5895004067502
 20
499.1248515501498
 30
0.0
 11
216.57350035385011
 21
500.14084997324977
 31
0.0
  0
LINE
  5
39B2
  8
0
 10
199.50469983745009
 20
500.14084997324977
 30
0.0
 11
198.48869955165009
 21
499.1248515501498
 31
0.0
  0
ARC
  5
39B3
  8
0
 10
184.01401412800331
 20
448.06100278161352
 30
0.0
 40
25.205547073172308
 50
86.526706656753049
 51
117.6362801199641
  0
ARC
  5
39B4
  8
0
 10
191.23078758206469
 20
565.6197807093024
 30
0.0
 40
71.974574450986481
 50
255.97471392959531
 51
265.46591958691852
  0
LINE
  5
39B5
  8
0
 10
220.99945041115009
 20
493.87045148759989
 30
0.0
 11
185.5410489253502
 21
493.87045148759989
 31
0.0
  0
LINE
  5
39B6
  8
0
 10
218.1165505200502
 20
473.22025094179997
 30
0.0
 11
218.1165505200502
 21
493.87045148759989
 31
0.0
  0
LINE
  5
39B7
  8
0
 10
185.5410489253502
 20
473.22025094179997
 30
0.0
 11
220.92325041305011
 21
473.22025094180009
 31
0.0
  0
ARC
  5
39B8
  8
0
 10
184.01402843248931
 20
421.62076399420368
 30
0.0
 40
25.20561291309043
 50
242.36376153915691
 51
273.47325168353478
  0
LINE
  5
39B9
  8
0
 10
220.92325041305011
 20
396.46144900470011
 30
0.0
 11
185.5410489253502
 21
396.46144900469989
 31
0.0
  0
LINE
  5
39BA
  8
0
 10
218.1165505200502
 20
375.81124845889991
 30
0.0
 11
218.1165505200502
 21
396.46144900469989
 31
0.0
  0
LINE
  5
39BB
  8
0
 10
185.5410489253502
 20
375.81124845889991
 30
0.0
 11
220.99945041115021
 21
375.81124845889991
 31
0.0
  0
ARC
  5
39BC
  8
0
 10
191.23080189947049
 20
304.06183210348149
 30
0.0
 40
71.974662457072739
 50
94.534086312277694
 51
104.0252803178727
  0
LINE
  5
39BD
  8
0
 10
222.87905034605009
 20
475.17605070019999
 30
0.0
 11
222.87905034605009
 21
491.99084881689981
 31
0.0
  0
LINE
  5
39BE
  8
0
 10
222.87905034605009
 20
377.69085112959988
 30
0.0
 11
222.87905034605009
 21
394.50564924629998
 31
0.0
  0
LINE
  5
39BF
  8
0
 10
217.5895004067502
 20
499.1248515501498
 30
0.0
 11
198.48869955165009
 21
499.1248515501498
 31
0.0
  0
LINE
  5
39C0
  8
0
 10
198.48869955165009
 20
370.55684839634978
 30
0.0
 11
217.5895004067502
 21
370.55684839634978
 31
0.0
  0
LINE
  5
39C1
  8
0
 10
199.50469983745009
 20
369.54084997324981
 30
0.0
 11
216.57350035385011
 21
369.54084997324981
 31
0.0
  0
LINE
  5
39C2
  8
0
 10
216.57350035385011
 20
500.14084997324977
 30
0.0
 11
199.50469983745
 21
500.14084997324949
 31
0.0
  0
LINE
  5
39C3
  8
1
 10
259.38910009564972
 20
434.84084997324982
 30
0.0
 11
54.439100407750168
 21
434.84084997324982
 31
0.0
  0
LINE
  5
39C4
  8
1
 10
125.38910009564999
 20
505.79084997327573
 30
0.0
 11
125.38910009564999
 21
363.89084997327581
 31
0.0
  0
ARC
  5
39C5
  8
1
 10
125.38910009564999
 20
434.84084997327562
 30
0.0
 40
48.250000000025921
 50
90.0
 51
270.0
  0
LINE
  5
39C6
  8
1
 10
125.38910009564999
 20
386.59084997324982
 30
0.0
 11
232.87905034605009
 21
386.59084997324982
 31
0.0
  0
LINE
  5
39C7
  8
1
 10
125.38910009564999
 20
483.09084997330149
 30
0.0
 11
232.87905034605009
 21
483.09084997330149
 31
0.0
  0
ARC
  5
39C8
  8
0
 10
77.13909978354981
 20
150.52059997315021
 30
0.0
 40
12.699999999999999
 50
90.0
 51
270.0
  0
LINE
  5
39C9
  8
0
 10
77.13909978354981
 20
137.82059997315011
 30
0.0
 11
218.11655604764991
 21
137.8205999731999
 31
0.0
  0
LINE
  5
39CA
  8
0
 10
218.11655604764991
 20
163.22059997320019
 30
0.0
 11
77.13909978354981
 21
163.2205999731502
 31
0.0
  0
LINE
  5
39CB
  8
0
 10
218.1165502079497
 20
137.8205999731999
 30
0.0
 11
222.87905003394971
 21
142.58309956639999
 31
0.0
  0
LINE
  5
39CC
  8
0
 10
222.87905003394991
 20
158.45810038000059
 30
0.0
 11
218.1165502079499
 21
163.22059997320019
 31
0.0
  0
LINE
  5
39CD
  8
0
 10
218.1165502079499
 20
158.74397527869991
 30
0.0
 11
218.1165502079499
 21
163.22059997320019
 31
0.0
  0
LINE
  5
39CE
  8
0
 10
185.5410486132499
 20
158.74397527869991
 30
0.0
 11
203.18253335064989
 21
158.74397527869991
 31
0.0
  0
LINE
  5
39CF
  8
0
 10
212.8956671476499
 20
158.74397527869991
 30
0.0
 11
218.1165502079499
 21
158.74397527869991
 31
0.0
  0
POLYLINE
  5
39D0
  8
0
 66
     1
 10
0.0
 20
0.0
 30
0.0
 70
   128
  0
VERTEX
  5
3C23
  8
0
 10
185.5410486132499
 20
142.29722466759989
 30
0.0
  0
VERTEX
  5
3C24
  8
0
 10
183.0949596733499
 20
142.44642626940001
 30
0.0
  0
VERTEX
  5
3C25
  8
0
 10
180.71225282254991
 20
142.91277999500011
 30
0.0
  0
VERTEX
  5
3C26
  8
0
 10
178.92142381974989
 20
143.5355363086
 30
0.0
  0
VERTEX
  5
3C27
  8
0
 10
177.2712878555499
 20
144.4185213789001
 30
0.0
  0
VERTEX
  5
3C28
  8
0
 10
176.18637901254991
 20
145.25809703840011
 30
0.0
  0
VERTEX
  5
3C29
  8
0
 10
175.2534024090499
 20
146.26573451310011
 30
0.0
  0
VERTEX
  5
3C2A
  8
0
 10
174.16794222304989
 20
148.26609689250009
 30
0.0
  0
VERTEX
  5
3C2B
  8
0
 10
173.78774282044989
 20
150.52059997319989
 30
0.0
  0
VERTEX
  5
3C2C
  8
0
 10
174.1070300013499
 20
152.59124973300001
 30
0.0
  0
VERTEX
  5
3C2D
  8
0
 10
175.00618096894991
 20
154.43495108260001
 30
0.0
  0
VERTEX
  5
3C2E
  8
0
 10
176.51475962704981
 20
156.06722148579999
 30
0.0
  0
VERTEX
  5
3C2F
  8
0
 10
177.9449693531499
 20
157.0282518535
 30
0.0
  0
VERTEX
  5
3C30
  8
0
 10
179.52869084184991
 20
157.7491327791999
 30
0.0
  0
VERTEX
  5
3C31
  8
0
 10
181.79035556024979
 20
158.38353667850009
 30
0.0
  0
VERTEX
  5
3C32
  8
0
 10
184.14986875364991
 20
158.696052213
 30
0.0
  0
VERTEX
  5
3C33
  8
0
 10
185.5410486132499
 20
158.74397527869991
 30
0.0
  0
SEQEND
  5
3C34
  8
0
  0
LINE
  5
39D1
  8
0
 10
218.1165502079499
 20
142.29722466759989
 30
0.0
 11
212.8956671476499
 21
142.29722466759989
 31
0.0
  0
LINE
  5
39D2
  8
0
 10
203.18253335064989
 20
142.29722466759989
 30
0.0
 11
185.5410486132499
 21
142.29722466759989
 31
0.0
  0
LINE
  5
39D3
  8
0
 10
218.1165502079497
 20
137.8205999731999
 30
0.0
 11
218.1165502079497
 21
142.29722466759989
 31
0.0
  0
LINE
  5
39D4
  8
0
 10
185.5410486132499
 20
142.29722466759989
 30
0.0
 11
185.5410486132499
 21
158.74397527869991
 31
0.0
  0
POLYLINE
  5
39D5
  8
0
 66
     1
 10
0.0
 20
0.0
 30
0.0
 70
   128
  0
VERTEX
  5
3C35
  8
0
 10
218.1165502079499
 20
158.74397527869991
 30
0.0
  0
VERTEX
  5
3C36
  8
0
 10
219.5079205230499
 20
156.26300504869999
 30
0.0
  0
VERTEX
  5
3C37
  8
0
 10
220.5419246565499
 20
153.62260869219989
 30
0.0
  0
VERTEX
  5
3C38
  8
0
 10
220.91797264514989
 20
151.7919073252001
 30
0.0
  0
VERTEX
  5
3C39
  8
0
 10
220.9822936238499
 20
149.9262335149001
 30
0.0
  0
VERTEX
  5
3C3A
  8
0
 10
220.7121521023499
 20
148.0804253973001
 30
0.0
  0
VERTEX
  5
3C3B
  8
0
 10
220.16492750484991
 20
146.29379339959991
 30
0.0
  0
VERTEX
  5
3C3C
  8
0
 10
219.23862592304991
 20
144.24692752279989
 30
0.0
  0
VERTEX
  5
3C3D
  8
0
 10
218.1165502079499
 20
142.29722466759989
 30
0.0
  0
SEQEND
  5
3C3E
  8
0
  0
LINE
  5
39D6
  8
0
 10
222.87905003394991
 20
142.58309956640011
 30
0.0
 11
222.87905003394991
 21
158.45810038000059
 31
0.0
  0
LINE
  5
39D7
  8
1
 10
259.38910009564989
 20
150.52059997315021
 30
0.0
 11
54.43910009564992
 21
150.52059997315021
 31
0.0
  0
ARC
  5
39D8
  8
2
 10
77.13909978354981
 20
150.52059997315021
 30
0.0
 40
12.699999999999999
 50
270.0
 51
90.0
  0
LINE
  5
39D9
  8
1
 10
77.139099783549696
 20
173.2205999731502
 30
0.0
 11
77.139099783549696
 21
127.8205999731501
 31
0.0
  0
LINE
  5
39DB
  8
0
 10
196.03910009570021
 20
95.695399391600006
 30
0.0
 11
197.61390044550029
 21
94.120599973199987
 31
0.0
  0
LINE
  5
39DC
  8
0
 10
218.46429974590021
 20
94.120599973199987
 30
0.0
 11
220.03910009570021
 21
95.695399391600006
 31
0.0
  0
LINE
  5
39DD
  8
0
 10
196.12649995839999
 20
95.695399391600006
 30
0.0
 11
219.95170023300011
 21
95.695399391600006
 31
0.0
  0
LINE
  5
39DE
  8
0
 10
197.61390044550029
 20
94.120599973199987
 30
0.0
 11
218.46429974590021
 21
94.120599973200015
 31
0.0
  0
LINE
  5
39DF
  8
0
 10
220.03910009570021
 20
95.695399391600006
 30
0.0
 11
220.03910009570021
 21
131.1205999732
 31
0.0
  0
LINE
  5
39E0
  8
3
 10
218.4151000957001
 20
94.120599973200015
 30
0.0
 11
218.41510009570041
 21
131.1205999732
 31
0.0
  0
LINE
  5
39E1
  8
3
 10
197.6631000957004
 20
94.120599973199987
 30
0.0
 11
197.6631000957
 21
131.1205999732
 31
0.0
  0
LINE
  5
39E2
  8
0
 10
196.03910009570021
 20
95.695399391600006
 30
0.0
 11
196.03910009570021
 21
131.1205999732
 31
0.0
  0
LINE
  5
39E3
  8
0
 10
396.03910009570001
 20
95.69539970370009
 30
0.0
 11
397.61390044550012
 21
94.120600285300085
 31
0.0
  0
LINE
  5
39E4
  8
0
 10
418.46429974590001
 20
94.120600285300085
 30
0.0
 11
420.03910009569989
 21
95.69539970370009
 31
0.0
  0
LINE
  5
39E5
  8
0
 10
396.12649995839979
 20
95.69539970370009
 30
0.0
 11
419.95170023299983
 21
95.69539970370009
 31
0.0
  0
LINE
  5
39E6
  8
0
 10
397.61390044550012
 20
94.120600285300085
 30
0.0
 11
418.46429974590001
 21
94.120600285300114
 31
0.0
  0
LINE
  5
39E7
  8
0
 10
420.03910009569989
 20
95.69539970370009
 30
0.0
 11
420.03910009569989
 21
131.1206002853001
 31
0.0
  0
LINE
  5
39E8
  8
3
 10
418.41510009569993
 20
94.120600285300114
 30
0.0
 11
418.4151000957001
 21
131.1206002853001
 31
0.0
  0
LINE
  5
39E9
  8
3
 10
397.6631000957002
 20
94.120600285300071
 30
0.0
 11
397.66310009569969
 21
131.1206002853001
 31
0.0
  0
LINE
  5
39EA
  8
0
 10
396.03910009570001
 20
95.69539970370009
 30
0.0
 11
396.03910009570001
 21
131.1206002853001
 31
0.0
  0
LINE
  5
39EB
  8
0
 10
596.03910009570018
 20
95.695399391600006
 30
0.0
 11
597.61390044550035
 21
94.120599973199987
 31
0.0
  0
LINE
  5
39EC
  8
0
 10
618.46429974590023
 20
94.120599973199987
 30
0.0
 11
620.03910009570018
 21
95.695399391600006
 31
0.0
  0
LINE
  5
39ED
  8
0
 10
596.12649995840002
 20
95.695399391600006
 30
0.0
 11
619.95170023300011
 21
95.695399391600006
 31
0.0
  0
LINE
  5
39EE
  8
0
 10
597.61390044550035
 20
94.120599973199987
 30
0.0
 11
618.46429974590023
 21
94.120599973200015
 31
0.0
  0
LINE
  5
39EF
  8
0
 10
620.03910009570018
 20
95.695399391600006
 30
0.0
 11
620.03910009570018
 21
131.1205999732
 31
0.0
  0
LINE
  5
39F0
  8
3
 10
618.41510009570015
 20
94.120599973200015
 30
0.0
 11
618.41510009570038
 21
131.1205999732
 31
0.0
  0
LINE
  5
39F1
  8
3
 10
597.66310009570043
 20
94.120599973199987
 30
0.0
 11
597.66310009569997
 21
131.1205999732
 31
0.0
  0
LINE
  5
39F2
  8
0
 10
596.03910009570018
 20
95.695399391600006
 30
0.0
 11
596.03910009570018
 21
131.1205999732
 31
0.0
  0
CIRCLE
  5
39F5
  8
0
 10
208.0391000956499
 20
434.84084997324959
 30
0.0
 40
18.0
  0
CIRCLE
  5
39F6
  8
0
 10
208.0391000956499
 20
434.84084997324959
 30
0.0
 40
6.3499999998839467
  0
CIRCLE
  5
39F7
  8
0
 10
208.0391000956499
 20
434.84084997324959
 30
0.0
 40
3.8099999999872121
  0
LINE
  5
39F8
  8
0
 10
187.2544904048234
 20
434.84084997324959
 30
0.0
 11
197.64679525023661
 21
416.84084997324959
 31
0.0
  0
LINE
  5
39F9
  8
0
 10
218.43140494106319
 20
452.84084997324959
 30
0.0
 11
228.82370978647651
 21
434.84084997324959
 31
0.0
  0
LINE
  5
39FA
  8
0
 10
197.64679525023661
 20
416.84084997324959
 30
0.0
 11
218.43140494106319
 21
416.84084997324959
 31
0.0
  0
LINE
  5
39FB
  8
0
 10
218.43140494106319
 20
452.84084997324959
 30
0.0
 11
197.64679525023661
 21
452.84084997324959
 31
0.0
  0
LINE
  5
39FC
  8
0
 10
228.82370978647651
 20
434.84084997324959
 30
0.0
 11
218.43140494106319
 21
416.84084997324959
 31
0.0
  0
LINE
  5
39FD
  8
0
 10
197.64679525023661
 20
452.84084997324959
 30
0.0
 11
187.2544904048234
 21
434.84084997324959
 31
0.0
  0
LINE
  5
39FE
  8
0
 10
394.03613813881913
 20
422.14084997309988
 30
0.0
 11
408.03909530288888
 21
414.0562388849732
 31
0.0
  0
LINE
  5
39FF
  8
0
 10
422.04204762656963
 20
447.54084997309968
 30
0.0
 11
408.03909530288888
 21
455.62545826662631
 31
0.0
  0
LINE
  5
3A00
  8
0
 10
422.04205246695881
 20
422.14084997309988
 30
0.0
 11
408.03909530288888
 21
414.0562388849732
 31
0.0
  0
LINE
  5
3A01
  8
0
 10
408.03909530288888
 20
455.62545826662631
 30
0.0
 11
394.03614297920802
 21
447.54084997309968
 31
0.0
  0
ARC
  5
3A02
  8
0
 10
408.03909530288888
 20
434.84084857579978
 30
0.0
 40
18.0
 50
44.874450308150848
 51
135.12554969184879
  0
ARC
  5
3A03
  8
0
 10
408.03909530288888
 20
434.84084857579978
 30
0.0
 40
18.0
 50
224.87443775550929
 51
315.12556224449071
  0
LINE
  5
3A04
  8
0
 10
190.0391000956499
 20
191.7205999732
 30
0.0
 11
187.2544904048236
 21
189.85818579190001
 31
0.0
  0
LINE
  5
3A05
  8
0
 10
191.04649946094989
 20
176.7205999732
 30
0.0
 11
191.04649946094989
 21
175.02260012919999
 31
0.0
  0
LINE
  5
3A06
  8
0
 10
225.03170073034991
 20
175.02260012919999
 30
0.0
 11
225.03170073034991
 21
176.7205999732
 31
0.0
  0
LINE
  5
3A07
  8
0
 10
187.2544904048236
 20
189.85818579190001
 30
0.0
 11
187.2544904048236
 21
176.7205999732
 31
0.0
  0
LINE
  5
3A08
  8
0
 10
228.82370978647651
 20
176.72059997319991
 30
0.0
 11
228.82370978647651
 21
189.85818579190001
 31
0.0
  0
LINE
  5
3A09
  8
0
 10
226.0391000956499
 20
191.7205999732
 30
0.0
 11
190.0391000956499
 21
191.7205999732
 31
0.0
  0
ARC
  5
3A0A
  8
0
 10
192.45064282753009
 20
181.15460513491021
 30
0.0
 40
10.13668171803393
 50
59.162241502290087
 51
120.8377584977099
  0
ARC
  5
3A0B
  8
0
 10
223.62755736377039
 20
181.155793119484
 30
0.0
 40
10.13566170631772
 50
59.158799054209332
 51
120.8412009457912
  0
ARC
  5
3A0C
  8
0
 10
208.03910009564831
 20
153.21358598716429
 30
0.0
 40
38.089719017725002
 50
74.16681358512578
 51
105.83318641487421
  0
LINE
  5
3A0D
  8
0
 10
197.64679525023601
 20
189.85818579190001
 30
0.0
 11
197.6467952502359
 21
176.7205999732
 31
0.0
  0
LINE
  5
3A0E
  8
0
 10
218.4314049410668
 20
176.72059997319991
 30
0.0
 11
218.4314049410668
 21
189.8581857918991
 31
0.0
  0
LINE
  5
3A0F
  8
0
 10
187.2544904048236
 20
176.7205999732
 30
0.0
 11
228.82370978647651
 21
176.7205999732
 31
0.0
  0
LINE
  5
3A10
  8
0
 10
226.0391000956499
 20
191.7205999732
 30
0.0
 11
228.8237097864762
 21
189.85818579190001
 31
0.0
  0
LINE
  5
3A11
  8
0
 10
391.04649946100011
 20
176.7205999732
 30
0.0
 11
391.046499461
 21
175.02260012919999
 31
0.0
  0
LINE
  5
3A12
  8
0
 10
425.03170073029992
 20
175.02260012919999
 30
0.0
 11
425.03170073029997
 21
176.7205999732
 31
0.0
  0
LINE
  5
3A13
  8
0
 10
408.0391000956534
 20
189.85818579189879
 30
0.0
 11
408.0391000956534
 21
176.7205999732
 31
0.0
  0
LINE
  5
3A14
  8
0
 10
426.03910009564999
 20
191.7205999732
 30
0.0
 11
390.03910009564981
 21
191.72059997319991
 31
0.0
  0
ARC
  5
3A15
  8
0
 10
417.03910009567778
 20
162.51152417801509
 30
0.0
 40
28.789579736856581
 50
71.783220714777272
 51
108.21677928533251
  0
ARC
  5
3A16
  8
0
 10
399.03910009564981
 20
162.51152314273651
 30
0.0
 40
28.789580720239002
 50
71.783221358816931
 51
108.216778641183
  0
LINE
  5
3A17
  8
0
 10
390.0391000956497
 20
176.7205999732
 30
0.0
 11
390.03910009564981
 21
191.7205999732
 31
0.0
  0
LINE
  5
3A18
  8
0
 10
426.03910009564981
 20
191.7205999732
 30
0.0
 11
426.03910009564981
 21
176.72059997319991
 31
0.0
  0
LINE
  5
3A19
  8
0
 10
390.03910009564981
 20
176.7205999732
 30
0.0
 11
426.03910009564981
 21
176.72059997319991
 31
0.0
  0
LINE
  5
3A1A
  8
0
 10
591.04649946099971
 20
176.7205999732
 30
0.0
 11
591.0464994609996
 21
175.02260012919999
 31
0.0
  0
LINE
  5
3A1B
  8
0
 10
625.03170073039951
 20
175.02260012919999
 30
0.0
 11
625.03170073039951
 21
176.7205999732
 31
0.0
  0
LINE
  5
3A1C
  8
0
 10
587.25449040487342
 20
189.85818579190001
 30
0.0
 11
587.25449040487342
 21
176.7205999732
 31
0.0
  0
LINE
  5
3A1D
  8
0
 10
628.82370978652648
 20
176.7205999732
 30
0.0
 11
628.82370978652636
 21
189.85818579190001
 31
0.0
  0
LINE
  5
3A1E
  8
0
 10
587.25449040487342
 20
176.7205999732
 30
0.0
 11
595.3391000956874
 21
176.7205999732
 31
0.0
  0
LINE
  5
3A1F
  8
0
 10
620.73910009568772
 20
176.7205999732
 30
0.0
 11
628.82370978652636
 21
176.7205999732
 31
0.0
  0
LINE
  5
3A20
  8
0
 10
590.03910009569995
 20
191.7205999732
 30
0.0
 11
587.25449040487342
 21
189.85818579190001
 31
0.0
  0
LINE
  5
3A21
  8
0
 10
626.03910009569972
 20
191.72059997319991
 30
0.0
 11
620.73910009568237
 21
191.72059997319991
 31
0.0
  0
LINE
  5
3A22
  8
0
 10
595.33910009568217
 20
191.7205999732
 30
0.0
 11
590.03910009569995
 21
191.7205999732
 31
0.0
  0
ARC
  5
3A23
  8
0
 10
592.45064282757994
 20
181.1546051349101
 30
0.0
 40
10.13668171803393
 50
73.444082267227785
 51
120.8377584977099
  0
ARC
  5
3A24
  8
0
 10
623.62755736382007
 20
181.155793119484
 30
0.0
 40
10.13566170631772
 50
59.158799054209332
 51
106.5576318345951
  0
LINE
  5
3A25
  8
0
 10
626.03910009569938
 20
191.7205999732
 30
0.0
 11
628.82370978652602
 21
189.85818579190001
 31
0.0
  0
ARC
  5
3B0E
  8
0
 10
208.0391000956499
 20
434.84084997314972
 30
0.0
 40
39.770000000000017
 50
106.662870174284
 51
253.33714854189989
  0
ARC
  5
3B0F
  8
0
 10
208.0391000956499
 20
434.84084997314972
 30
0.0
 40
39.770000000000017
 50
286.66285145810008
 51
73.337129825715962
  0
ARC
  5
3B10
  8
0
 10
408.03910056149999
 20
434.84084997324948
 30
0.0
 40
39.770000000000017
 50
198.622784808099
 51
341.37721519190097
  0
ARC
  5
3B11
  8
0
 10
408.03910056149999
 20
434.84084997324948
 30
0.0
 40
39.770000000000017
 50
18.622784807643541
 51
161.37721519235629
  0
LINE
  5
3B13
  8
0
 10
224.10808644175009
 20
166.52260012919999
 30
0.0
 11
224.10808644175009
 21
137.82059997319999
 31
0.0
  0
LINE
  5
3B14
  8
0
 10
191.97011374954971
 20
166.52260012919999
 30
0.0
 11
191.97011374954971
 21
163.22059997319101
 31
0.0
  0
LINE
  5
3B15
  8
0
 10
624.10808644179986
 20
166.52260012919999
 30
0.0
 11
624.10808644179986
 21
137.82059997319999
 31
0.0
  0
LINE
  5
3B16
  8
0
 10
591.97011374959948
 20
166.52260012919999
 30
0.0
 11
591.97011374959948
 21
137.82059997319999
 31
0.0
  0
ENDSEC
  0
EOF
