  0
SECTION
  2
HEADER
  9
$ACADVER
  1
AC1009
  9
$INSBASE
 10
0.0
 20
0.0
 30
0.0
  9
$EXTMIN
 10
0.0
 20
-2.960436562073669
 30
0.0
  9
$EXTMAX
 10
477.28741183614233
 20
458.69303556059771
 30
0.0
  9
$LIMMIN
 10
0.0
 20
0.0
  9
$LIMMAX
 10
375.0
 20
278.0
  9
$ORTHOMODE
 70
     0
  9
$REGENMODE
 70
     1
  9
$FILLMODE
 70
     1
  9
$QTEXTMODE
 70
     0
  9
$MIRRTEXT
 70
     0
  9
$DRAGMODE
 70
     2
  9
$LTSCALE
 40
10.0
  9
$OSMODE
 70
    55
  9
$ATTMODE
 70
     1
  9
$TEXTSIZE
 40
0.2
  9
$TRACEWID
 40
0.05
  9
$TEXTSTYLE
  7
STANDARD
  9
$CLAYER
  8
0
  9
$CELTYPE
  6
BYLAYER
  9
$CECOLOR
 62
   256
  9
$DIMSCALE
 40
1.0
  9
$DIMASZ
 40
3.0
  9
$DIMEXO
 40
1.0
  9
$DIMDLI
 40
6.0
  9
$DIMRND
 40
0.0
  9
$DIMDLE
 40
0.0
  9
$DIMEXE
 40
1.0
  9
$DIMTP
 40
495.0
  9
$DIMTM
 40
0.0
  9
$DIMTXT
 40
3.0
  9
$DIMCEN
 40
0.0
  9
$DIMTSZ
 40
0.0
  9
$DIMTOL
 70
     0
  9
$DIMLIM
 70
     0
  9
$DIMTIH
 70
     0
  9
$DIMTOH
 70
     0
  9
$DIMSE1
 70
     0
  9
$DIMSE2
 70
     0
  9
$DIMTAD
 70
     1
  9
$DIMZIN
 70
     0
  9
$DIMBLK
  1

  9
$DIMASO
 70
     0
  9
$DIMSHO
 70
     0
  9
$DIMPOST
  1

  9
$DIMAPOST
  1

  9
$DIMALT
 70
     0
  9
$DIMALTD
 70
     2
  9
$DIMALTF
 40
25.399999999999999
  9
$DIMLFAC
 40
1.0
  9
$DIMTOFL
 70
     1
  9
$DIMTVP
 40
0.0
  9
$DIMTIX
 70
     1
  9
$DIMSOXD
 70
     0
  9
$DIMSAH
 70
     0
  9
$DIMBLK1
  1

  9
$DIMBLK2
  1

  9
$DIMSTYLE
  2
STANDARD
  9
$DIMCLRD
 70
     0
  9
$DIMCLRE
 70
     0
  9
$DIMCLRT
 70
     4
  9
$DIMTFAC
 40
1.0
  9
$DIMGAP
 40
1.0
  9
$LUNITS
 70
     2
  9
$LUPREC
 70
     4
  9
$SKETCHINC
 40
0.1
  9
$FILLETRAD
 40
0.0
  9
$AUNITS
 70
     0
  9
$AUPREC
 70
     0
  9
$MENU
  1
C:\R13\WIN\SUPPORT\ACAD-I
  9
$ELEVATION
 40
0.0
  9
$PELEVATION
 40
0.0
  9
$THICKNESS
 40
0.0
  9
$LIMCHECK
 70
     0
  9
$BLIPMODE
 70
     0
  9
$CHAMFERA
 40
0.0
  9
$CHAMFERB
 40
0.0
  9
$SKPOLY
 70
     0
  9
$TDCREATE
 40
2450834.4199027782
  9
$TDUPDATE
 40
2456598.6893441789
  9
$TDINDWG
 40
0.2120310532
  9
$TDUSRTIMER
 40
0.2120310532
  9
$USRTIMER
 70
     1
  9
$ANGBASE
 50
0.0
  9
$ANGDIR
 70
     0
  9
$PDMODE
 70
     0
  9
$PDSIZE
 40
0.0
  9
$PLINEWID
 40
0.0
  9
$COORDS
 70
     1
  9
$SPLFRAME
 70
     0
  9
$SPLINETYPE
 70
     6
  9
$SPLINESEGS
 70
     8
  9
$ATTDIA
 70
     0
  9
$ATTREQ
 70
     1
  9
$HANDLING
 70
     1
  9
$HANDSEED
  5
F53
  9
$SURFTAB1
 70
     6
  9
$SURFTAB2
 70
     6
  9
$SURFTYPE
 70
     6
  9
$SURFU
 70
     6
  9
$SURFV
 70
     6
  9
$UCSNAME
  2

  9
$UCSORG
 10
0.0
 20
0.0
 30
0.0
  9
$UCSXDIR
 10
1.0
 20
0.0
 30
0.0
  9
$UCSYDIR
 10
0.0
 20
1.0
 30
0.0
  9
$PUCSNAME
  2

  9
$PUCSORG
 10
0.0
 20
0.0
 30
0.0
  9
$PUCSXDIR
 10
1.0
 20
0.0
 30
0.0
  9
$PUCSYDIR
 10
0.0
 20
1.0
 30
0.0
  9
$USERI1
 70
     4
  9
$USERI2
 70
     1
  9
$USERI3
 70
     0
  9
$USERI4
 70
     0
  9
$USERI5
 70
     0
  9
$USERR1
 40
1.0
  9
$USERR2
 40
3.0
  9
$USERR3
 40
3.0
  9
$USERR4
 40
3.0
  9
$USERR5
 40
10.0
  9
$WORLDVIEW
 70
     1
  9
$SHADEDGE
 70
     3
  9
$SHADEDIF
 70
    70
  9
$TILEMODE
 70
     1
  9
$MAXACTVP
 70
    16
  9
$PLIMCHECK
 70
     0
  9
$PEXTMIN
 10
1.0000000000000000E+020
 20
1.0000000000000000E+020
 30
1.0000000000000000E+020
  9
$PEXTMAX
 10
-1.0000000000000000E+020
 20
-1.0000000000000000E+020
 30
-1.0000000000000000E+020
  9
$PLIMMIN
 10
0.0
 20
0.0
  9
$PLIMMAX
 10
12.0
 20
9.0
  9
$UNITMODE
 70
     0
  9
$VISRETAIN
 70
     0
  9
$PLINEGEN
 70
     0
  9
$PSLTSCALE
 70
     0
  0
ENDSEC
  0
SECTION
  2
TABLES
  0
TABLE
  2
VPORT
 70
     1
  0
VPORT
  2
*ACTIVE
 70
     0
 10
0.0
 20
0.0
 11
1.0
 21
1.0
 12
238.64370702934241
 22
297.88796641272529
 13
0.0
 23
0.0
 14
10.0
 24
10.0
 15
10.0
 25
10.0
 16
0.0
 26
0.0
 36
1.0
 17
0.0
 27
0.0
 37
0.0
 40
607.06000887741345
 41
1.7807262569832401
 42
50.0
 43
0.0
 44
0.0
 50
0.0
 51
0.0
 71
     0
 72
   100
 73
     1
 74
     0
 75
     0
 76
     0
 77
     0
 78
     0
  0
ENDTAB
  0
TABLE
  2
LTYPE
 70
     4
  0
LTYPE
  2
CONTINUOUS
 70
     0
  3
Solid Line
 72
    65
 73
     0
 40
0.0
  0
LTYPE
  2
CENTER
 70
     0
  3
____ _ ____ _ ____ _ ____ _ ____ _ ____ _ ____
 72
    65
 73
     4
 40
2.0
 49
1.25
 49
-0.25
 49
0.25
 49
-0.25
  0
LTYPE
  2
HIDDEN
 70
     0
  3
__ __ __ __ __ __ __ __ __ __ __ __ __ __ __ __
 72
    65
 73
     2
 40
0.375
 49
0.25
 49
-0.125
  0
LTYPE
  2
PHANTOM2
 70
     0
  3
___ _ _ ___ _ _ ___ _ _ ___ _ _
 72
    65
 73
     6
 40
1.25
 49
0.625
 49
-0.125
 49
0.125
 49
-0.125
 49
0.125
 49
-0.125
  0
ENDTAB
  0
TABLE
  2
LAYER
 70
     4
  0
LAYER
  2
0
 70
     0
 62
     7
  6
CONTINUOUS
  0
LAYER
  2
1
 70
     0
 62
     1
  6
CENTER
  0
LAYER
  2
3
 70
     0
 62
     3
  6
CONTINUOUS
  0
LAYER
  2
2
 70
     0
 62
     2
  6
HIDDEN
  0
ENDTAB
  0
TABLE
  2
STYLE
 70
     3
  0
STYLE
  2
STANDARD
 70
     0
 40
0.0
 41
1.0
 50
0.0
 71
     0
 42
0.2
  3
SIMPLEX
  4
BIGFONT
  0
STYLE
  2
ROMANS
 70
     0
 40
0.0
 41
1.0
 50
0.0
 71
     0
 42
0.18
  3
romans
  4

  0
STYLE
  2
STANDARD1
 70
     0
 40
0.0
 41
1.0
 50
0.0
 71
     0
 42
3.0
  3
txt
  4

  0
ENDTAB
  0
TABLE
  2
VIEW
 70
     0
  0
ENDTAB
  0
TABLE
  2
UCS
 70
     0
  0
ENDTAB
  0
TABLE
  2
APPID
 70
    40
  0
APPID
  2
ACAD
 70
     0
  0
APPID
  2
GENIUS_GENOBJ_13
 70
     0
  0
APPID
  2
GENIUS_GENODEF_13
 70
     0
  0
APPID
  2
GENIUS_GENOENT_13
 70
     0
  0
APPID
  2
GENIUS_GENOLIS_13
 70
     0
  0
APPID
  2
GENIUS_GENOREF_13
 70
     0
  0
APPID
  2
GENIUS_GENOBJ-N-TIT_13
 70
     0
  0
APPID
  2
GENIUS_GENTITLE_13
 70
     0
  0
APPID
  2
GENIUS_GENZVEED_13
 70
     0
  0
APPID
  2
GENIUS_GENOBJ-N-FIL_13
 70
     0
  0
APPID
  2
GENIUS_GENOBJ-N-CRS_13
 70
     0
  0
APPID
  2
GENIUS_GEFINERT_13
 70
     0
  0
APPID
  2
GENIUS_GENOBJ-F-INER_13
 70
     0
  0
APPID
  2
GENIUS_GENOBJ-N-ZOO_13
 70
     0
  0
APPID
  2
GENIUS_GENZOO_13
 70
     0
  0
APPID
  2
GENIUS_GENOBJ-F-TOL_13
 70
     0
  0
APPID
  2
GENIUS_GENOBJ-N-RSSYM_13
 70
     0
  0
APPID
  2
GENIUS_GENSYMENT_13
 70
     0
  0
APPID
  2
GENIUS_GENBH_13
 70
     0
  0
APPID
  2
GENIUS_GENOBJ-NBEHI-BHF_13
 70
     0
  0
APPID
  2
GENIUS_GENOBJ-NBEHI-BHB_13
 70
     0
  0
APPID
  2
GENIUS_GENOBJ-F-PART_13
 70
     0
  0
APPID
  2
GENIUS_GEFSTDP_13
 70
     0
  0
APPID
  2
GENIUS_GENOBJ-N-LEADER_13
 70
     0
  0
APPID
  2
GENIUS_GENOBJ-N-REV_13
 70
     0
  0
APPID
  2
GENIUS_GENCFG_13
 70
     0
  0
APPID
  2
GENIUS_GENCFG0_13
 70
     0
  0
APPID
  2
GENIUS_GENCFG1_13
 70
     0
  0
APPID
  2
GENIUS_GENCFG2_13
 70
     0
  0
APPID
  2
GENIUS_GENCFG3_13
 70
     0
  0
APPID
  2
GENIUS_GEVCFG0_13
 70
     0
  0
APPID
  2
GENIUS_GENCFG4_13
 70
     0
  0
APPID
  2
GENIUS_GENOBJ-N-REC_13
 70
     0
  0
APPID
  2
GENIUS_GENFIL_13
 70
     0
  0
APPID
  2
GENIUS_GENOBJ-N-CHA_13
 70
     0
  0
APPID
  2
GENIUS_GENREC_13
 70
     0
  0
APPID
  2
MCAD_NO_VIS
 70
     0
  0
APPID
  2
ACAD_TEMP_GRAPHIC
 70
     0
  0
APPID
  2
ACAD_MLEADERVER
 70
     0
  0
APPID
  2
ACAD_NAV_VCDISPLAY
 70
     0
  0
ENDTAB
  0
TABLE
  2
DIMSTYLE
 70
     1
  0
DIMSTYLE
  2
STANDARD
 70
     0
  3

  4

  5

  6

  7

 40
1.0
 41
0.18
 42
0.0625
 43
0.38
 44
0.18
 45
0.0
 46
0.0
 47
0.0
 48
0.0
140
0.18
141
0.09
142
0.0
143
25.399999999999999
144
1.0
145
0.0
146
1.0
147
0.09
 71
     0
 72
     0
 73
     1
 74
     1
 75
     0
 76
     0
 77
     0
 78
     0
170
     0
171
     2
172
     0
173
     0
174
     0
175
     0
176
     0
177
     0
178
     0
  0
ENDTAB
  0
ENDSEC
  0
SECTION
  2
BLOCKS
  0
BLOCK
  8
0
  2
$MODEL_SPACE
 70
     0
 10
0.0
 20
0.0
 30
0.0
  3
$MODEL_SPACE
  1

  0
ENDBLK
  5
E09
  8
0
  0
BLOCK
 67
     1
  8
0
  2
$PAPER_SPACE
 70
     0
 10
0.0
 20
0.0
 30
0.0
  3
$PAPER_SPACE
  1

  0
ENDBLK
  5
E07
 67
     1
  8
0
  0
BLOCK
  8
0
  2
STDGX5
 70
     0
 10
0.0
 20
0.0
 30
0.0
  3
STDGX5
  1

  0
ENDBLK
  5
4F
  8
0
  0
ENDSEC
  0
SECTION
  2
ENTITIES
  0
INSERT
  5
DE
  8
0
  2
STDGX5
 10
0.0
 20
0.0
 30
0.0
  0
INSERT
  5
DF
  8
0
  2
STDGX5
 10
0.0
 20
0.0
 30
0.0
  0
INSERT
  5
15C
  8
0
  2
STDGX5
 10
275.0
 20
0.0
 30
0.0
  0
INSERT
  5
15D
  8
0
  2
STDGX5
 10
275.0
 20
0.0
 30
0.0
  0
INSERT
  5
314
  8
0
  2
STDGX5
 10
0.0
 20
0.0
 30
0.0
  0
INSERT
  5
315
  8
0
  2
STDGX5
 10
0.0
 20
0.0
 30
0.0
  0
INSERT
  5
316
  8
0
  2
STDGX5
 10
275.0
 20
0.0
 30
0.0
  0
INSERT
  5
317
  8
0
  2
STDGX5
 10
275.0
 20
0.0
 30
0.0
  0
INSERT
  5
4EF
  8
0
  2
STDGX5
 10
0.0
 20
0.0
 30
0.0
  0
INSERT
  5
4F0
  8
0
  2
STDGX5
 10
0.0
 20
0.0
 30
0.0
  0
INSERT
  5
4F1
  8
0
  2
STDGX5
 10
275.0
 20
0.0
 30
0.0
  0
INSERT
  5
4F2
  8
0
  2
STDGX5
 10
275.0
 20
0.0
 30
0.0
  0
LINE
  5
D18
  8
0
 10
326.45407850280742
 20
201.6448523381631
 30
0.0
 11
464.27458416248652
 21
201.64485233816129
 31
0.0
  0
LINE
  5
D19
  8
0
 10
326.454078502806
 20
185.61921131252791
 30
0.0
 11
464.27458463942457
 21
185.6192113125264
 31
0.0
  0
LINE
  5
D1A
  8
0
 10
276.77459132332018
 20
167.62241644072131
 30
0.0
 11
324.85151440024327
 21
167.6224164407206
 31
0.0
  0
ARC
  5
D1B
  8
0
 10
300.81305286178178
 20
310.97943414818133
 30
0.0
 40
98.11663309207492
 50
262.41365601262009
 51
277.58634398737951
  0
ARC
  5
D1C
  8
0
 10
300.81305286178178
 20
127.56668078454381
 30
0.0
 40
98.11663309207492
 50
82.413656012620251
 51
97.586343987379735
  0
LINE
  5
D1D
  8
0
 10
290.81305286178213
 20
126.9974164407208
 30
0.0
 11
310.81305286178292
 21
126.9974164407204
 31
0.0
  0
LINE
  5
D1E
  8
0
 10
277.17523234896271
 20
167.22177541507881
 30
0.0
 11
324.4508733746037
 21
167.22177541508029
 31
0.0
  0
LINE
  5
D1F
  8
2
 10
294.98329552827079
 20
225.0724198918704
 30
0.0
 11
306.64281019529119
 21
225.0724198918704
 31
0.0
  0
LINE
  5
D20
  8
2
 10
294.98329552827079
 20
217.73459592790081
 30
0.0
 11
306.64281019529119
 21
217.73459592790039
 31
0.0
  0
LINE
  5
D21
  8
0
 10
317.83869388742391
 20
185.04228823559259
 30
0.0
 11
271.97376871508681
 21
185.04228823559259
 31
0.0
  0
LINE
  5
D22
  8
0
 10
317.83869388742539
 20
202.2217754150798
 30
0.0
 11
271.97376871508681
 21
202.2217754150798
 31
0.0
  0
LINE
  5
D23
  8
0
 10
293.12074516947519
 20
124.68972413302831
 30
0.0
 11
308.5053605540898
 21
124.68972413302831
 31
0.0
  0
LINE
  5
D24
  8
0
 10
276.77459132332172
 20
173.6320318253363
 30
0.0
 11
324.85151440024481
 21
173.6320318253363
 31
0.0
  0
LINE
  5
D25
  8
0
 10
273.569463118192
 20
212.86280105610629
 30
0.0
 11
334.41972393305952
 21
212.86280105610629
 31
0.0
  0
LINE
  5
D26
  8
0
 10
273.56946311819058
 20
174.40126259456861
 30
0.0
 11
334.4197239330565
 21
174.40126259456679
 31
0.0
  0
LINE
  5
D27
  8
0
 10
326.45407593439592
 20
184.01664720995251
 30
0.0
 11
273.56946311819058
 21
184.016647209951
 31
0.0
  0
LINE
  5
D28
  8
0
 10
326.4540770989513
 20
203.24741644072171
 30
0.0
 11
273.56946311819058
 21
203.24741644072171
 31
0.0
  0
LINE
  5
D29
  8
0
 10
278.37715542588279
 20
225.6833138766192
 30
0.0
 11
323.24895029768072
 21
225.6833138766184
 31
0.0
  0
LINE
  5
D2A
  8
3
 10
292.42202722075768
 20
125.3884420817465
 30
0.0
 11
292.42202722075768
 21
167.22177541507921
 31
0.0
  0
LINE
  5
D2B
  8
0
 10
290.81305286178213
 20
126.9974164407208
 30
0.0
 11
290.81305286178213
 21
167.22177541507921
 31
0.0
  0
LINE
  5
D2C
  8
0
 10
290.81305286178213
 20
126.9974164407208
 30
0.0
 11
293.12074516947519
 21
124.68972413302831
 31
0.0
  0
LINE
  5
D2D
  8
0
 10
271.97376871508681
 20
202.2217754150798
 30
0.0
 11
271.97376871508681
 21
185.04228823559259
 31
0.0
  0
ARC
  5
D2E
  8
0
 10
273.56946311819058
 20
176.0038266971294
 30
0.0
 40
1.602564102564102
 50
180.0
 51
270.0000000000021
  0
LINE
  5
D2F
  8
0
 10
276.77459132332018
 20
167.62241644072131
 30
0.0
 11
276.77459132332172
 21
173.6320318253363
 31
0.0
  0
LINE
  5
D30
  8
0
 10
277.17523234896117
 20
167.22177541508029
 30
0.0
 11
276.77459132332018
 21
167.62241644072131
 31
0.0
  0
ARC
  5
D31
  8
0
 10
284.01177081050059
 20
174.4333138766184
 30
0.0
 40
0.8012820512820512
 50
270.0
 51
0.0
  0
LINE
  5
D32
  8
0
 10
271.9668990156265
 20
176.0038266971294
 30
0.0
 11
271.9668990156265
 21
182.41408310738581
 31
0.0
  0
ARC
  5
D33
  8
0
 10
273.56946311819058
 20
182.41408310738581
 30
0.0
 40
1.602564102564102
 50
90.000000000001833
 51
180.0
  0
LINE
  5
D34
  8
0
 10
284.81305286178258
 20
185.04228823559259
 30
0.0
 11
284.81305286178258
 21
184.0166472099514
 31
0.0
  0
LINE
  5
D35
  8
0
 10
287.85968143765319
 20
224.82450236241709
 30
0.0
 11
287.85968143765319
 21
213.72161257030839
 31
0.0
  0
LINE
  5
D36
  8
2
 10
297.89817419502629
 20
225.0724198918704
 30
0.0
 11
297.89817419502629
 21
217.73459592790081
 31
0.0
  0
LINE
  5
D37
  8
2
 10
294.98329552827079
 20
225.0724198918704
 30
0.0
 11
294.98329552827079
 21
217.73459592790081
 31
0.0
  0
LINE
  5
D38
  8
0
 10
275.17202722075609
 20
213.72161257030839
 30
0.0
 11
275.17202722075609
 21
224.82450236241709
 31
0.0
  0
ARC
  5
D39
  8
0
 10
281.51710634157001
 20
236.71309613769529
 30
0.0
 40
23.850295081588769
 50
270.00000000000051
 51
285.42238565245822
  0
LINE
  5
D3A
  8
0
 10
271.9668990156265
 20
204.84998054328659
 30
0.0
 11
271.96689901562792
 21
211.2602369535426
 31
0.0
  0
ARC
  5
D3B
  8
0
 10
273.56946311819058
 20
204.84998054328619
 30
0.0
 40
1.602564102564102
 50
179.9999999999977
 51
269.99999999999801
  0
LINE
  5
D3C
  8
0
 10
278.37715542588279
 20
212.86280105610629
 30
0.0
 11
275.17202722075609
 21
213.72161257030839
 31
0.0
  0
ARC
  5
D3D
  8
0
 10
273.569463118192
 20
211.26023695354229
 30
0.0
 40
1.602564102564102
 50
90.0
 51
179.9999999999977
  0
LINE
  5
D3E
  8
0
 10
284.813052861784
 20
203.24741644072171
 30
0.0
 11
284.813052861784
 21
202.2217754150798
 31
0.0
  0
ARC
  5
D3F
  8
0
 10
281.51710634157001
 20
201.83301879503031
 30
0.0
 40
23.850295081588769
 50
74.577614347541555
 51
89.999999999999275
  0
LINE
  5
D40
  8
0
 10
278.37715542588279
 20
225.6833138766192
 30
0.0
 11
275.17202722075609
 21
224.82450236241709
 31
0.0
  0
LINE
  5
D41
  8
2
 10
294.37240154352281
 20
225.6833138766188
 30
0.0
 11
294.98329552827079
 21
225.0724198918704
 31
0.0
  0
LINE
  5
D42
  8
0
 10
310.81305286178292
 20
126.9974164407204
 30
0.0
 11
310.81305286178292
 21
167.22177541507989
 31
0.0
  0
LINE
  5
D43
  8
3
 10
309.20407850280873
 20
125.3884420817465
 30
0.0
 11
309.20407850280719
 21
167.22177541507989
 31
0.0
  0
LINE
  5
D44
  8
1
 10
300.81305286178332
 20
119.68972413302831
 30
0.0
 11
300.81305286178178
 21
230.6833138766188
 31
0.0
  0
LINE
  5
D45
  8
0
 10
308.5053605540898
 20
124.68972413302831
 30
0.0
 11
310.81305286178292
 21
126.9974164407204
 31
0.0
  0
ARC
  5
D46
  8
2
 10
326.454078502806
 20
193.63203182533749
 30
0.0
 40
9.6153846153846132
 50
303.55730976203853
 51
56.442690238132784
  0
ARC
  5
D47
  8
2
 10
326.454078502806
 20
193.63203182533749
 30
0.0
 40
8.0128205128205128
 50
269.99999999999937
 51
89.999999999999204
  0
LINE
  5
D48
  8
0
 10
317.83869388742539
 20
202.2217754150798
 30
0.0
 11
317.83869388742391
 21
185.04228823559259
 31
0.0
  0
LINE
  5
D49
  8
2
 10
345.68484773357659
 20
185.66638639508579
 30
0.0
 11
345.68484773357659
 21
201.5976772555895
 31
0.0
  0
ARC
  5
D4A
  8
0
 10
326.454078502806
 20
193.63203182533749
 30
0.0
 40
8.0128205128205128
 50
89.999999999999346
 51
269.9999999999992
  0
LINE
  5
D4B
  8
0
 10
334.4197239330565
 20
174.40126259456679
 30
0.0
 11
345.68484773357659
 21
185.66638639508579
 31
0.0
  0
ARC
  5
D4C
  8
0
 10
317.6143349130644
 20
174.4333138766184
 30
0.0
 40
0.8012820512820512
 50
180.00000000000099
 51
270.0
  0
LINE
  5
D4D
  8
0
 10
324.85151440024481
 20
173.6320318253363
 30
0.0
 11
324.85151440024327
 21
167.6224164407206
 31
0.0
  0
LINE
  5
D4E
  8
0
 10
324.85151440024327
 20
167.6224164407206
 30
0.0
 11
324.45087337460228
 21
167.22177541507961
 31
0.0
  0
LINE
  5
D4F
  8
0
 10
316.8130528617823
 20
185.04228823559259
 30
0.0
 11
316.8130528617823
 21
184.01664720995211
 31
0.0
  0
ARC
  5
D50
  8
0
 10
326.454078502806
 20
193.63203182533749
 30
0.0
 40
9.6153846153846132
 50
269.99998469545
 51
303.55730976203853
  0
LINE
  5
D51
  8
0
 10
334.41972393305952
 20
212.86280105610629
 30
0.0
 11
345.68484773357659
 21
201.5976772555895
 31
0.0
  0
LINE
  5
D52
  8
0
 10
313.76642428591191
 20
224.82450236241709
 30
0.0
 11
313.76642428591191
 21
213.72161257030839
 31
0.0
  0
LINE
  5
D53
  8
2
 10
303.72793152853581
 20
225.0724198918704
 30
0.0
 11
303.72793152853581
 21
217.73459592790039
 31
0.0
  0
LINE
  5
D54
  8
2
 10
306.64281019529119
 20
225.0724198918704
 30
0.0
 11
306.64281019529119
 21
217.73459592790081
 31
0.0
  0
LINE
  5
D55
  8
0
 10
326.454078502806
 20
213.72161257030839
 30
0.0
 11
326.454078502806
 21
224.82450236241709
 31
0.0
  0
ARC
  5
D56
  8
0
 10
320.10899938199202
 20
236.71309613769819
 30
0.0
 40
23.850295081588769
 50
254.57761434755119
 51
270.00000000000892
  0
LINE
  5
D57
  8
0
 10
316.81305286178377
 20
203.24741644072171
 30
0.0
 11
316.81305286178377
 21
202.2217754150798
 31
0.0
  0
ARC
  5
D58
  8
0
 10
326.454078502806
 20
193.63203182533749
 30
0.0
 40
9.6153846153846132
 50
56.442690238132784
 51
90.000008365239225
  0
LINE
  5
D59
  8
0
 10
323.24895029767782
 20
212.86280105610629
 30
0.0
 11
326.454078502806
 21
213.72161257030839
 31
0.0
  0
ARC
  5
D5A
  8
0
 10
320.10899938199202
 20
201.83301879502699
 30
0.0
 40
23.850295081588769
 50
89.999999999990834
 51
105.4223856524485
  0
LINE
  5
D5B
  8
2
 10
307.25370418003928
 20
225.6833138766188
 30
0.0
 11
306.64281019529119
 21
225.0724198918704
 31
0.0
  0
LINE
  5
D5C
  8
0
 10
323.24895029768072
 20
225.6833138766184
 30
0.0
 11
326.454078502806
 21
224.82450236241709
 31
0.0
  0
ARC
  5
D5D
  8
2
 10
456.26175648883083
 20
193.6320318253407
 30
0.0
 40
8.0128205128205128
 50
89.999948796353593
 51
270.00004813950801
  0
ARC
  5
D5E
  8
0
 10
464.27458463942457
 20
193.6320318253407
 30
0.0
 40
8.0128205128205128
 50
269.99995186049199
 51
90.000051203646379
  0
LINE
  5
D5F
  8
0
 10
337.67202722075899
 20
452.09047145803362
 30
0.0
 11
440.44337326643358
 21
452.09047145803362
 31
0.0
  0
LINE
  5
D60
  8
0
 10
337.67202722075899
 20
352.73149709905999
 30
0.0
 11
440.44337326643222
 21
352.73149709905999
 31
0.0
  0
ARC
  5
D61
  8
0
 10
425.58960911096852
 20
416.83406120162329
 30
0.0
 40
19.23076923076923
 50
26.743683950403408
 51
89.999999999998394
  0
ARC
  5
D62
  8
0
 10
425.58960911096989
 20
387.98790735547021
 30
0.0
 40
19.23076923076923
 50
270.0
 51
333.25631604959898
  0
LINE
  5
D63
  8
0
 10
303.7279315285387
 20
407.25213201548991
 30
0.0
 11
297.89817419502782
 21
407.25213201548991
 31
0.0
  0
LINE
  5
D64
  8
0
 10
297.89817419502782
 20
397.15469611805412
 30
0.0
 11
303.7279315285387
 21
397.15469611805412
 31
0.0
  0
CIRCLE
  5
D65
  8
0
 10
300.81305286178321
 20
402.20341406677198
 30
0.0
 40
6.0096153846153841
  0
TEXT
  5
D66
  8
3
 10
294.35145866344459
 20
384.41474369665559
 30
0.0
 40
3.0769230769230762
  1
70 N m
 41
0.9
 72
     1
 11
301.55145866344458
 21
384.41474369665559
 31
0.0
  0
TEXT
  5
D67
  8
3
 10
292.5317341804631
 20
416.44433530722569
 30
0.0
 40
3.0769230769230762
  1
2290 Kg
 41
0.9
 72
     1
 11
300.81305286178178
 21
416.44433530722569
 31
0.0
  0
TEXT
  5
D68
  8
3
 10
290.71195396068288
 20
411.44542425795572
 30
0.0
 40
3.0769230769230762
  1
M20 X 2.5
 41
0.9
 72
     1
 11
300.81305286178178
 21
411.44542425795572
 31
0.0
  0
TEXT
  5
D69
  8
3
 10
293.77123888322478
 20
389.7480516718818
 30
0.0
 40
3.0769230769230762
  1
TORQUE
 41
0.9
 72
     1
 11
301.55145866344458
 21
389.7480516718818
 31
0.0
  0
LINE
  5
D6A
  8
0
 10
345.68484773357812
 20
431.04956791292591
 30
0.0
 11
274.0181810669124
 21
431.0495679129283
 31
0.0
  0
LINE
  5
D6B
  8
0
 10
345.68484773357812
 20
373.35726022061863
 30
0.0
 11
274.0181810669124
 21
373.35726022061931
 31
0.0
  0
LINE
  5
D6C
  8
0
 10
313.22646102270193
 20
379.7675166308735
 30
0.0
 11
288.39964470086011
 21
379.7675166308764
 31
0.0
  0
LINE
  5
D6D
  8
0
 10
288.39964470086449
 20
424.639311502672
 30
0.0
 11
313.2264610227063
 21
424.63931150266939
 31
0.0
  0
CIRCLE
  5
D6E
  8
0
 10
300.81305286178321
 20
402.20341406677198
 30
0.0
 40
22.435897435897949
  0
LINE
  5
D6F
  8
0
 10
271.96689901562939
 20
375.40854227190169
 30
0.0
 11
271.96689901563082
 21
428.99828586164642
 31
0.0
  0
LINE
  5
D70
  8
0
 10
287.58969980605258
 20
380.23513853392228
 30
0.0
 11
275.17629164513392
 21
401.73579216372832
 31
0.0
  0
LINE
  5
D71
  8
0
 10
274.0181810669124
 20
373.35726022061931
 30
0.0
 11
271.96689901562939
 21
375.40854227190169
 31
0.0
  0
ARC
  5
D72
  8
0
 10
300.81305286178321
 20
402.20341406677198
 30
0.0
 40
25.64102564102539
 50
238.95502437185499
 51
241.044975628141
  0
LINE
  5
D73
  8
0
 10
297.89817419502782
 20
407.25213201548991
 30
0.0
 11
294.9832955282738
 21
402.20341406677198
 31
0.0
  0
ARC
  5
D74
  8
0
 10
300.81305286178321
 20
402.20341406677198
 30
0.0
 40
25.64102564102539
 50
178.9550243718549
 51
181.04497562814089
  0
LINE
  5
D75
  8
0
 10
294.9832955282738
 20
402.20341406677198
 30
0.0
 11
297.89817419502782
 21
397.15469611805412
 31
0.0
  0
LINE
  5
D76
  8
0
 10
275.17629164513392
 20
402.67103596982082
 30
0.0
 11
287.58969980605548
 21
424.17168959962572
 31
0.0
  0
ARC
  5
D77
  8
0
 10
300.81305286178321
 20
402.20341406677198
 30
0.0
 40
25.64102564102539
 50
118.955024371856
 51
121.044975628141
  0
LINE
  5
D78
  8
0
 10
274.0181810669124
 20
431.0495679129283
 30
0.0
 11
271.96689901563082
 21
428.99828586164642
 31
0.0
  0
LINE
  5
D79
  8
0
 10
345.68484773357812
 20
431.04956791292591
 30
0.0
 11
345.68484773357812
 21
373.35726022061863
 31
0.0
  0
LINE
  5
D7A
  8
0
 10
336.06946311819348
 20
431.04956791292619
 30
0.0
 11
336.06946311819348
 21
373.35726022061891
 31
0.0
  0
LINE
  5
D7B
  8
0
 10
340.87715542588722
 20
368.75713812470099
 30
0.0
 11
425.58960911096989
 21
368.75713812470099
 31
0.0
  0
LINE
  5
D7C
  8
0
 10
326.44981407843261
 20
401.7357921637232
 30
0.0
 11
314.03640591751088
 21
380.23513853392012
 31
0.0
  0
ARC
  5
D7D
  8
0
 10
340.87715542588722
 20
375.1673945349574
 30
0.0
 40
6.4102564102564088
 50
196.4023589554524
 51
270.0
  0
ARC
  5
D7E
  8
0
 10
337.67202722075899
 20
371.96226632982922
 30
0.0
 40
19.23076923076923
 50
180.0
 51
270.0
  0
ARC
  5
D7F
  8
0
 10
300.81305286178321
 20
402.20341406677198
 30
0.0
 40
25.64102564102539
 50
298.95502437185598
 51
301.044975628141
  0
LINE
  5
D80
  8
0
 10
318.44125798998982
 20
373.35726022061891
 30
0.0
 11
318.44125798998982
 21
371.96226632982922
 31
0.0
  0
LINE
  5
D81
  8
0
 10
306.64281019529272
 20
402.20341406677198
 30
0.0
 11
303.7279315285387
 21
407.25213201548991
 31
0.0
  0
ARC
  5
D82
  8
3
 10
320.18618887873401
 20
402.14858634909001
 30
0.0
 40
1.755128205128204
 50
90.0
 51
167.3415880109894
  0
ARC
  5
D83
  8
3
 10
320.18618887873401
 20
402.14858634909001
 30
0.0
 40
2.5243589743589729
 50
90.0
 51
270.0
  0
ARC
  5
D84
  8
3
 10
315.90670169924692
 20
402.14858634909001
 30
0.0
 40
1.755128205128204
 50
90.0
 51
270.0
  0
ARC
  5
D85
  8
3
 10
315.90670169924692
 20
402.14858634909001
 30
0.0
 40
2.5243589743589729
 50
90.0
 51
270.0
  0
ARC
  5
D86
  8
3
 10
300.81305286178321
 20
402.20341406677198
 30
0.0
 40
25.64102564102539
 50
358.95502437185598
 51
1.044975628140749
  0
CIRCLE
  5
D87
  8
3
 10
305.26729672938222
 20
386.00984681197127
 30
0.0
 40
0.4547693533305474
  0
LINE
  5
D88
  8
0
 10
303.7279315285387
 20
397.15469611805412
 30
0.0
 11
306.64281019529272
 21
402.20341406677198
 31
0.0
  0
LINE
  5
D89
  8
3
 10
315.90670169924692
 20
400.39345814396188
 30
0.0
 11
315.90670169924692
 21
399.62422737473111
 31
0.0
  0
LINE
  5
D8A
  8
3
 10
318.47372106229051
 20
402.53320173370543
 30
0.0
 11
319.80157349411752
 21
402.53320173370543
 31
0.0
  0
LINE
  5
D8B
  8
3
 10
318.47372106229051
 20
401.76397096447459
 30
0.0
 11
319.80157349411752
 21
401.76397096447459
 31
0.0
  0
LINE
  5
D8C
  8
3
 10
319.80157349411752
 20
401.76397096447459
 30
0.0
 11
319.80157349411752
 21
402.53320173370543
 31
0.0
  0
LINE
  5
D8D
  8
3
 10
320.18618887873401
 20
400.39345814396188
 30
0.0
 11
320.18618887873401
 21
399.62422737473111
 31
0.0
  0
ARC
  5
D8E
  8
3
 10
320.18618887873401
 20
402.14858634909001
 30
0.0
 40
1.755128205128204
 50
192.6584119890106
 51
270.0
  0
LINE
  5
D8F
  8
0
 10
314.03640591751531
 20
424.17168959962061
 30
0.0
 11
326.44981407843261
 21
402.6710359698157
 31
0.0
  0
LINE
  5
D90
  8
3
 10
315.90670169924692
 20
403.9037145542182
 30
0.0
 11
315.90670169924692
 21
404.67294532344891
 31
0.0
  0
ARC
  5
D91
  8
0
 10
300.81305286178321
 20
402.20341406677198
 30
0.0
 40
25.64102564102539
 50
58.955024371855409
 51
61.044975628140712
  0
LINE
  5
D92
  8
3
 10
320.18618887873401
 20
403.9037145542182
 30
0.0
 11
320.18618887873401
 21
404.67294532344891
 31
0.0
  0
LINE
  5
D93
  8
0
 10
340.87715542588722
 20
436.06483043239251
 30
0.0
 11
425.58960911096852
 21
436.06483043239251
 31
0.0
  0
ARC
  5
D94
  8
0
 10
337.67202722075899
 20
432.85970222726439
 30
0.0
 40
19.23076923076923
 50
90.0
 51
180.0
  0
ARC
  5
D95
  8
0
 10
340.87715542588722
 20
429.6545740221361
 30
0.0
 40
6.4102564102564088
 50
90.0
 51
167.43077345170451
  0
LINE
  5
D96
  8
0
 10
318.44125798998982
 20
432.85970222726439
 30
0.0
 11
318.44125798998982
 21
431.04956791292688
 31
0.0
  0
ARC
  5
D97
  8
0
 10
396.96689901562928
 20
402.41098427854638
 30
0.0
 40
75.320512820512803
 50
331.06147225982107
 51
28.93852774018092
  0
ARC
  5
D98
  8
0
 10
396.96689901562928
 20
402.41098427854638
 30
0.0
 40
51.28205128205127
 50
333.25631604959898
 51
26.743683950403408
  0
TEXT
  5
D99
  8
3
 10
453.40414090435729
 20
381.81594839902368
 30
0.0
 40
6.4102564102564088
  1
S
 50
247.0395860429428
  7
ROMANS
 72
     1
 11
452.2133745666564
 21
379.00528114469802
 31
0.0
  0
ARC
  5
D9A
  8
0
 10
440.44337326643358
 20
378.37252274008563
 30
0.0
 40
25.641025641025639
 50
269.99999999999801
 51
331.06147225982107
  0
TEXT
  5
D9B
  8
3
 10
456.94983327787071
 20
405.92103329571432
 30
0.0
 40
6.4102564102564088
  1
G
 50
270.29121871558488
  7
ROMANS
 72
     1
 11
456.96612399436373
 21
402.7159464912948
 31
0.0
  0
TEXT
  5
D9C
  8
3
 10
455.74610270455128
 20
389.9097954827663
 30
0.0
 40
6.4102564102564088
  1
N
 50
254.7901302671568
  7
ROMANS
 72
     1
 11
454.86517795292139
 21
386.66965980760239
 31
0.0
  0
TEXT
  5
D9D
  8
3
 10
456.87523257846539
 20
397.79964862222562
 30
0.0
 40
6.4102564102564088
  1
E
 50
262.54067449137102
  7
ROMANS
 72
     1
 11
456.45913537039382
 21
394.62164454344548
 31
0.0
  0
TEXT
  5
D9E
  8
3
 10
455.90714828054269
 20
414.12941097334237
 30
0.0
 40
6.4102564102564088
  1
R
 50
278.04176293979913
  7
ROMANS
 72
     1
 11
456.3768807537694
 21
410.8046765455872
 31
0.0
  0
TEXT
  5
D9F
  8
3
 10
453.82989256152848
 20
421.82419657868729
 30
0.0
 40
6.4102564102564088
  1
E
 50
285.79230716401321
  7
ROMANS
 72
     1
 11
454.70217157461508
 21
418.7400474035278
 31
0.0
  0
ARC
  5
DA0
  8
0
 10
440.44337326643222
 20
426.44944581700793
 30
0.0
 40
25.641025641025639
 50
28.93852774018098
 51
89.999999999998394
  0
TEXT
  5
DA1
  8
3
 10
451.11910146335379
 20
428.3359660481546
 30
0.0
 40
6.4102564102564088
  1
J
 50
293.54285138822718
  7
ROMANS
 72
     1
 11
451.97259467823739
 21
426.37707375247771
 31
0.0
  0
LINE
  5
DA4
  8
1
 10
477.28740515224519
 20
193.63203182533741
 30
0.0
 11
313.4412579899855
 21
193.63203182533749
 31
0.0
  0
LINE
  5
DA5
  8
1
 10
326.454078502806
 20
206.64485233815799
 30
0.0
 11
326.454078502806
 21
180.619211312517
 31
0.0
  0
LINE
  5
DA7
  8
1
 10
477.28741183614233
 20
402.41098427854638
 30
0.0
 11
266.96689901563008
 21
402.41098427854638
 31
0.0
  0
LINE
  5
DA8
  8
1
 10
396.96689901562928
 20
458.69303556059771
 30
0.0
 11
396.96689901562928
 21
346.12893299649522
 31
0.0
  0
TEXT
  5
EBC
  8
0
 62
     3
 10
0.0
 20
0.0
 30
0.0
 40
10.0
  1
HR20SP
  7
STANDARD1
  0
ENDSEC
  0
EOF
