  0
SECTION
  2
HEADER
  9
$ACADVER
  1
AC1009
  9
$INSBASE
 10
0.0
 20
0.0
 30
0.0
  9
$EXTMIN
 10
-0.0176197777955167
 20
-1.4926427514836851
 30
-0.0000000000000058
  9
$EXTMAX
 10
194.78820717824081
 20
131.37876812392369
 30
0.0000000000000104
  9
$LIMMIN
 10
0.0
 20
0.0
  9
$LIMMAX
 10
385.0
 20
270.0
  9
$ORTHOMODE
 70
     1
  9
$REGENMODE
 70
     1
  9
$FILLMODE
 70
     1
  9
$QTEXTMODE
 70
     0
  9
$MIRRTEXT
 70
     0
  9
$DRAGMODE
 70
     2
  9
$LTSCALE
 40
5.0
  9
$OSMODE
 70
    37
  9
$ATTMODE
 70
     1
  9
$TEXTSIZE
 40
4.000000000000048
  9
$TRACEWID
 40
0.05
  9
$TEXTSTYLE
  7
STANDARD
  9
$CLAYER
  8
0
  9
$CELTYPE
  6
BYLAYER
  9
$CECOLOR
 62
   256
  9
$DIMSCALE
 40
1.0
  9
$DIMASZ
 40
3.0
  9
$DIMEXO
 40
2.0
  9
$DIMDLI
 40
0.38
  9
$DIMRND
 40
0.0
  9
$DIMDLE
 40
0.0
  9
$DIMEXE
 40
2.0
  9
$DIMTP
 40
0.0
  9
$DIMTM
 40
0.0
  9
$DIMTXT
 40
3.0
  9
$DIMCEN
 40
0.0
  9
$DIMTSZ
 40
0.0
  9
$DIMTOL
 70
     0
  9
$DIMLIM
 70
     0
  9
$DIMTIH
 70
     0
  9
$DIMTOH
 70
     0
  9
$DIMSE1
 70
     0
  9
$DIMSE2
 70
     0
  9
$DIMTAD
 70
     1
  9
$DIMZIN
 70
     0
  9
$DIMBLK
  1

  9
$DIMASO
 70
     0
  9
$DIMSHO
 70
     0
  9
$DIMPOST
  1

  9
$DIMAPOST
  1

  9
$DIMALT
 70
     0
  9
$DIMALTD
 70
     2
  9
$DIMALTF
 40
25.399999999999999
  9
$DIMLFAC
 40
1.0
  9
$DIMTOFL
 70
     1
  9
$DIMTVP
 40
1.6000000000000001
  9
$DIMTIX
 70
     1
  9
$DIMSOXD
 70
     0
  9
$DIMSAH
 70
     0
  9
$DIMBLK1
  1

  9
$DIMBLK2
  1

  9
$DIMSTYLE
  2
STANDARD
  9
$DIMCLRD
 70
     0
  9
$DIMCLRE
 70
     0
  9
$DIMCLRT
 70
     0
  9
$DIMTFAC
 40
1.0
  9
$DIMGAP
 40
1.0
  9
$LUNITS
 70
     2
  9
$LUPREC
 70
     4
  9
$SKETCHINC
 40
0.1
  9
$FILLETRAD
 40
0.0
  9
$AUNITS
 70
     0
  9
$AUPREC
 70
     4
  9
$MENU
  1
E:\r13\win\SUPPORT\ACAD
  9
$ELEVATION
 40
0.0
  9
$PELEVATION
 40
0.0
  9
$THICKNESS
 40
0.0
  9
$LIMCHECK
 70
     0
  9
$BLIPMODE
 70
     0
  9
$CHAMFERA
 40
0.0
  9
$CHAMFERB
 40
0.0
  9
$SKPOLY
 70
     0
  9
$TDCREATE
 40
2450280.598206134
  9
$TDUPDATE
 40
2457161.5646741781
  9
$TDINDWG
 40
0.0860499884
  9
$TDUSRTIMER
 40
0.0860499884
  9
$USRTIMER
 70
     1
  9
$ANGBASE
 50
0.0
  9
$ANGDIR
 70
     0
  9
$PDMODE
 70
     0
  9
$PDSIZE
 40
0.0
  9
$PLINEWID
 40
0.0
  9
$COORDS
 70
     1
  9
$SPLFRAME
 70
     0
  9
$SPLINETYPE
 70
     6
  9
$SPLINESEGS
 70
     8
  9
$ATTDIA
 70
     0
  9
$ATTREQ
 70
     1
  9
$HANDLING
 70
     1
  9
$HANDSEED
  5
92F
  9
$SURFTAB1
 70
     6
  9
$SURFTAB2
 70
     6
  9
$SURFTYPE
 70
     6
  9
$SURFU
 70
     6
  9
$SURFV
 70
     6
  9
$UCSNAME
  2

  9
$UCSORG
 10
0.0
 20
0.0
 30
0.0
  9
$UCSXDIR
 10
1.0
 20
0.0
 30
0.0
  9
$UCSYDIR
 10
0.0
 20
1.0
 30
0.0
  9
$PUCSNAME
  2

  9
$PUCSORG
 10
0.0
 20
0.0
 30
0.0
  9
$PUCSXDIR
 10
1.0
 20
0.0
 30
0.0
  9
$PUCSYDIR
 10
0.0
 20
1.0
 30
0.0
  9
$USERI1
 70
     3
  9
$USERI2
 70
     1
  9
$USERI3
 70
     1
  9
$USERI4
 70
     0
  9
$USERI5
 70
     0
  9
$USERR1
 40
1.0
  9
$USERR2
 40
3.0
  9
$USERR3
 40
3.0
  9
$USERR4
 40
3.0
  9
$USERR5
 40
10.0
  9
$WORLDVIEW
 70
     1
  9
$SHADEDGE
 70
     3
  9
$SHADEDIF
 70
    70
  9
$TILEMODE
 70
     1
  9
$MAXACTVP
 70
    16
  9
$PLIMCHECK
 70
     0
  9
$PEXTMIN
 10
1.0000000000000000E+020
 20
1.0000000000000000E+020
 30
1.0000000000000000E+020
  9
$PEXTMAX
 10
-1.0000000000000000E+020
 20
-1.0000000000000000E+020
 30
-1.0000000000000000E+020
  9
$PLIMMIN
 10
0.0
 20
0.0
  9
$PLIMMAX
 10
12.0
 20
9.0
  9
$UNITMODE
 70
     0
  9
$VISRETAIN
 70
     0
  9
$PLINEGEN
 70
     0
  9
$PSLTSCALE
 70
     0
  0
ENDSEC
  0
SECTION
  2
TABLES
  0
TABLE
  2
VPORT
 70
     1
  0
VPORT
  2
*ACTIVE
 70
     0
 10
0.0
 20
0.0
 11
1.0
 21
1.0
 12
97.385293700222633
 22
64.943062686220003
 13
0.0
 23
0.0
 14
5.0
 24
5.0
 15
10.0
 25
10.0
 16
0.0
 26
0.0
 36
1.0
 17
0.0
 27
0.0
 37
0.0
 40
143.33968673796571
 41
1.368715083798882
 42
50.0
 43
0.0
 44
0.0
 50
0.0
 51
0.0
 71
     0
 72
   500
 73
     1
 74
     0
 75
     0
 76
     0
 77
     0
 78
     2
  0
ENDTAB
  0
TABLE
  2
LTYPE
 70
     4
  0
LTYPE
  2
CONTINUOUS
 70
     0
  3
Solid Line
 72
    65
 73
     0
 40
0.0
  0
LTYPE
  2
CENTER
 70
     0
  3
____ _ ____ _ ____ _ ____ _ ____ _ ____ _ ____
 72
    65
 73
     4
 40
2.0
 49
1.25
 49
-0.25
 49
0.25
 49
-0.25
  0
LTYPE
  2
HIDDEN
 70
     0
  3
_ _ _ _ _ _ _ _ _ _ _ _ _ _ _ _ _ _ _ _ _ _ _
 72
    65
 73
     2
 40
0.375
 49
0.25
 49
-0.125
  0
LTYPE
  2
PHANTOM2
 70
     0
  3
___ _ _ ___ _ _ ___ _ _ ___ _ _
 72
    65
 73
     6
 40
1.25
 49
0.625
 49
-0.125
 49
0.125
 49
-0.125
 49
0.125
 49
-0.125
  0
ENDTAB
  0
TABLE
  2
LAYER
 70
     4
  0
LAYER
  2
0
 70
     0
 62
     7
  6
CONTINUOUS
  0
LAYER
  2
1
 70
     0
 62
     1
  6
CENTER
  0
LAYER
  2
3
 70
     0
 62
     3
  6
CONTINUOUS
  0
LAYER
  2
2
 70
     0
 62
     2
  6
HIDDEN
  0
ENDTAB
  0
TABLE
  2
STYLE
 70
     2
  0
STYLE
  2
STANDARD
 70
     0
 40
0.0
 41
1.0
 50
0.0
 71
     0
 42
4.000000000000048
  3
SIMPLEX
  4
BIGFONT
  0
STYLE
  2
STANDARD1
 70
     0
 40
0.0
 41
1.0
 50
0.0
 71
     0
 42
3.0
  3
txt
  4

  0
ENDTAB
  0
TABLE
  2
VIEW
 70
     0
  0
ENDTAB
  0
TABLE
  2
UCS
 70
     0
  0
ENDTAB
  0
TABLE
  2
APPID
 70
     4
  0
APPID
  2
ACAD
 70
     0
  0
APPID
  2
ACAD_MLEADERVER
 70
     0
  0
APPID
  2
ACAD_NAV_VCDISPLAY
 70
     0
  0
APPID
  2
ACAD_EXEMPT_FROM_CAD_STANDARDS
 70
     0
  0
ENDTAB
  0
TABLE
  2
DIMSTYLE
 70
     1
  0
DIMSTYLE
  2
STANDARD
 70
     0
  3

  4

  5

  6

  7

 40
1.0
 41
0.18
 42
0.0625
 43
0.38
 44
0.18
 45
0.0
 46
0.0
 47
0.0
 48
0.0
140
0.18
141
0.09
142
0.0
143
25.399999999999999
144
1.0
145
0.0
146
1.0
147
0.09
 71
     0
 72
     0
 73
     1
 74
     1
 75
     0
 76
     0
 77
     0
 78
     0
170
     0
171
     2
172
     0
173
     0
174
     0
175
     0
176
     0
177
     0
178
     0
  0
ENDTAB
  0
ENDSEC
  0
SECTION
  2
BLOCKS
  0
BLOCK
  8
0
  2
$MODEL_SPACE
 70
     0
 10
0.0
 20
0.0
 30
0.0
  3
$MODEL_SPACE
  1

  0
ENDBLK
  5
175
  8
0
  0
BLOCK
 67
     1
  8
0
  2
$PAPER_SPACE
 70
     0
 10
0.0
 20
0.0
 30
0.0
  3
$PAPER_SPACE
  1

  0
ENDBLK
  5
173
 67
     1
  8
0
  0
ENDSEC
  0
SECTION
  2
ENTITIES
  0
TEXT
  5
36B
  8
0
 62
     3
 10
0.0
 20
0.0
 30
0.0
 40
5.0
  1
HPNDX10TW-SUS
  7
STANDARD1
  0
ARC
  5
471
  8
0
 10
128.32555027550461
 20
111.86747936674939
 30
0.0
 40
1.500000000000014
 50
269.01795726580031
 51
340.53770546689952
  0
ARC
  5
472
  8
0
 10
128.32555027550461
 20
129.86792001914941
 30
0.0
 40
1.500000000000014
 50
19.462294533100518
 51
90.982042734199666
  0
LINE
  5
473
  8
0
 10
128.2998417156046
 20
131.3676996929494
 30
0.0
 11
127.9398417156046
 21
131.3676996929494
 31
0.0
  0
LINE
  5
474
  8
0
 10
127.9398417156046
 20
110.3676996929493
 30
0.0
 11
128.2998417156046
 21
110.3676996929493
 31
0.0
  0
LINE
  5
475
  8
0
 10
127.9398417156046
 20
131.3676996929494
 30
0.0
 11
122.4343140338046
 21
127.3676996929493
 31
0.0
  0
LINE
  5
476
  8
0
 10
122.4343140338046
 20
114.3676996929493
 30
0.0
 11
127.9398417156046
 21
110.3676996929493
 31
0.0
  0
LINE
  5
477
  8
0
 10
122.4343140338046
 20
127.3676996929493
 30
0.0
 11
115.7398417156046
 21
127.3676996929493
 31
0.0
  0
LINE
  5
478
  8
0
 10
115.7398417156046
 20
114.3676996929493
 30
0.0
 11
122.4343140338046
 21
114.3676996929493
 31
0.0
  0
LINE
  5
479
  8
0
 10
115.7398417156046
 20
127.3676996929493
 30
0.0
 11
115.2398417156046
 21
126.8676996929493
 31
0.0
  0
LINE
  5
47A
  8
0
 10
115.2398417156046
 20
114.8676996929493
 30
0.0
 11
115.7398417156046
 21
114.3676996929493
 31
0.0
  0
LINE
  5
47B
  8
0
 10
98.739841715604598
 20
125.8676996929493
 30
0.0
 11
95.239841715604598
 21
125.8676996929493
 31
0.0
  0
LINE
  5
47C
  8
0
 10
95.239841715604598
 20
115.8676996929493
 30
0.0
 11
98.739841715604598
 21
115.8676996929493
 31
0.0
  0
LINE
  5
47D
  8
0
 10
108.2398417156046
 20
125.8676996929493
 30
0.0
 11
103.7398417156046
 21
125.8676996929493
 31
0.0
  0
LINE
  5
47E
  8
0
 10
103.7398417156046
 20
115.8676996929493
 30
0.0
 11
108.2398417156046
 21
115.8676996929493
 31
0.0
  0
LINE
  5
47F
  8
0
 10
95.239841715604598
 20
125.8676996929493
 30
0.0
 11
94.239841715704614
 21
124.8676996929493
 31
0.0
  0
LINE
  5
480
  8
0
 10
94.239841715704614
 20
116.8676996929493
 30
0.0
 11
95.239841715604598
 21
115.8676996929493
 31
0.0
  0
LINE
  5
481
  8
0
 10
94.239841715704614
 20
124.8676996929493
 30
0.0
 11
91.239841715604598
 21
124.8676996929494
 31
0.0
  0
LINE
  5
482
  8
0
 10
91.239841715604598
 20
116.8676996929494
 30
0.0
 11
94.239841715704614
 21
116.8676996929493
 31
0.0
  0
ARC
  5
483
  8
0
 10
91.039841715604581
 20
118.26769969294941
 30
0.0
 40
0.2000000000000087
 50
0.0
 51
150.0
  0
ARC
  5
484
  8
0
 10
91.039841715604581
 20
123.4676996929494
 30
0.0
 40
0.2000000000000087
 50
210.0
 51
0.0
  0
LINE
  5
485
  8
0
 10
90.866636634904594
 20
123.3676996929494
 30
0.0
 11
90.239841715604598
 21
123.3676996929494
 31
0.0
  0
LINE
  5
486
  8
0
 10
90.239841715604598
 20
118.3676996929494
 30
0.0
 11
90.866636634904594
 21
118.3676996929494
 31
0.0
  0
LINE
  5
487
  8
0
 10
90.239841715604598
 20
123.3676996929494
 30
0.0
 11
86.670516033004589
 21
122.89778905214941
 31
0.0
  0
LINE
  5
488
  8
0
 10
86.670516033004589
 20
118.8376103337494
 30
0.0
 11
90.239841715604598
 21
118.3676996929494
 31
0.0
  0
ARC
  5
489
  8
0
 10
91.239841715604598
 20
120.8676996929494
 30
0.0
 40
4.9999999999984706
 50
156.04507203429779
 51
203.95492796570221
  0
LINE
  5
48A
  8
0
 10
129.7398417156046
 20
111.3676996929493
 30
0.0
 11
129.7398417156046
 21
130.3676996929494
 31
0.0
  0
LINE
  5
48B
  8
0
 10
127.9398417156046
 20
110.3676996929493
 30
0.0
 11
127.9398417156046
 21
131.3676996929494
 31
0.0
  0
LINE
  5
48C
  8
0
 10
122.4343140338046
 20
127.3676996929493
 30
0.0
 11
122.4343140338046
 21
114.3676996929493
 31
0.0
  0
ARC
  5
48D
  8
0
 10
90.394840972804587
 20
125.3087464183495
 30
0.0
 40
13.346368183070361
 50
340.56403134309937
 51
359.17981095969992
  0
ARC
  5
48F
  8
0
 10
90.374651844004603
 20
116.4230464794494
 30
0.0
 40
13.366607279983089
 50
0.834407834499506
 51
19.42175081379872
  0
LINE
  5
490
  8
0
 10
102.9806523323046
 20
120.8676997073494
 30
0.0
 11
99.499031094204611
 21
120.8676996929493
 31
0.0
  0
ARC
  5
491
  8
0
 10
90.394840972804587
 20
116.8087464183495
 30
0.0
 40
13.346368183070121
 50
340.56403134309937
 51
359.17981095969992
  0
ARC
  5
493
  8
0
 10
112.0848425374046
 20
116.8087464280494
 30
0.0
 40
13.34636826213481
 50
180.82018907729889
 51
199.43596892309799
  0
ARC
  5
494
  8
0
 10
112.1050323845046
 20
116.4230463889494
 30
0.0
 40
13.366608078459411
 50
160.57825017220179
 51
179.1655918272987
  0
ARC
  5
496
  8
0
 10
90.374652442804589
 20
124.9230465471494
 30
0.0
 40
13.366606680289919
 50
0.8344075815981334
 51
19.421751241799122
  0
ARC
  5
497
  8
0
 10
112.0848425374046
 20
125.3087464280494
 30
0.0
 40
13.34636826213454
 50
180.82018907729889
 51
199.43596892309799
  0
ARC
  5
498
  8
0
 10
112.1050323845046
 20
124.9230463889494
 30
0.0
 40
13.366608078458921
 50
160.57825017220179
 51
179.1655918272987
  0
LINE
  5
49A
  8
0
 10
108.2398417156046
 20
114.3676996929493
 30
0.0
 11
115.2398417156046
 21
114.3676996929493
 31
0.0
  0
LINE
  5
49B
  8
0
 10
108.2398417156046
 20
127.3676996929493
 30
0.0
 11
108.2398417156046
 21
114.3676996929493
 31
0.0
  0
LINE
  5
49C
  8
0
 10
114.6592851272046
 20
120.8676997073494
 30
0.0
 11
108.2398417156046
 21
120.8676996929493
 31
0.0
  0
ARC
  5
49D
  8
0
 10
105.0562581541046
 20
117.4754308696493
 30
0.0
 40
10.184577289885761
 50
0.8003933817000946
 51
19.455765466100651
  0
ARC
  5
49E
  8
0
 10
105.0348411661045
 20
117.7637942453494
 30
0.0
 40
10.206046239041219
 50
340.56403142510061
 51
359.1798109711001
  0
ARC
  5
49F
  8
0
 10
104.8929881030046
 20
124.28913385394939
 30
0.0
 40
10.34827373778713
 50
340.69307349389908
 51
359.05076890230038
  0
LINE
  5
4A2
  8
0
 10
115.2398417156046
 20
127.3676996929494
 30
0.0
 11
108.2398417156046
 21
127.3676996929493
 31
0.0
  0
ARC
  5
4A3
  8
0
 10
105.0194031884045
 20
123.9688473245494
 30
0.0
 40
10.221522426542281
 50
0.8344073997989092
 51
19.421751676899671
  0
POLYLINE
  5
4A6
  8
0
 66
     1
 10
0.0
 20
0.0
 30
0.0
 70
   128
  0
VERTEX
  5
929
  8
0
 10
98.739841715604584
 20
112.3677002420975
 30
0.0
  0
VERTEX
  5
92A
  8
0
 10
103.2914726774046
 20
112.3676996929493
 30
0.0
  0
VERTEX
  5
92B
  8
0
 10
103.53146659850459
 20
112.3676996929493
 30
0.0
  0
VERTEX
  5
92C
  8
0
 10
103.6862312146046
 20
112.3676996929493
 30
0.0
  0
VERTEX
  5
92D
  8
0
 10
103.7398417156046
 20
112.3676996929493
 30
0.0
  0
SEQEND
  5
92E
  8
0
  0
LINE
  5
4A7
  8
0
 10
103.7398417156046
 20
129.3676996929494
 30
0.0
 11
103.7398417156046
 21
112.3676996929493
 31
0.0
  0
LINE
  5
4A8
  8
0
 10
103.7398417156046
 20
129.3676996929494
 30
0.0
 11
98.739841715604598
 21
129.3676996929494
 31
0.0
  0
LINE
  5
4AC
  8
0
 10
115.7398417156046
 20
127.3676996929493
 30
0.0
 11
115.7398417156046
 21
114.3676996929493
 31
0.0
  0
LINE
  5
4B0
  8
0
 10
115.2398417156046
 20
127.3676996929494
 30
0.0
 11
115.2398417156046
 21
114.3676996929493
 31
0.0
  0
LINE
  5
4B1
  8
0
 10
95.239841715604598
 20
125.8676996929493
 30
0.0
 11
95.239841715604598
 21
115.8676996929493
 31
0.0
  0
LINE
  5
4B2
  8
0
 10
94.239841715704614
 20
124.8676996929493
 30
0.0
 11
94.239841715704614
 21
116.8676996929493
 31
0.0
  0
LINE
  5
4B3
  8
0
 10
91.239841715604612
 20
124.8676996929494
 30
0.0
 11
91.239841715604598
 21
116.8676996929494
 31
0.0
  0
LINE
  5
4B5
  8
0
 10
90.866636634904594
 20
118.3676996929494
 30
0.0
 11
90.866636634904594
 21
123.3676996929494
 31
0.0
  0
LINE
  5
4B6
  8
0
 10
90.239841715604598
 20
123.3676996929494
 30
0.0
 11
90.239841715604598
 21
118.3676996929494
 31
0.0
  0
LINE
  5
4B7
  8
0
 10
86.670516033004603
 20
122.89778905214941
 30
0.0
 11
86.670516033004589
 21
118.8376103337494
 31
0.0
  0
LINE
  5
4B9
  8
0
 10
128.2998417156046
 20
110.3676996929493
 30
0.0
 11
128.2998417156046
 21
131.3676996929494
 31
0.0
  0
ARC
  5
4BA
  8
0
 10
128.32555027550461
 20
62.129675105026053
 30
0.0
 40
1.500000000000014
 50
269.01795726580031
 51
340.53770546689952
  0
ARC
  5
4BB
  8
0
 10
128.32555027550461
 20
80.130115757426069
 30
0.0
 40
1.5000000000000191
 50
19.462294533100518
 51
90.982042734199666
  0
LINE
  5
4BC
  8
0
 10
128.2998417156046
 20
81.629895431226061
 30
0.0
 11
127.9398417156046
 21
81.629895431226061
 31
0.0
  0
LINE
  5
4BD
  8
0
 10
127.9398417156046
 20
60.629895431226061
 30
0.0
 11
128.2998417156046
 21
60.629895431226061
 31
0.0
  0
LINE
  5
4BE
  8
0
 10
127.9398417156046
 20
81.629895431226061
 30
0.0
 11
122.4343140338046
 21
77.629895431226061
 31
0.0
  0
LINE
  5
4BF
  8
0
 10
122.4343140338046
 20
64.629895431226061
 30
0.0
 11
127.9398417156046
 21
60.629895431226061
 31
0.0
  0
LINE
  5
4C0
  8
0
 10
122.4343140338046
 20
77.629895431226061
 30
0.0
 11
115.7398417156046
 21
77.629895431226061
 31
0.0
  0
LINE
  5
4C1
  8
0
 10
115.7398417156046
 20
64.629895431226061
 30
0.0
 11
122.4343140338046
 21
64.629895431226061
 31
0.0
  0
LINE
  5
4C2
  8
0
 10
115.7398417156046
 20
77.629895431226061
 30
0.0
 11
115.2398417156046
 21
77.129895431126045
 31
0.0
  0
LINE
  5
4C3
  8
0
 10
115.2398417156046
 20
65.129895431226061
 30
0.0
 11
115.7398417156046
 21
64.629895431126045
 31
0.0
  0
LINE
  5
4C4
  8
0
 10
98.739841715604626
 20
76.129895431226061
 30
0.0
 11
95.239841715604626
 21
76.129895431226061
 31
0.0
  0
LINE
  5
4C5
  8
0
 10
95.239841715604626
 20
66.129895431226061
 30
0.0
 11
98.739841715604626
 21
66.129895431226061
 31
0.0
  0
LINE
  5
4C6
  8
0
 10
95.239841715604626
 20
76.129895431126045
 30
0.0
 11
94.239841715704657
 21
75.129895431226061
 31
0.0
  0
LINE
  5
4C7
  8
0
 10
94.239841715704657
 20
67.129895431126045
 30
0.0
 11
95.239841715604626
 21
66.129895431226061
 31
0.0
  0
LINE
  5
4C8
  8
0
 10
108.2398417156046
 20
76.129895431226061
 30
0.0
 11
103.7398417156046
 21
76.129895431226061
 31
0.0
  0
LINE
  5
4C9
  8
0
 10
103.7398417156046
 20
66.129895431226061
 30
0.0
 11
108.2398417156046
 21
66.129895431226061
 31
0.0
  0
LINE
  5
4CA
  8
0
 10
103.7398417156046
 20
79.629895431226061
 30
0.0
 11
102.9806523409046
 21
80.944850000726063
 31
0.0
  0
LINE
  5
4CB
  8
0
 10
99.499031094204639
 20
80.944850007426055
 30
0.0
 11
98.739841715604626
 21
79.629895431226061
 31
0.0
  0
LINE
  5
4CC
  8
0
 10
98.739841715604598
 20
62.629895431226061
 30
0.0
 11
99.499031094204611
 21
61.314940854926043
 31
0.0
  0
LINE
  5
4CD
  8
0
 10
102.9806523323046
 20
61.314940846626051
 30
0.0
 11
103.7398417156046
 21
62.629895431226061
 31
0.0
  0
LINE
  5
4CE
  8
0
 10
94.239841715704657
 20
75.129895431226061
 30
0.0
 11
91.239841715604626
 21
75.129895431226061
 31
0.0
  0
LINE
  5
4CF
  8
0
 10
91.239841715604626
 20
67.129895431226061
 30
0.0
 11
94.239841715704657
 21
67.129895431226061
 31
0.0
  0
LINE
  5
4D0
  8
0
 10
115.2398417156046
 20
77.629895431226061
 30
0.0
 11
114.6592851359046
 21
78.635448924026065
 31
0.0
  0
LINE
  5
4D1
  8
0
 10
114.6592851272046
 20
63.624341923426037
 30
0.0
 11
115.2398417156046
 21
64.629895431226061
 31
0.0
  0
ARC
  5
4D2
  8
0
 10
91.039841715604595
 20
68.529895431226024
 30
0.0
 40
0.2000000000000087
 50
0.0
 51
150.0
  0
ARC
  5
4D3
  8
0
 10
91.039841715604595
 20
73.729895431226055
 30
0.0
 40
0.2000000000000087
 50
210.0
 51
0.0
  0
LINE
  5
4D4
  8
0
 10
90.866636634904637
 20
73.629895431226061
 30
0.0
 11
90.239841715604626
 21
73.629895431226061
 31
0.0
  0
LINE
  5
4D5
  8
0
 10
90.239841715604626
 20
68.629895431226061
 30
0.0
 11
90.866636634904637
 21
68.629895431226061
 31
0.0
  0
LINE
  5
4D6
  8
0
 10
90.239841715604626
 20
73.629895431226061
 30
0.0
 11
86.670516033004617
 21
73.159984790326035
 31
0.0
  0
LINE
  5
4D7
  8
0
 10
86.670516033004617
 20
69.099806072026041
 30
0.0
 11
90.239841715604626
 21
68.629895431226061
 31
0.0
  0
ARC
  5
4D8
  8
0
 10
91.239841715604626
 20
71.129895431226061
 30
0.0
 40
4.9999999999984643
 50
156.04507203429779
 51
203.95492796570221
  0
LINE
  5
4D9
  8
0
 10
129.7398417156046
 20
61.629895431226061
 30
0.0
 11
129.7398417156046
 21
80.629895431226061
 31
0.0
  0
LINE
  5
4DA
  8
0
 10
127.9398417156046
 20
60.629895431226061
 30
0.0
 11
127.9398417156046
 21
81.629895431226061
 31
0.0
  0
LINE
  5
4DB
  8
0
 10
122.4343140338046
 20
77.629895431226061
 30
0.0
 11
122.4343140338046
 21
64.629895431226061
 31
0.0
  0
LINE
  5
4DC
  8
0
 10
102.9806523323046
 20
76.037372735926056
 30
0.0
 11
99.499031094204639
 21
76.037372719326044
 31
0.0
  0
ARC
  5
4DD
  8
0
 10
86.157882982104638
 20
70.922419013426065
 30
0.0
 40
17.583182856723489
 50
0.6760891390996811
 51
16.91186527680081
  0
ARC
  5
4DE
  8
0
 10
86.182730657904642
 20
71.333527821926026
 30
0.0
 40
17.55829191130886
 50
343.07654951779949
 51
359.33549697289908
  0
LINE
  5
4DF
  8
0
 10
102.9806523323046
 20
66.222418151426069
 30
0.0
 11
99.499031094204639
 21
66.222418143126049
 31
0.0
  0
ARC
  5
4E0
  8
0
 10
116.2969528705046
 20
71.333527832326041
 30
0.0
 40
17.55829200857136
 50
180.66450305729751
 51
196.92345071660111
  0
ARC
  5
4E1
  8
0
 10
116.32180191300461
 20
70.922418869726044
 30
0.0
 40
17.583184322108529
 50
163.0881357768987
 51
179.3239104491
  0
ARC
  5
4E3
  8
0
 10
98.808190156804613
 20
63.587137518526042
 30
0.0
 40
4.9349918529247372
 50
2.1081973459999581
 51
32.276050893300898
  0
ARC
  5
4E4
  8
0
 10
98.819061602504647
 20
63.946857840926072
 30
0.0
 40
4.9240049191467374
 50
327.68949104940071
 51
357.92626197729879
  0
LINE
  5
4E5
  8
0
 10
102.9806523323046
 20
61.314940846626051
 30
0.0
 11
99.499031094204611
 21
61.314940854926043
 31
0.0
  0
ARC
  5
4E6
  8
0
 10
103.6606218713046
 20
63.94685785002607
 30
0.0
 40
4.9240049619501463
 50
182.0737381107013
 51
212.31050935729999
  0
ARC
  5
4E7
  8
0
 10
103.6714933274046
 20
63.587137507726048
 30
0.0
 40
4.9349919062346856
 50
147.72394997999959
 51
177.8918025518991
  0
LINE
  5
4E8
  8
0
 10
102.9806523409046
 20
80.944850000726063
 30
0.0
 11
99.499031094204639
 21
80.944850007426055
 31
0.0
  0
ARC
  5
4E9
  8
0
 10
98.808190461204617
 20
78.309569442926062
 30
0.0
 40
4.9349915464732463
 50
2.1081967784971929
 51
32.27605125629912
  0
ARC
  5
4EA
  8
0
 10
98.819061602504647
 20
78.669289705326065
 30
0.0
 40
4.9240049191467277
 50
327.68949104940071
 51
357.92626197729879
  0
ARC
  5
4EB
  8
0
 10
103.6606218713046
 20
78.669289714426043
 30
0.0
 40
4.924004961950442
 50
182.0737381107013
 51
212.31050935729999
  0
ARC
  5
4EC
  8
0
 10
103.6714933274046
 20
78.309569372126035
 30
0.0
 40
4.934991906234873
 50
147.72394997999959
 51
177.8918025518991
  0
LINE
  5
4F0
  8
0
 10
114.6592851272046
 20
67.377118689826062
 30
0.0
 11
108.2398417156046
 21
67.377118681426055
 31
0.0
  0
LINE
  5
4F2
  8
0
 10
114.6592851272046
 20
74.882672197626079
 30
0.0
 11
108.2398417156046
 21
74.88267218092605
 31
0.0
  0
ARC
  5
4F3
  8
0
 10
101.79481479320459
 20
70.971237027826049
 30
0.0
 40
13.44596301623433
 50
0.6760890123979176
 51
16.91186560100088
  0
ARC
  5
4F4
  8
0
 10
101.8138156356046
 20
71.285614315826052
 30
0.0
 40
13.42692908576389
 50
343.0765495898994
 51
359.33549698219821
  0
LINE
  5
4F5
  8
0
 10
115.2398417156046
 20
71.129895431226061
 30
0.0
 11
115.2398417156046
 21
64.629895431226075
 31
0.0
  0
ARC
  5
4F6
  8
0
 10
111.46857877130461
 20
65.36190408872605
 30
0.0
 40
3.773817286752231
 50
2.1081973145985908
 51
32.276051161999902
  0
LINE
  5
4F7
  8
0
 10
114.6592851272046
 20
63.624341923426037
 30
0.0
 11
108.2398417156046
 21
63.624341931726072
 31
0.0
  0
LINE
  5
4F8
  8
0
 10
108.2398417156046
 20
78.635448930626055
 30
0.0
 11
108.2398417156046
 21
63.624341931726072
 31
0.0
  0
ARC
  5
4F9
  8
0
 10
111.4005098087046
 20
65.66061713272606
 30
0.0
 40
3.8426596633806458
 50
328.00042590450062
 51
357.61532727439959
  0
LINE
  5
4FA
  8
0
 10
114.6592851359046
 20
78.635448924026065
 30
0.0
 11
108.2398417156046
 21
78.63544893062604
 31
0.0
  0
ARC
  5
4FB
  8
0
 10
111.48842432290461
 20
76.626374539026045
 30
0.0
 40
3.753763182893088
 50
2.0256826012980169
 51
32.358565607798951
  0
ARC
  5
4FC
  8
0
 10
111.4768922273046
 20
76.895314579826049
 30
0.0
 40
3.765415516335223
 50
327.68949117459891
 51
357.92626200429982
  0
LINE
  5
4FE
  8
0
 10
115.7398417156046
 20
77.629895431226061
 30
0.0
 11
115.7398417156046
 21
64.629895431226061
 31
0.0
  0
LINE
  5
4FF
  8
0
 10
115.2398417156046
 20
77.629895431226046
 30
0.0
 11
115.2398417156046
 21
71.129895431226061
 31
0.0
  0
LINE
  5
500
  8
0
 10
95.239841715604626
 20
76.129895431226061
 30
0.0
 11
95.239841715604626
 21
66.129895431226061
 31
0.0
  0
LINE
  5
501
  8
0
 10
94.239841715704657
 20
75.129895431226061
 30
0.0
 11
94.239841715704657
 21
67.129895431126045
 31
0.0
  0
LINE
  5
504
  8
0
 10
98.73984171560501
 20
79.629895431226743
 30
0.0
 11
98.739841715604598
 21
62.629895431226061
 31
0.0
  0
LINE
  5
505
  8
0
 10
103.739841715605
 20
79.629895431225364
 30
0.0
 11
103.7398417156046
 21
62.629895431226061
 31
0.0
  0
LINE
  5
506
  8
0
 10
91.239841715604626
 20
75.129895431226061
 30
0.0
 11
91.239841715604626
 21
67.129895431226061
 31
0.0
  0
LINE
  5
509
  8
0
 10
90.866636634904637
 20
68.629895431226061
 30
0.0
 11
90.866636634904637
 21
73.629895431226061
 31
0.0
  0
LINE
  5
50A
  8
0
 10
90.239841715604626
 20
73.629895431226061
 30
0.0
 11
90.239841715604626
 21
68.629895431226061
 31
0.0
  0
LINE
  5
50B
  8
0
 10
86.670516033004617
 20
73.159984790326035
 30
0.0
 11
86.670516033004617
 21
69.099806072026041
 31
0.0
  0
LINE
  5
50C
  8
0
 10
128.2998417156046
 20
60.629895431226061
 30
0.0
 11
128.2998417156046
 21
81.629895431226061
 31
0.0
  0
CIRCLE
  5
50D
  8
0
 10
179.26801950750621
 20
71.129895431226061
 30
0.0
 40
10.500220326197899
  0
CIRCLE
  5
50E
  8
0
 10
179.26802798380609
 20
71.129894982126103
 30
0.0
 40
8.5316970976281663
  0
CIRCLE
  5
50F
  8
0
 10
179.26801950750621
 20
71.129895431226061
 30
0.0
 40
9.5000000000001439
  0
CIRCLE
  5
510
  8
0
 10
36.711663923704577
 20
71.129895431226061
 30
0.0
 40
10.500220326197891
  0
CIRCLE
  5
511
  8
0
 10
36.711663923704577
 20
71.129895431226061
 30
0.0
 40
2.0300893591674609
  0
CIRCLE
  5
512
  8
0
 10
36.711663923704577
 20
71.129895431226061
 30
0.0
 40
2.5
  0
CIRCLE
  5
515
  8
0
 10
36.711663923704577
 20
71.129895431226061
 30
0.0
 40
3.9999999999999858
  0
CIRCLE
  5
517
  8
0
 10
36.711663923704577
 20
71.129895431226061
 30
0.0
 40
5.0
  0
LINE
  5
519
  8
0
 10
32.461663923704577
 20
78.49111136332607
 30
0.0
 11
36.711663923704577
 21
80.944850007426083
 31
0.0
  0
LINE
  5
51A
  8
0
 10
36.711663923704577
 20
80.944850007426083
 30
0.0
 11
40.961663923704577
 21
78.49111136332607
 31
0.0
  0
LINE
  5
520
  8
0
 10
45.21166392370457
 20
76.037372719326044
 30
0.0
 11
45.21166392370457
 21
71.129895431226061
 31
0.0
  0
LINE
  5
521
  8
0
 10
40.961663923704577
 20
78.49111136332607
 30
0.0
 11
45.21166392370457
 21
76.037372719326044
 31
0.0
  0
LINE
  5
522
  8
0
 10
28.211663923704581
 20
71.129895431226075
 30
0.0
 11
28.211663923704581
 21
76.037372719326072
 31
0.0
  0
LINE
  5
523
  8
0
 10
28.211663923704581
 20
76.037372719326072
 30
0.0
 11
32.461663923704577
 21
78.49111136332607
 31
0.0
  0
LINE
  5
524
  8
0
 10
45.21166392370457
 20
66.222418143126077
 30
0.0
 11
40.961663923704577
 21
63.768679499026071
 31
0.0
  0
LINE
  5
525
  8
0
 10
45.21166392370457
 20
71.129895431226061
 30
0.0
 11
45.21166392370457
 21
66.222418143126077
 31
0.0
  0
LINE
  5
526
  8
0
 10
32.461663923704577
 20
63.768679499026071
 30
0.0
 11
28.211663923704581
 21
66.222418143126077
 31
0.0
  0
LINE
  5
527
  8
0
 10
28.211663923704581
 20
66.222418143126077
 30
0.0
 11
28.211663923704581
 21
71.129895431226075
 31
0.0
  0
LINE
  5
528
  8
0
 10
36.711663923704577
 20
61.314940855026059
 30
0.0
 11
32.461663923704577
 21
63.768679499026071
 31
0.0
  0
LINE
  5
529
  8
0
 10
40.961663923704577
 20
63.768679499026071
 30
0.0
 11
36.711663923704577
 21
61.314940855026059
 31
0.0
  0
CIRCLE
  5
52A
  8
0
 10
36.711663923704577
 20
71.129895431226061
 30
0.0
 40
10.499999999999989
  0
LINE
  5
602
  8
3
 10
94.698341715666743
 20
116.4091996929413
 30
0.0
 11
98.739841715604598
 21
116.4091996929413
 31
0.0
  0
LINE
  5
603
  8
3
 10
106.2398417156046
 20
116.4091996929413
 30
0.0
 11
107.1777472278805
 21
115.8676996929544
 31
0.0
  0
LINE
  5
604
  8
3
 10
94.698341715666643
 20
125.3261996929572
 30
0.0
 11
98.739841715604612
 21
125.3261996929572
 31
0.0
  0
LINE
  5
605
  8
3
 10
106.2398417156046
 20
125.3261996929574
 30
0.0
 11
107.1777472278805
 21
125.8676996929443
 31
0.0
  0
LINE
  5
606
  8
3
 10
103.7398417156046
 20
116.4091996929413
 30
0.0
 11
106.2398417156046
 21
116.4091996929414
 31
0.0
  0
LINE
  5
607
  8
3
 10
103.7398417156046
 20
125.3261996929572
 30
0.0
 11
106.2398417156046
 21
125.3261996929573
 31
0.0
  0
LINE
  5
608
  8
0
 10
106.2398417156046
 20
66.129895431177772
 30
0.0
 11
106.2398417156046
 21
76.129895431174333
 31
0.0
  0
LINE
  5
609
  8
3
 10
94.69834171566265
 20
66.671395431168065
 30
0.0
 11
98.739841715604726
 21
66.671395431168079
 31
0.0
  0
LINE
  5
60A
  8
3
 10
106.2398417156046
 20
66.671395431168008
 30
0.0
 11
107.1777472278805
 21
66.129895431181097
 31
0.0
  0
LINE
  5
60B
  8
3
 10
94.698341715662494
 20
75.588395431183898
 30
0.0
 11
98.739841715604925
 21
75.588395431183898
 31
0.0
  0
LINE
  5
60C
  8
3
 10
106.2398417156046
 20
75.588395431184068
 30
0.0
 11
107.1777472278805
 21
76.129895431170979
 31
0.0
  0
LINE
  5
60D
  8
3
 10
103.7398417156047
 20
66.671395431168065
 30
0.0
 11
106.2398417156046
 21
66.671395431168065
 31
0.0
  0
LINE
  5
60E
  8
3
 10
103.7398417156049
 20
75.588395431183912
 30
0.0
 11
106.2398417156046
 21
75.588395431183955
 31
0.0
  0
CIRCLE
  5
60F
  8
3
 10
36.714303747904637
 20
71.130060432026056
 30
0.0
 40
4.4585000000079162
  0
LINE
  5
610
  8
2
 10
30.21430374790555
 20
67.377283682293836
 30
0.0
 11
36.714303747905547
 21
63.624506932561609
 31
0.0
  0
LINE
  5
611
  8
2
 10
36.714303747904637
 20
78.635613931491463
 30
0.0
 11
30.214303747903731
 21
74.882837181758276
 31
0.0
  0
LINE
  5
613
  8
2
 10
30.214303747903731
 20
74.882837181758276
 30
0.0
 11
30.21430374790555
 21
67.377283682293836
 31
0.0
  0
LINE
  5
614
  8
2
 10
43.21430374790463
 20
67.377283682293836
 30
0.0
 11
43.21430374790463
 21
74.882837181760095
 31
0.0
  0
LINE
  5
616
  8
2
 10
36.714303747905547
 20
63.624506932561609
 30
0.0
 11
43.21430374790463
 21
67.377283682293836
 31
0.0
  0
LINE
  5
617
  8
2
 10
43.21430374790463
 20
74.882837181760095
 30
0.0
 11
36.714303747904637
 21
78.635613931491463
 31
0.0
  0
CIRCLE
  5
61E
  8
0
 10
36.714303747904637
 20
71.130060432026056
 30
0.0
 40
8.4985374786585552
  0
LINE
  5
627
  8
1
 10
21.211663923704581
 20
71.129895431226061
 30
0.0
 11
52.21166392370457
 21
71.129895431226061
 31
0.0
  0
LINE
  5
628
  8
1
 10
36.711663923704577
 20
55.629895431226061
 30
0.0
 11
36.711663923704577
 21
86.629895431226061
 31
0.0
  0
LINE
  5
629
  8
1
 10
81.239841715606161
 20
71.129895431226061
 30
0.0
 11
134.7398417156046
 21
71.129895431226061
 31
0.0
  0
LINE
  5
62A
  8
1
 10
179.26801950750621
 20
55.629675105028149
 30
0.0
 11
179.26801950750621
 21
86.630115757423965
 31
0.0
  0
LINE
  5
62B
  8
1
 10
163.76779918130831
 20
71.129895431226061
 30
0.0
 11
194.76823983370409
 21
71.129895431226061
 31
0.0
  0
LINE
  5
62C
  8
1
 10
81.239841715606161
 20
120.8676996929494
 30
0.0
 11
134.7398417156046
 21
120.8676996929494
 31
0.0
  0
LINE
  5
6FB
  8
0
 10
98.739841715604598
 20
129.3676996929494
 30
0.0
 11
98.739841715604584
 21
112.3676996929493
 31
0.0
  0
LINE
  5
6FC
  8
0
 10
106.2398417156046
 20
115.86769969295111
 30
0.0
 11
106.2398417156046
 21
125.8676996929476
 31
0.0
  0
ARC
  5
743
  8
2
 10
140.8398501919045
 20
71.129886505837661
 30
0.0
 40
13.99999999999994
 50
142.45332336004861
 51
217.54667663995139
  0
ARC
  5
744
  8
2
 10
140.8398501919045
 20
120.867690767561
 30
0.0
 40
13.99999999999994
 50
142.45332336004839
 51
217.54667663995119
  0
ENDSEC
  0
EOF
