  0
SECTION
  2
HEADER
  9
$ACADVER
  1
AC1009
  9
$INSBASE
 10
0.0
 20
0.0
 30
0.0
  9
$EXTMIN
 10
0.0
 20
-2.960436562073669
 30
0.0
  9
$EXTMAX
 10
209.5499999999999
 20
218.05000000000001
 30
0.0
  9
$LIMMIN
 10
0.0
 20
0.0
  9
$LIMMAX
 10
187.5
 20
135.0
  9
$ORTHOMODE
 70
     1
  9
$REGENMODE
 70
     1
  9
$FILLMODE
 70
     1
  9
$QTEXTMODE
 70
     0
  9
$MIRRTEXT
 70
     0
  9
$DRAGMODE
 70
     2
  9
$LTSCALE
 40
5.0
  9
$OSMODE
 70
    37
  9
$ATTMODE
 70
     1
  9
$TEXTSIZE
 40
4.0
  9
$TRACEWID
 40
0.05
  9
$TEXTSTYLE
  7
STANDARD
  9
$CLAYER
  8
0
  9
$CELTYPE
  6
BYLAYER
  9
$CECOLOR
 62
   256
  9
$DIMSCALE
 40
0.5
  9
$DIMASZ
 40
3.0
  9
$DIMEXO
 40
2.0
  9
$DIMDLI
 40
0.38
  9
$DIMRND
 40
0.0
  9
$DIMDLE
 40
0.0
  9
$DIMEXE
 40
2.0
  9
$DIMTP
 40
0.0
  9
$DIMTM
 40
0.0
  9
$DIMTXT
 40
3.0
  9
$DIMCEN
 40
0.0
  9
$DIMTSZ
 40
0.0
  9
$DIMTOL
 70
     0
  9
$DIMLIM
 70
     0
  9
$DIMTIH
 70
     0
  9
$DIMTOH
 70
     0
  9
$DIMSE1
 70
     0
  9
$DIMSE2
 70
     0
  9
$DIMTAD
 70
     1
  9
$DIMZIN
 70
     0
  9
$DIMBLK
  1

  9
$DIMASO
 70
     0
  9
$DIMSHO
 70
     0
  9
$DIMPOST
  1

  9
$DIMAPOST
  1

  9
$DIMALT
 70
     0
  9
$DIMALTD
 70
     2
  9
$DIMALTF
 40
25.399999999999999
  9
$DIMLFAC
 40
1.0
  9
$DIMTOFL
 70
     0
  9
$DIMTVP
 40
1.6000000000000001
  9
$DIMTIX
 70
     1
  9
$DIMSOXD
 70
     0
  9
$DIMSAH
 70
     0
  9
$DIMBLK1
  1

  9
$DIMBLK2
  1

  9
$DIMSTYLE
  2
STANDARD
  9
$DIMCLRD
 70
     0
  9
$DIMCLRE
 70
     0
  9
$DIMCLRT
 70
     0
  9
$DIMTFAC
 40
1.0
  9
$DIMGAP
 40
0.09
  9
$LUNITS
 70
     2
  9
$LUPREC
 70
     1
  9
$SKETCHINC
 40
0.1
  9
$FILLETRAD
 40
1.25
  9
$AUNITS
 70
     0
  9
$AUPREC
 70
     0
  9
$MENU
  1
E:\r13\win\SUPPORT\ACAD
  9
$ELEVATION
 40
0.0
  9
$PELEVATION
 40
0.0
  9
$THICKNESS
 40
0.0
  9
$LIMCHECK
 70
     0
  9
$BLIPMODE
 70
     0
  9
$CHAMFERA
 40
0.0
  9
$CHAMFERB
 40
0.0
  9
$SKPOLY
 70
     0
  9
$TDCREATE
 40
2449840.6143865739
  9
$TDUPDATE
 40
2456798.363705324
  9
$TDINDWG
 40
0.3718298032
  9
$TDUSRTIMER
 40
0.3718298032
  9
$USRTIMER
 70
     1
  9
$ANGBASE
 50
0.0
  9
$ANGDIR
 70
     0
  9
$PDMODE
 70
     0
  9
$PDSIZE
 40
0.0
  9
$PLINEWID
 40
0.0
  9
$COORDS
 70
     1
  9
$SPLFRAME
 70
     0
  9
$SPLINETYPE
 70
     6
  9
$SPLINESEGS
 70
     8
  9
$ATTDIA
 70
     0
  9
$ATTREQ
 70
     1
  9
$HANDLING
 70
     1
  9
$HANDSEED
  5
4002
  9
$SURFTAB1
 70
     6
  9
$SURFTAB2
 70
     6
  9
$SURFTYPE
 70
     6
  9
$SURFU
 70
     6
  9
$SURFV
 70
     6
  9
$UCSNAME
  2

  9
$UCSORG
 10
0.0
 20
0.0
 30
0.0
  9
$UCSXDIR
 10
1.0
 20
0.0
 30
0.0
  9
$UCSYDIR
 10
0.0
 20
1.0
 30
0.0
  9
$PUCSNAME
  2

  9
$PUCSORG
 10
0.0
 20
0.0
 30
0.0
  9
$PUCSXDIR
 10
1.0
 20
0.0
 30
0.0
  9
$PUCSYDIR
 10
0.0
 20
1.0
 30
0.0
  9
$USERI1
 70
     0
  9
$USERI2
 70
     1
  9
$USERI3
 70
     1
  9
$USERI4
 70
     0
  9
$USERI5
 70
     0
  9
$USERR1
 40
0.0
  9
$USERR2
 40
0.0
  9
$USERR3
 40
0.0
  9
$USERR4
 40
0.0
  9
$USERR5
 40
0.0
  9
$WORLDVIEW
 70
     1
  9
$SHADEDGE
 70
     3
  9
$SHADEDIF
 70
    70
  9
$TILEMODE
 70
     1
  9
$MAXACTVP
 70
    16
  9
$PLIMCHECK
 70
     0
  9
$PEXTMIN
 10
1.0000000000000000E+020
 20
1.0000000000000000E+020
 30
1.0000000000000000E+020
  9
$PEXTMAX
 10
-1.0000000000000000E+020
 20
-1.0000000000000000E+020
 30
-1.0000000000000000E+020
  9
$PLIMMIN
 10
0.0
 20
0.0
  9
$PLIMMAX
 10
12.0
 20
9.0
  9
$UNITMODE
 70
     0
  9
$VISRETAIN
 70
     0
  9
$PLINEGEN
 70
     0
  9
$PSLTSCALE
 70
     0
  0
ENDSEC
  0
SECTION
  2
TABLES
  0
TABLE
  2
VPORT
 70
     1
  0
VPORT
  2
*ACTIVE
 70
     0
 10
0.0
 20
0.0
 11
1.0
 21
1.0
 12
235.63977746870651
 22
135.0
 13
0.0
 23
0.0
 14
5.0
 24
5.0
 15
5.0
 25
5.0
 16
0.0
 26
0.0
 36
1.0
 17
0.0
 27
0.0
 37
0.0
 40
270.0
 41
1.7454798331015291
 42
50.0
 43
0.0
 44
0.0
 50
0.0
 51
0.0
 71
     0
 72
   100
 73
     1
 74
     0
 75
     0
 76
     0
 77
     0
 78
     0
  0
ENDTAB
  0
TABLE
  2
LTYPE
 70
     3
  0
LTYPE
  2
CONTINUOUS
 70
     0
  3
Solid Line
 72
    65
 73
     0
 40
0.0
  0
LTYPE
  2
CENTER
 70
     0
  3
____ _ ____ _ ____ _ ____ _ ____ _ ____ _ ____
 72
    65
 73
     4
 40
2.0
 49
1.25
 49
-0.25
 49
0.25
 49
-0.25
  0
LTYPE
  2
PHANTOM2
 70
     0
  3
___ _ _ ___ _ _ ___ _ _ ___ _ _
 72
    65
 73
     6
 40
1.25
 49
0.625
 49
-0.125
 49
0.125
 49
-0.125
 49
0.125
 49
-0.125
  0
ENDTAB
  0
TABLE
  2
LAYER
 70
     3
  0
LAYER
  2
0
 70
     0
 62
     7
  6
CONTINUOUS
  0
LAYER
  2
1
 70
     0
 62
     1
  6
CENTER
  0
LAYER
  2
3
 70
     0
 62
     3
  6
CONTINUOUS
  0
ENDTAB
  0
TABLE
  2
STYLE
 70
     2
  0
STYLE
  2
STANDARD
 70
     0
 40
0.0
 41
1.0
 50
0.0
 71
     0
 42
4.0
  3
TXT
  4
BIGFONT
  0
STYLE
  2
STANDARD1
 70
     0
 40
0.0
 41
1.0
 50
0.0
 71
     0
 42
3.0
  3
txt
  4

  0
ENDTAB
  0
TABLE
  2
VIEW
 70
     1
  0
VIEW
  2
ALL
 70
     0
 40
179.66152299999999
 10
141.903918
 20
89.830760999999995
 41
0.0
 11
0.0
 21
0.0
 31
1.0
 12
0.0
 22
0.0
 32
0.0
 42
0.0
 43
0.0
 44
0.0
 50
0.0
 71
     0
  0
ENDTAB
  0
TABLE
  2
UCS
 70
     0
  0
ENDTAB
  0
TABLE
  2
APPID
 70
     5
  0
APPID
  2
ACAD
 70
     0
  0
APPID
  2
DCO15
 70
     0
  0
APPID
  2
ACAD_MLEADERVER
 70
     0
  0
APPID
  2
ACAD_NAV_VCDISPLAY
 70
     0
  0
APPID
  2
ACAD_EXEMPT_FROM_CAD_STANDARDS
 70
     0
  0
ENDTAB
  0
TABLE
  2
DIMSTYLE
 70
     1
  0
DIMSTYLE
  2
STANDARD
 70
     0
  3

  4

  5

  6

  7

 40
1.0
 41
0.18
 42
0.0625
 43
0.38
 44
0.18
 45
0.0
 46
0.0
 47
0.0
 48
0.0
140
0.18
141
0.09
142
0.0
143
25.399999999999999
144
1.0
145
0.0
146
1.0
147
0.09
 71
     0
 72
     0
 73
     1
 74
     1
 75
     0
 76
     0
 77
     0
 78
     0
170
     0
171
     2
172
     0
173
     0
174
     0
175
     0
176
     0
177
     0
178
     0
  0
ENDTAB
  0
ENDSEC
  0
SECTION
  2
BLOCKS
  0
BLOCK
  8
0
  2
$MODEL_SPACE
 70
     0
 10
0.0
 20
0.0
 30
0.0
  3
$MODEL_SPACE
  1

  0
ENDBLK
  5
1BD
  8
0
  0
BLOCK
 67
     1
  8
0
  2
$PAPER_SPACE
 70
     0
 10
0.0
 20
0.0
 30
0.0
  3
$PAPER_SPACE
  1

  0
ENDBLK
  5
1BB
 67
     1
  8
0
  0
ENDSEC
  0
SECTION
  2
ENTITIES
  0
TEXT
  5
DC5
  8
0
 62
     3
 10
0.0
 20
0.0
 30
0.0
 40
10.0
  1
HKR6X25-BK
  7
STANDARD1
  0
LINE
  5
F83
  8
1
 10
100.0
 20
158.5
 30
0.0
 11
100.0
 21
94.999999999999986
 31
0.0
  0
LINE
  5
F84
  8
0
 10
165.0
 20
148.40000000000009
 30
0.0
 11
165.0
 21
150.5534224723346
 31
0.0
  0
ARC
  5
F85
  8
0
 10
162.4999999999996
 20
148.40000000000009
 30
0.0
 40
2.5000000000003371
 50
323.13010235418488
 51
0.0
  0
ARC
  5
F87
  8
0
 10
99.999999999996334
 20
145.99999999999011
 30
0.0
 40
8.0000000000105551
 50
68.984897038977863
 51
69.63586519368198
  0
ARC
  5
F88
  8
0
 10
100.00000000000711
 20
145.99999999998499
 30
0.0
 40
8.0000000000164402
 50
110.3641348063273
 51
116.230972132389
  0
LINE
  5
F89
  8
0
 10
102.783882181415
 20
153.5
 30
0.0
 11
97.216117818585104
 21
153.5
 31
0.0
  0
LINE
  5
F96
  8
0
 10
163.1001621460594
 20
144.97328848624511
 30
0.0
 11
164.50000000000071
 21
146.900000000001
 31
0.0
  0
ARC
  5
FA8
  8
0
 10
162.60000000000011
 20
150.55342247233469
 30
0.0
 40
2.3999999999999351
 50
0.0
 51
85.943534391419945
  0
LINE
  5
FAF
  8
0
 10
158.2460601798098
 20
142.5
 30
0.0
 11
155.56124767773159
 21
142.5
 31
0.0
  0
ARC
  5
FB0
  8
0
 10
158.2460601798098
 20
148.49999999999989
 30
0.0
 40
5.999999999999968
 50
273.13632042633202
 51
323.99999999999881
  0
ARC
  5
FB1
  8
0
 10
158.2460601798098
 20
148.50000000002939
 30
0.0
 40
6.000000000029444
 50
269.9999999999992
 51
273.1363204263165
  0
POLYLINE
  5
FB3
  8
0
 66
     1
 10
0.0
 20
0.0
 30
0.0
 70
     8
  0
VERTEX
  5
FB4
  8
0
 10
150.8846596460923
 20
143.75394355696619
 30
0.0
 70
    32
  0
VERTEX
  5
FB5
  8
0
 10
150.35690187716671
 20
144.0227765927917
 30
0.0
 70
    32
  0
VERTEX
  5
FB6
  8
0
 10
149.80864115487651
 20
144.2467021405439
 30
0.0
 70
    32
  0
VERTEX
  5
FB7
  8
0
 10
149.22697371124781
 20
144.42858523195201
 30
0.0
 70
    32
  0
VERTEX
  5
FB8
  8
0
 10
148.63194723640419
 20
144.56017264915059
 30
0.0
 70
    32
  0
VERTEX
  5
FB9
  8
0
 10
147.85399924873329
 20
144.65394355696631
 30
0.0
 70
    32
  0
SEQEND
  5
FBA
  8
0
  0
POLYLINE
  5
FBB
  8
0
 66
     1
 10
0.0
 20
0.0
 30
0.0
 70
     8
  0
VERTEX
  5
FBC
  8
0
 10
150.8846596460923
 20
143.75394355696619
 30
0.0
 70
    32
  0
VERTEX
  5
FBD
  8
0
 10
151.57364356660969
 20
143.39319578896999
 30
0.0
 70
    32
  0
VERTEX
  5
FBE
  8
0
 10
152.29014798286931
 20
143.0909731693009
 30
0.0
 70
    32
  0
VERTEX
  5
FBF
  8
0
 10
153.05106280020669
 20
142.8433976637111
 30
0.0
 70
    32
  0
VERTEX
  5
FC0
  8
0
 10
153.83027713553989
 20
142.66168134011519
 30
0.0
 70
    32
  0
VERTEX
  5
FC1
  8
0
 10
154.68825455201949
 20
142.54086630056921
 30
0.0
 70
    32
  0
VERTEX
  5
FC2
  8
0
 10
155.56124767773159
 20
142.5
 30
0.0
 70
    32
  0
SEQEND
  5
FC3
  8
0
  0
LINE
  5
FD2
  8
0
 10
106.45
 20
125.0
 30
0.0
 11
106.75
 21
125.3
 31
0.0
  0
LINE
  5
FD3
  8
0
 10
93.250000000000014
 20
125.3
 30
0.0
 11
93.549999999999997
 21
125.0
 31
0.0
  0
LINE
  5
FD4
  8
0
 10
106.45
 20
125.0
 30
0.0
 11
93.549999999999997
 21
125.0
 31
0.0
  0
LINE
  5
FD5
  8
0
 10
93.250000000000014
 20
131.5
 30
0.0
 11
93.250000000000014
 21
125.3
 31
0.0
  0
LINE
  5
FD6
  8
0
 10
106.75
 20
125.3
 30
0.0
 11
106.75
 21
131.5
 31
0.0
  0
LINE
  5
FD7
  8
0
 10
106.75
 20
125.3
 30
0.0
 11
93.250000000000014
 21
125.3
 31
0.0
  0
LINE
  5
FD8
  8
0
 10
104.3763951615144
 20
153.6696323303762
 30
0.0
 11
104.2000000000012
 21
153.64238051648931
 31
0.0
  0
LINE
  5
FD9
  8
0
 10
104.3763951615144
 20
153.88134928423861
 30
0.0
 11
104.3763951615144
 21
153.6696323303762
 31
0.0
  0
LINE
  5
FDB
  8
0
 10
108.75
 20
131.5
 30
0.0
 11
109.25
 21
132.0
 31
0.0
  0
LINE
  5
FDC
  8
0
 10
90.750000000000014
 20
132.0
 30
0.0
 11
91.25
 21
131.5
 31
0.0
  0
LINE
  5
FDD
  8
0
 10
108.75
 20
131.5
 30
0.0
 11
91.25
 21
131.5
 31
0.0
  0
LINE
  5
FDE
  8
0
 10
109.25
 20
132.0
 30
0.0
 11
109.42922749272969
 21
142.79851952158299
 31
0.0
  0
LINE
  5
FDF
  8
0
 10
90.570452236937626
 20
142.8178159218545
 30
0.0
 11
90.750000000000014
 21
132.0
 31
0.0
  0
LINE
  5
FE0
  8
0
 10
109.25
 20
132.0
 30
0.0
 11
90.750000000000014
 21
132.0
 31
0.0
  0
LINE
  5
FE1
  8
0
 10
90.570452236937598
 20
142.81781592185459
 30
0.0
 11
90.449999999999989
 21
150.09999999999999
 31
0.0
  0
POLYLINE
  5
FE3
  8
0
 66
     1
 10
0.0
 20
0.0
 30
0.0
 70
     8
  0
VERTEX
  5
FE4
  8
0
 10
95.299999999999926
 20
153.2167956159247
 30
0.0
 70
    32
  0
VERTEX
  5
FE5
  8
0
 10
95.992832232932884
 20
153.1838013115057
 30
0.0
 70
    32
  0
VERTEX
  5
FE6
  8
0
 10
96.712595287327403
 20
153.16129890766999
 30
0.0
 70
    32
  0
VERTEX
  5
FE7
  8
0
 10
97.476220963512247
 20
153.15060417433151
 30
0.0
 70
    32
  0
VERTEX
  5
FE8
  8
0
 10
98.257656637781025
 20
153.15360363744921
 30
0.0
 70
    32
  0
VERTEX
  5
FE9
  8
0
 10
99.028908045272445
 20
153.17049191735771
 30
0.0
 70
    32
  0
VERTEX
  5
FEA
  8
0
 10
99.806180876739404
 20
153.2014327139004
 30
0.0
 70
    32
  0
VERTEX
  5
FEB
  8
0
 10
100.6067708906112
 20
153.248044110618
 30
0.0
 70
    32
  0
VERTEX
  5
FEC
  8
0
 10
101.402148123674
 20
153.30911027589241
 30
0.0
 70
    32
  0
VERTEX
  5
FED
  8
0
 10
102.1175053999264
 20
153.37673452259591
 30
0.0
 70
    32
  0
VERTEX
  5
FEE
  8
0
 10
102.8195911581649
 20
153.4547868907944
 30
0.0
 70
    32
  0
VERTEX
  5
FEF
  8
0
 10
103.5209183432906
 20
153.5444378954781
 30
0.0
 70
    32
  0
VERTEX
  5
FF0
  8
0
 10
104.2000000000012
 20
153.64238051648931
 30
0.0
 70
    32
  0
SEQEND
  5
FF1
  8
0
  0
LINE
  5
FF2
  8
0
 10
93.300000000000736
 20
153.0962476533158
 30
0.0
 11
95.299999999999898
 21
153.2167956159247
 31
0.0
  0
POLYLINE
  5
FF3
  8
0
 66
     1
 10
0.0
 20
0.0
 30
0.0
 70
     8
  0
VERTEX
  5
FF4
  8
0
 10
93.300000000000736
 20
153.0962476533158
 30
0.0
 70
    32
  0
VERTEX
  5
FF5
  8
0
 10
92.957275878821747
 20
153.0592569546375
 30
0.0
 70
    32
  0
VERTEX
  5
FF6
  8
0
 10
92.635697873725832
 20
152.9873711308291
 30
0.0
 70
    32
  0
VERTEX
  5
FF7
  8
0
 10
92.328783001536124
 20
152.88260711540801
 30
0.0
 70
    32
  0
VERTEX
  5
FF8
  8
0
 10
92.046156414484045
 20
152.7512682224561
 30
0.0
 70
    32
  0
VERTEX
  5
FF9
  8
0
 10
91.681382610454378
 20
152.5232463082877
 30
0.0
 70
    32
  0
VERTEX
  5
FFA
  8
0
 10
91.366494528426912
 20
152.2584728281646
 30
0.0
 70
    32
  0
VERTEX
  5
FFB
  8
0
 10
91.093772327991275
 20
151.95695151155641
 30
0.0
 70
    32
  0
VERTEX
  5
FFC
  8
0
 10
90.870789001859663
 20
151.6322110256331
 30
0.0
 70
    32
  0
VERTEX
  5
FFD
  8
0
 10
90.689714922639666
 20
151.27509924938599
 30
0.0
 70
    32
  0
VERTEX
  5
FFE
  8
0
 10
90.559868549339967
 20
150.9044502457615
 30
0.0
 70
    32
  0
VERTEX
  5
FFF
  8
0
 10
90.479297235409916
 20
150.51824477631709
 30
0.0
 70
    32
  0
VERTEX
  5
1000
  8
0
 10
90.450125641863309
 20
150.1274560630898
 30
0.0
 70
    32
  0
VERTEX
  5
1001
  8
0
 10
90.45001521914196
 20
150.10955586836241
 30
0.0
 70
    32
  0
VERTEX
  5
1002
  8
0
 10
90.449999999999989
 20
150.09999999999999
 30
0.0
 70
    32
  0
SEQEND
  5
1003
  8
0
  0
POLYLINE
  5
1004
  8
0
 66
     1
 10
0.0
 20
0.0
 30
0.0
 70
     8
  0
VERTEX
  5
1005
  8
0
 10
147.85399924873329
 20
144.65394355696631
 30
0.0
 70
    32
  0
VERTEX
  5
1006
  8
0
 10
144.22115365082951
 20
144.84299476373599
 30
0.0
 70
    32
  0
VERTEX
  5
1007
  8
0
 10
140.58484562599551
 20
144.95813062653721
 30
0.0
 70
    32
  0
VERTEX
  5
1008
  8
0
 10
136.9473254957303
 20
144.99981966976929
 30
0.0
 70
    32
  0
VERTEX
  5
1009
  8
0
 10
136.9473254957303
 20
144.99981966976929
 30
0.0
 70
    32
  0
SEQEND
  5
100A
  8
0
  0
LINE
  5
101D
  8
0
 10
104.2000000000051
 20
142.81781592185459
 30
0.0
 11
90.570452236937598
 21
142.81781592185459
 31
0.0
  0
ARC
  5
101E
  8
0
 10
137.09782236219419
 20
-29.981819185994709
 30
0.0
 40
174.98170357484759
 50
90.049278502639154
 51
99.097952905035015
  0
LINE
  5
1026
  8
0
 10
104.3763951615144
 20
153.88134928423861
 30
0.0
 11
126.7109513646237
 21
154.19999989320911
 31
0.0
  0
POLYLINE
  5
1027
  8
0
 66
     1
 10
0.0
 20
0.0
 30
0.0
 70
     8
  0
VERTEX
  5
1028
  8
0
 10
150.24335288712089
 20
153.67790864949609
 30
0.0
 70
    32
  0
VERTEX
  5
1029
  8
0
 10
150.24335288712089
 20
153.67790864949609
 30
0.0
 70
    32
  0
VERTEX
  5
102A
  8
0
 10
150.13176336358271
 20
153.67279488356809
 30
0.0
 70
    32
  0
VERTEX
  5
102B
  8
0
 10
144.1073397711429
 20
153.9109870286473
 30
0.0
 70
    32
  0
VERTEX
  5
102C
  8
0
 10
138.07289474185379
 20
154.07760046862609
 30
0.0
 70
    32
  0
VERTEX
  5
102D
  8
0
 10
132.03670017261189
 20
154.1733013120795
 30
0.0
 70
    32
  0
VERTEX
  5
102E
  8
0
 10
130.46087675638179
 20
154.19063094570299
 30
0.0
 70
    32
  0
SEQEND
  5
102F
  8
0
  0
LINE
  5
1031
  8
0
 10
127.4000000000005
 20
154.19999999999979
 30
0.0
 11
126.72104812268211
 21
154.19999999999979
 31
0.0
  0
ARC
  5
1032
  8
0
 10
127.3999999999392
 20
-345.8000000196717
 30
0.0
 40
500.00000001967157
 50
89.649247169688479
 51
90.0
  0
ARC
  5
1033
  8
0
 10
127.400000000025
 20
-345.79999999958142
 30
0.0
 40
499.99999999958061
 50
85.94353439142219
 51
87.381433095064367
  0
LINE
  5
1195
  8
1
 10
85.450413125845756
 20
203.5
 30
0.0
 11
170.0
 21
203.5
 31
0.0
  0
LINE
  5
1196
  8
1
 10
100.0
 20
188.94999999999999
 30
0.0
 11
100.0
 21
218.05000000000001
 31
0.0
  0
LINE
  5
1430
  8
1
 10
85.450413125845756
 20
49.999999999999993
 30
0.0
 11
170.0
 21
49.999999999999993
 31
0.0
  0
LINE
  5
1431
  8
1
 10
100.0
 20
35.450000000000003
 30
0.0
 11
100.0
 21
64.549999999999997
 31
0.0
  0
LINE
  5
1485
  8
0
 10
90.570452236937598
 20
48.488004965575342
 30
0.0
 11
90.570452236937598
 21
51.511995034424622
 31
0.0
  0
CIRCLE
  5
14C3
  8
0
 10
100.0
 20
49.999999999999993
 30
0.0
 40
9.25
  0
CIRCLE
  5
14C7
  8
0
 10
100.0
 20
49.999999999999993
 30
0.0
 40
6.75
  0
LINE
  5
186E
  8
1
 10
200.0
 20
158.5
 30
0.0
 11
200.0
 21
94.999999999999119
 31
0.0
  0
LINE
  5
1887
  8
0
 10
193.55000000000001
 20
125.0
 30
0.0
 11
206.44999999999999
 21
125.0
 31
0.0
  0
LINE
  5
1888
  8
0
 10
193.55000000000001
 20
125.0
 30
0.0
 11
193.25
 21
125.3
 31
0.0
  0
LINE
  5
1889
  8
0
 10
206.75
 20
125.3
 30
0.0
 11
206.44999999999999
 21
125.0
 31
0.0
  0
LINE
  5
188A
  8
0
 10
193.25
 20
125.3
 30
0.0
 11
206.75
 21
125.3
 31
0.0
  0
LINE
  5
188B
  8
0
 10
206.75
 20
131.5
 30
0.0
 11
206.75
 21
125.3
 31
0.0
  0
LINE
  5
188C
  8
0
 10
193.25
 20
125.3
 30
0.0
 11
193.25
 21
131.5
 31
0.0
  0
LINE
  5
188D
  8
0
 10
191.25
 20
131.5
 30
0.0
 11
208.75
 21
131.5
 31
0.0
  0
LINE
  5
188E
  8
0
 10
191.25
 20
131.5
 30
0.0
 11
190.75
 21
132.0
 31
0.0
  0
LINE
  5
188F
  8
0
 10
209.25
 20
132.0
 30
0.0
 11
208.75
 21
131.5
 31
0.0
  0
LINE
  5
1890
  8
0
 10
190.75
 20
132.0
 30
0.0
 11
209.25
 21
132.0
 31
0.0
  0
LINE
  5
1891
  8
0
 10
190.75
 20
132.0
 30
0.0
 11
190.57077250727019
 21
142.79851952158299
 31
0.0
  0
LINE
  5
1892
  8
0
 10
209.42922749272981
 20
142.79851952158299
 30
0.0
 11
209.25
 21
132.0
 31
0.0
  0
LINE
  5
1E51
  8
1
 10
50.000000000000021
 20
158.5
 30
0.0
 11
50.000000000000021
 21
95.000000000000469
 31
0.0
  0
LINE
  5
1E52
  8
0
 10
43.882257208379563
 20
153.98555902619341
 30
0.0
 11
43.882257208379563
 21
154.19851610376321
 31
0.0
  0
POLYLINE
  5
1E53
  8
0
 66
     1
 10
0.0
 20
0.0
 30
0.0
 70
     8
  0
VERTEX
  5
1E54
  8
0
 10
43.882257208453169
 20
154.1985407602551
 30
0.0
 70
    32
  0
VERTEX
  5
1E55
  8
0
 10
43.89296023074688
 20
154.19739945388889
 30
0.0
 70
    32
  0
VERTEX
  5
1E56
  8
0
 10
43.932066848724183
 20
154.1956492943911
 30
0.0
 70
    32
  0
VERTEX
  5
1E57
  8
0
 10
43.999999999999851
 20
154.19342411633369
 30
0.0
 70
    32
  0
SEQEND
  5
1E58
  8
0
  0
LINE
  5
1E59
  8
0
 10
56.117742791620479
 20
154.19851886206141
 30
0.0
 11
56.117742791620479
 21
153.98538727628241
 31
0.0
  0
LINE
  5
1E5A
  8
0
 10
56.117742791620479
 20
154.19851886206141
 30
0.0
 11
56.059489129096839
 21
154.19999993156941
 31
0.0
  0
POLYLINE
  5
1E5B
  8
0
 66
     1
 10
0.0
 20
0.0
 30
0.0
 70
     8
  0
VERTEX
  5
1E5C
  8
0
 10
56.000000000000043
 20
154.1934241163336
 30
0.0
 70
    32
  0
VERTEX
  5
1E5D
  8
0
 10
56.066982157989138
 20
154.19561408244749
 30
0.0
 70
    32
  0
VERTEX
  5
1E5E
  8
0
 10
56.10632500718318
 20
154.19735617555631
 30
0.0
 70
    32
  0
VERTEX
  5
1E5F
  8
0
 10
56.117742791554569
 20
154.19854075564311
 30
0.0
 70
    32
  0
SEQEND
  5
1E60
  8
0
  0
LINE
  5
1E67
  8
0
 10
43.938777558244361
 20
154.19999999999979
 30
0.0
 11
56.061324092815561
 21
154.19999999999979
 31
0.0
  0
LINE
  5
1E68
  8
0
 10
43.940526278079929
 20
154.19999993582061
 30
0.0
 11
43.882257208379563
 21
154.19851610376321
 31
0.0
  0
LINE
  5
1E6A
  8
0
 10
58.490518266861642
 20
153.6696323303762
 30
0.0
 11
58.490518266861663
 21
153.88134928423861
 31
0.0
  0
POLYLINE
  5
1E6B
  8
0
 66
     1
 10
0.0
 20
0.0
 30
0.0
 70
     8
  0
VERTEX
  5
1E6C
  8
0
 10
56.000000000000043
 20
154.1934241163336
 30
0.0
 70
    32
  0
VERTEX
  5
1E6D
  8
0
 10
55.82283378924415
 20
154.18757893694371
 30
0.0
 70
    32
  0
VERTEX
  5
1E6E
  8
0
 10
55.675063436597121
 20
154.17991466558041
 30
0.0
 70
    32
  0
VERTEX
  5
1E6F
  8
0
 10
55.556442672091968
 20
154.17041733079401
 30
0.0
 70
    32
  0
VERTEX
  5
1E70
  8
0
 10
55.467702949343149
 20
154.15915770370941
 30
0.0
 70
    32
  0
VERTEX
  5
1E71
  8
0
 10
55.395444870458498
 20
154.14125258978589
 30
0.0
 70
    32
  0
VERTEX
  5
1E72
  8
0
 10
55.377076861643857
 20
154.1244107692431
 30
0.0
 70
    32
  0
SEQEND
  5
1E73
  8
0
  0
POLYLINE
  5
1E75
  8
0
 66
     1
 10
0.0
 20
0.0
 30
0.0
 70
     8
  0
VERTEX
  5
1E76
  8
0
 10
55.377076861643857
 20
154.1244107692431
 30
0.0
 70
    32
  0
VERTEX
  5
1E77
  8
0
 10
55.377996976510843
 20
154.1203881817581
 30
0.0
 70
    32
  0
VERTEX
  5
1E78
  8
0
 10
55.416390024109027
 20
154.0965498962214
 30
0.0
 70
    32
  0
VERTEX
  5
1E79
  8
0
 10
55.511346700980333
 20
154.0703172194917
 30
0.0
 70
    32
  0
VERTEX
  5
1E7A
  8
0
 10
55.663329932698062
 20
154.0421465665828
 30
0.0
 70
    32
  0
VERTEX
  5
1E7B
  8
0
 10
55.798954951424477
 20
154.02228713368669
 30
0.0
 70
    32
  0
VERTEX
  5
1E7C
  8
0
 10
55.9605797660533
 20
154.0021776649389
 30
0.0
 70
    32
  0
VERTEX
  5
1E7D
  8
0
 10
56.148764585258952
 20
153.98207308727299
 30
0.0
 70
    32
  0
VERTEX
  5
1E7E
  8
0
 10
56.362831336625582
 20
153.96244855578661
 30
0.0
 70
    32
  0
VERTEX
  5
1E7F
  8
0
 10
56.692167840180382
 20
153.93755510584691
 30
0.0
 70
    32
  0
VERTEX
  5
1E80
  8
0
 10
57.068370245915752
 20
153.91562595740399
 30
0.0
 70
    32
  0
VERTEX
  5
1E81
  8
0
 10
57.495335857176762
 20
153.89794384416371
 30
0.0
 70
    32
  0
VERTEX
  5
1E82
  8
0
 10
57.969267356827757
 20
153.88615150682341
 30
0.0
 70
    32
  0
VERTEX
  5
1E83
  8
0
 10
58.490518266861663
 20
153.88134928423861
 30
0.0
 70
    32
  0
SEQEND
  5
1E84
  8
0
  0
LINE
  5
1E85
  8
0
 10
41.509481733138408
 20
153.88134928423861
 30
0.0
 11
41.509481733138408
 21
153.6696323303762
 31
0.0
  0
POLYLINE
  5
1E87
  8
0
 66
     1
 10
0.0
 20
0.0
 30
0.0
 70
     8
  0
VERTEX
  5
1E88
  8
0
 10
41.509481733138408
 20
153.88134928423861
 30
0.0
 70
    32
  0
VERTEX
  5
1E89
  8
0
 10
42.000948827442691
 20
153.885660043668
 30
0.0
 70
    32
  0
VERTEX
  5
1E8A
  8
0
 10
42.453173157348111
 20
153.89628295514709
 30
0.0
 70
    32
  0
VERTEX
  5
1E8B
  8
0
 10
42.86457428122042
 20
153.91236714401111
 30
0.0
 70
    32
  0
VERTEX
  5
1E8C
  8
0
 10
43.237518676459011
 20
153.9329631252071
 30
0.0
 70
    32
  0
VERTEX
  5
1E8D
  8
0
 10
43.56739289891356
 20
153.95667704432589
 30
0.0
 70
    32
  0
VERTEX
  5
1E8E
  8
0
 10
43.788086453251978
 20
153.97596046093739
 30
0.0
 70
    32
  0
VERTEX
  5
1E8F
  8
0
 10
43.983237918311048
 20
153.99585171135419
 30
0.0
 70
    32
  0
VERTEX
  5
1E90
  8
0
 10
44.153207068851188
 20
154.015999999803
 30
0.0
 70
    32
  0
VERTEX
  5
1E91
  8
0
 10
44.29715278781795
 20
154.03599601852841
 30
0.0
 70
    32
  0
VERTEX
  5
1E92
  8
0
 10
44.424234657949668
 20
154.0572585495394
 30
0.0
 70
    32
  0
VERTEX
  5
1E93
  8
0
 10
44.520136939505953
 20
154.0776747927936
 30
0.0
 70
    32
  0
VERTEX
  5
1E94
  8
0
 10
44.584944830011743
 20
154.09705633004651
 30
0.0
 70
    32
  0
VERTEX
  5
1E95
  8
0
 10
44.61815053318724
 20
154.11511842159129
 30
0.0
 70
    32
  0
VERTEX
  5
1E96
  8
0
 10
44.622923138392501
 20
154.12441117525421
 30
0.0
 70
    32
  0
SEQEND
  5
1E97
  8
0
  0
POLYLINE
  5
1E98
  8
0
 66
     1
 10
0.0
 20
0.0
 30
0.0
 70
     8
  0
VERTEX
  5
1E99
  8
0
 10
44.622923138392501
 20
154.12441117525421
 30
0.0
 70
    32
  0
VERTEX
  5
1E9A
  8
0
 10
44.612733093050302
 20
154.1371361153179
 30
0.0
 70
    32
  0
VERTEX
  5
1E9B
  8
0
 10
44.549344857782749
 20
154.15615938420291
 30
0.0
 70
    32
  0
VERTEX
  5
1E9C
  8
0
 10
44.426042827667871
 20
154.17210794028711
 30
0.0
 70
    32
  0
VERTEX
  5
1E9D
  8
0
 10
44.24310323495753
 20
154.18456648916381
 30
0.0
 70
    32
  0
VERTEX
  5
1E9E
  8
0
 10
43.999999999999872
 20
154.19342411633369
 30
0.0
 70
    32
  0
SEQEND
  5
1E9F
  8
0
  0
ARC
  5
1EA0
  8
0
 10
50.000000000004341
 20
145.99999999999059
 30
0.0
 40
8.0000000000102602
 50
110.36413480632319
 51
115.5645820700214
  0
ARC
  5
1EA1
  8
0
 10
49.999999999995701
 20
145.99999999999059
 30
0.0
 40
8.0000000000102496
 50
64.435417929978513
 51
69.635865193676736
  0
LINE
  5
1EA2
  8
0
 10
47.216117818585069
 20
153.5
 30
0.0
 11
52.783882181415031
 21
153.5
 31
0.0
  0
POLYLINE
  5
1EA3
  8
0
 66
     1
 10
0.0
 20
0.0
 30
0.0
 70
     8
  0
VERTEX
  5
1EA4
  8
0
 10
54.374895026087842
 20
153.21133871181681
 30
0.0
 70
    32
  0
VERTEX
  5
1EA5
  8
0
 10
54.363311574874402
 20
153.22993197487119
 30
0.0
 70
    32
  0
VERTEX
  5
1EA6
  8
0
 10
54.32224074867036
 20
153.25331916882101
 30
0.0
 70
    32
  0
VERTEX
  5
1EA7
  8
0
 10
54.251213834438943
 20
153.27953261429539
 30
0.0
 70
    32
  0
VERTEX
  5
1EA8
  8
0
 10
54.148463963070178
 20
153.3087335823823
 30
0.0
 70
    32
  0
VERTEX
  5
1EA9
  8
0
 10
54.014895252612568
 20
153.34019659974911
 30
0.0
 70
    32
  0
VERTEX
  5
1EAA
  8
0
 10
53.85728044518418
 20
153.37223727959599
 30
0.0
 70
    32
  0
VERTEX
  5
1EAB
  8
0
 10
53.671867676214099
 20
153.40546443491289
 30
0.0
 70
    32
  0
VERTEX
  5
1EAC
  8
0
 10
53.456098038774392
 20
153.4398225447199
 30
0.0
 70
    32
  0
VERTEX
  5
1EAD
  8
0
 10
53.213357906630037
 20
153.47421628669309
 30
0.0
 70
    32
  0
VERTEX
  5
1EAE
  8
0
 10
52.955361705596218
 20
153.50672067989569
 30
0.0
 70
    32
  0
VERTEX
  5
1EAF
  8
0
 10
52.67474975647626
 20
153.53799619860649
 30
0.0
 70
    32
  0
VERTEX
  5
1EB0
  8
0
 10
52.368380448376108
 20
153.5678130999122
 30
0.0
 70
    32
  0
VERTEX
  5
1EB1
  8
0
 10
52.041897282079319
 20
153.59503064163371
 30
0.0
 70
    32
  0
VERTEX
  5
1EB2
  8
0
 10
51.713986536594881
 20
153.61793690843581
 30
0.0
 70
    32
  0
VERTEX
  5
1EB3
  8
0
 10
51.371597515936337
 20
153.6373432748166
 30
0.0
 70
    32
  0
VERTEX
  5
1EB4
  8
0
 10
51.011461117191701
 20
153.6529583910592
 30
0.0
 70
    32
  0
VERTEX
  5
1EB5
  8
0
 10
50.640926528189901
 20
153.66402222161639
 30
0.0
 70
    32
  0
VERTEX
  5
1EB6
  8
0
 10
50.314811302971343
 20
153.6696312212668
 30
0.0
 70
    32
  0
SEQEND
  5
1EB7
  8
0
  0
POLYLINE
  5
1EB8
  8
0
 66
     1
 10
0.0
 20
0.0
 30
0.0
 70
     8
  0
VERTEX
  5
1EB9
  8
0
 10
49.685188697027932
 20
153.66963122126671
 30
0.0
 70
    32
  0
VERTEX
  5
1EBA
  8
0
 10
49.328365295646037
 20
153.6632957462682
 30
0.0
 70
    32
  0
VERTEX
  5
1EBB
  8
0
 10
48.973741582778132
 20
153.6524119230144
 30
0.0
 70
    32
  0
VERTEX
  5
1EBC
  8
0
 10
48.618800577812593
 20
153.63686028769541
 30
0.0
 70
    32
  0
VERTEX
  5
1EBD
  8
0
 10
48.271412671638203
 20
153.6170082228534
 30
0.0
 70
    32
  0
VERTEX
  5
1EBE
  8
0
 10
47.947689152580679
 20
153.59423179230629
 30
0.0
 70
    32
  0
VERTEX
  5
1EBF
  8
0
 10
47.635916539955119
 20
153.5682010908088
 30
0.0
 70
    32
  0
VERTEX
  5
1EC0
  8
0
 10
47.334318455649957
 20
153.5389415272964
 30
0.0
 70
    32
  0
VERTEX
  5
1EC1
  8
0
 10
47.049860766522322
 20
153.50733992440519
 30
0.0
 70
    32
  0
VERTEX
  5
1EC2
  8
0
 10
46.793389039108369
 20
153.47511645043431
 30
0.0
 70
    32
  0
VERTEX
  5
1EC3
  8
0
 10
46.557325724172998
 20
153.44183338945879
 30
0.0
 70
    32
  0
VERTEX
  5
1EC4
  8
0
 10
46.340803774024231
 20
153.4075977517638
 30
0.0
 70
    32
  0
VERTEX
  5
1EC5
  8
0
 10
46.149369288750329
 20
153.3735020438852
 30
0.0
 70
    32
  0
VERTEX
  5
1EC6
  8
0
 10
45.990122362527799
 20
153.34128739780741
 30
0.0
 70
    32
  0
VERTEX
  5
1EC7
  8
0
 10
45.857766717106799
 20
153.31032841821579
 30
0.0
 70
    32
  0
VERTEX
  5
1EC8
  8
0
 10
45.752520113439047
 20
153.28072122838131
 30
0.0
 70
    32
  0
VERTEX
  5
1EC9
  8
0
 10
45.677961127886242
 20
153.253408613993
 30
0.0
 70
    32
  0
VERTEX
  5
1ECA
  8
0
 10
45.636586953978643
 20
153.22984688342049
 30
0.0
 70
    32
  0
VERTEX
  5
1ECB
  8
0
 10
45.625104965447058
 20
153.21133901268129
 30
0.0
 70
    32
  0
SEQEND
  5
1ECC
  8
0
  0
LINE
  5
1ECD
  8
0
 10
41.509481733138408
 20
153.6696323303762
 30
0.0
 11
58.490518266861642
 21
153.6696323303762
 31
0.0
  0
LINE
  5
1ECE
  8
0
 10
58.576858399203097
 20
153.64238051648951
 30
0.0
 11
58.490518266861642
 21
153.6696323303762
 31
0.0
  0
LINE
  5
1ECF
  8
0
 10
41.509481733138429
 20
153.6696323303762
 30
0.0
 11
41.423141600796377
 21
153.64238051648931
 31
0.0
  0
POLYLINE
  5
1ED0
  8
0
 66
     1
 10
0.0
 20
0.0
 30
0.0
 70
     8
  0
VERTEX
  5
1ED1
  8
0
 10
59.268510876235439
 20
153.15000002841731
 30
0.0
 70
    32
  0
VERTEX
  5
1ED2
  8
0
 10
59.161413539286862
 20
153.1518215452073
 30
0.0
 70
    32
  0
VERTEX
  5
1ED3
  8
0
 10
58.931840741079377
 20
153.16351894929201
 30
0.0
 70
    32
  0
VERTEX
  5
1ED4
  8
0
 10
58.649623110733181
 20
153.1854212277492
 30
0.0
 70
    32
  0
VERTEX
  5
1ED5
  8
0
 10
58.313392809196429
 20
153.2167956159247
 30
0.0
 70
    32
  0
SEQEND
  5
1ED6
  8
0
  0
POLYLINE
  5
1ED7
  8
0
 66
     1
 10
0.0
 20
0.0
 30
0.0
 70
     8
  0
VERTEX
  5
1ED8
  8
0
 10
40.731223476994693
 20
153.1500000028505
 30
0.0
 70
    32
  0
VERTEX
  5
1ED9
  8
0
 10
40.692110112247931
 20
153.15030882714819
 30
0.0
 70
    32
  0
VERTEX
  5
1EDA
  8
0
 10
40.610285435215239
 20
153.15360363744921
 30
0.0
 70
    32
  0
VERTEX
  5
1EDB
  8
0
 10
40.499778833430881
 20
153.17038478015141
 30
0.0
 70
    32
  0
VERTEX
  5
1EDC
  8
0
 10
40.451967001132729
 20
153.2014327139004
 30
0.0
 70
    32
  0
VERTEX
  5
1EDD
  8
0
 10
40.45000000002868
 20
153.2113426483368
 30
0.0
 70
    32
  0
SEQEND
  5
1EDE
  8
0
  0
LINE
  5
1EDF
  8
0
 10
41.686607190803571
 20
153.2167956159247
 30
0.0
 11
58.313392809196458
 21
153.2167956159247
 31
0.0
  0
LINE
  5
1EE0
  8
0
 10
56.750000000000021
 20
131.5
 30
0.0
 11
56.750000000000021
 21
125.3
 31
0.0
  0
LINE
  5
1EE1
  8
0
 10
43.250000000000007
 20
125.3
 30
0.0
 11
43.250000000000007
 21
131.5
 31
0.0
  0
LINE
  5
1EE2
  8
0
 10
43.550000000000033
 20
125.0
 30
0.0
 11
43.250000000000007
 21
125.3
 31
0.0
  0
LINE
  5
1EE3
  8
0
 10
56.750000000000021
 20
125.3
 30
0.0
 11
56.45000000000001
 21
125.0
 31
0.0
  0
LINE
  5
1EE4
  8
0
 10
43.550000000000033
 20
125.0
 30
0.0
 11
56.45000000000001
 21
125.0
 31
0.0
  0
LINE
  5
1EE5
  8
0
 10
43.250000000000007
 20
125.3
 30
0.0
 11
56.750000000000021
 21
125.3
 31
0.0
  0
LINE
  5
1EE6
  8
0
 10
41.250000000000021
 20
131.5
 30
0.0
 11
40.750000000000007
 21
132.0
 31
0.0
  0
LINE
  5
1EE7
  8
0
 10
59.250000000000028
 20
132.0
 30
0.0
 11
58.750000000000021
 21
131.5
 31
0.0
  0
LINE
  5
1EE8
  8
0
 10
41.250000000000021
 20
131.5
 30
0.0
 11
58.750000000000021
 21
131.5
 31
0.0
  0
LINE
  5
1EE9
  8
0
 10
40.750000000000007
 20
132.0
 30
0.0
 11
40.57045627657866
 21
142.81757253206109
 31
0.0
  0
LINE
  5
1EEA
  8
0
 10
59.429543723421368
 20
142.81757253206101
 30
0.0
 11
59.250000000000028
 21
132.0
 31
0.0
  0
LINE
  5
1EEB
  8
0
 10
40.750000000000007
 20
132.0
 30
0.0
 11
59.250000000000028
 21
132.0
 31
0.0
  0
LINE
  5
1EED
  8
0
 10
50.000000000000021
 20
142.79851952158299
 30
0.0
 11
40.450000000000003
 21
142.8178159218545
 31
0.0
  0
LINE
  5
1EEE
  8
0
 10
59.55000000000004
 20
142.8178159218545
 30
0.0
 11
50.000000000000021
 21
142.79851952158299
 31
0.0
  0
POLYLINE
  5
1EF5
  8
0
 66
     1
 10
0.0
 20
0.0
 30
0.0
 70
     8
  0
VERTEX
  5
1EF6
  8
0
 10
41.686607190803571
 20
153.2167956159247
 30
0.0
 70
    32
  0
VERTEX
  5
1EF7
  8
0
 10
41.332501112830073
 20
153.1838807681165
 30
0.0
 70
    32
  0
VERTEX
  5
1EF8
  8
0
 10
41.03364788472495
 20
153.16129890766999
 30
0.0
 70
    32
  0
VERTEX
  5
1EF9
  8
0
 10
40.904133944400193
 20
153.15431099742909
 30
0.0
 70
    32
  0
VERTEX
  5
1EFA
  8
0
 10
40.790299490207722
 20
153.1505952103889
 30
0.0
 70
    32
  0
VERTEX
  5
1EFB
  8
0
 10
40.731223476994693
 20
153.1500000028505
 30
0.0
 70
    32
  0
SEQEND
  5
1EFC
  8
0
  0
POLYLINE
  5
1EFD
  8
0
 66
     1
 10
0.0
 20
0.0
 30
0.0
 70
     8
  0
VERTEX
  5
1EFE
  8
0
 10
43.194671205591177
 20
153.0962476533158
 30
0.0
 70
    32
  0
VERTEX
  5
1EFF
  8
0
 10
42.636624059829607
 20
153.13353428386901
 30
0.0
 70
    32
  0
VERTEX
  5
1F00
  8
0
 10
42.134616651100679
 20
153.1736105739767
 30
0.0
 70
    32
  0
VERTEX
  5
1F01
  8
0
 10
41.692469558905188
 20
153.21617151887281
 30
0.0
 70
    32
  0
VERTEX
  5
1F02
  8
0
 10
41.686607190803571
 20
153.2167956159247
 30
0.0
 70
    32
  0
SEQEND
  5
1F03
  8
0
  0
LINE
  5
1F05
  8
0
 10
40.450000000000003
 20
142.8178159218545
 30
0.0
 11
40.450000000000003
 21
153.21180357060919
 31
0.0
  0
POLYLINE
  5
1F06
  8
0
 66
     1
 10
0.0
 20
0.0
 30
0.0
 70
     8
  0
VERTEX
  5
1F07
  8
0
 10
40.45000000002868
 20
153.2113426483368
 30
0.0
 70
    32
  0
VERTEX
  5
1F08
  8
0
 10
40.45219911972778
 20
153.22276934749411
 30
0.0
 70
    32
  0
VERTEX
  5
1F09
  8
0
 10
40.469109704631073
 20
153.24782029311189
 30
0.0
 70
    32
  0
VERTEX
  5
1F0A
  8
0
 10
40.50288562326962
 20
153.27665308713529
 30
0.0
 70
    32
  0
VERTEX
  5
1F0B
  8
0
 10
40.553493733698318
 20
153.30911027589241
 30
0.0
 70
    32
  0
VERTEX
  5
1F0C
  8
0
 10
40.68723588143984
 20
153.37650145226041
 30
0.0
 70
    32
  0
VERTEX
  5
1F0D
  8
0
 10
40.877052134378587
 20
153.45530009181911
 30
0.0
 70
    32
  0
VERTEX
  5
1F0E
  8
0
 10
41.121918047504309
 20
153.54413813768431
 30
0.0
 70
    32
  0
VERTEX
  5
1F0F
  8
0
 10
41.423141600796399
 20
153.64238051648931
 30
0.0
 70
    32
  0
SEQEND
  5
1F10
  8
0
  0
LINE
  5
1F11
  8
0
 10
43.194671205591177
 20
153.09624765331569
 30
0.0
 11
56.805328794408851
 21
153.09624765331569
 31
0.0
  0
POLYLINE
  5
1F3C
  8
0
 66
     1
 10
0.0
 20
0.0
 30
0.0
 70
     8
  0
VERTEX
  5
1F3D
  8
0
 10
58.313392809196458
 20
153.2167956159247
 30
0.0
 70
    32
  0
VERTEX
  5
1F3E
  8
0
 10
57.872125848761542
 20
153.1742014998205
 30
0.0
 70
    32
  0
VERTEX
  5
1F3F
  8
0
 10
57.370947257298042
 20
153.13408754120201
 30
0.0
 70
    32
  0
VERTEX
  5
1F40
  8
0
 10
56.813671306506812
 20
153.0967590315158
 30
0.0
 70
    32
  0
VERTEX
  5
1F41
  8
0
 10
56.805328794408851
 20
153.0962476533158
 30
0.0
 70
    32
  0
SEQEND
  5
1F42
  8
0
  0
POLYLINE
  5
1F43
  8
0
 66
     1
 10
0.0
 20
0.0
 30
0.0
 70
     8
  0
VERTEX
  5
1F44
  8
0
 10
58.576858399203118
 20
153.64238051648951
 30
0.0
 70
    32
  0
VERTEX
  5
1F45
  8
0
 10
58.890258086871867
 20
153.539947283288
 30
0.0
 70
    32
  0
VERTEX
  5
1F46
  8
0
 10
59.146510184642921
 20
153.44612905278581
 30
0.0
 70
    32
  0
VERTEX
  5
1F47
  8
0
 10
59.253695384486292
 20
153.40241372621949
 30
0.0
 70
    32
  0
VERTEX
  5
1F48
  8
0
 10
59.344799410387282
 20
153.36170044310549
 30
0.0
 70
    32
  0
VERTEX
  5
1F49
  8
0
 10
59.419776825111832
 20
153.32404995518499
 30
0.0
 70
    32
  0
VERTEX
  5
1F4A
  8
0
 10
59.477996461592312
 20
153.2897908430204
 30
0.0
 70
    32
  0
VERTEX
  5
1F4B
  8
0
 10
59.542016928675508
 20
153.23395487726029
 30
0.0
 70
    32
  0
VERTEX
  5
1F4C
  8
0
 10
59.550000000000011
 20
153.21134136505719
 30
0.0
 70
    32
  0
SEQEND
  5
1F4D
  8
0
  0
LINE
  5
1F4E
  8
0
 10
59.55000000000004
 20
153.2113582943112
 30
0.0
 11
59.55000000000004
 21
142.8178159218545
 31
0.0
  0
POLYLINE
  5
1F4F
  8
0
 66
     1
 10
0.0
 20
0.0
 30
0.0
 70
     8
  0
VERTEX
  5
1F50
  8
0
 10
59.550000000000011
 20
153.21134136505719
 30
0.0
 70
    32
  0
VERTEX
  5
1F51
  8
0
 10
59.54999926898094
 20
153.21114210642591
 30
0.0
 70
    32
  0
VERTEX
  5
1F52
  8
0
 10
59.541671052245192
 20
153.19190556866261
 30
0.0
 70
    32
  0
VERTEX
  5
1F53
  8
0
 10
59.516319789369931
 20
153.1760328772385
 30
0.0
 70
    32
  0
VERTEX
  5
1F54
  8
0
 10
59.473878371777992
 20
153.1639370214541
 30
0.0
 70
    32
  0
VERTEX
  5
1F55
  8
0
 10
59.414056807743663
 20
153.15558733089989
 30
0.0
 70
    32
  0
VERTEX
  5
1F56
  8
0
 10
59.336989228015817
 20
153.15100312319959
 30
0.0
 70
    32
  0
VERTEX
  5
1F57
  8
0
 10
59.268510876235439
 20
153.15000002841731
 30
0.0
 70
    32
  0
SEQEND
  5
1F58
  8
0
  0
LINE
  5
208E
  8
0
 10
109.42922749272969
 20
142.79851952158299
 30
0.0
 11
104.2000000000051
 21
142.81781592185459
 31
0.0
  0
CIRCLE
  5
2150
  8
0
 10
100.0
 20
203.5
 30
0.0
 40
4.0
  0
ARC
  5
2151
  8
0
 10
98.169338093988131
 20
204.55693314423141
 30
0.0
 40
0.6912500000000005
 50
309.6888779406616
 51
16.658241772777011
  0
ARC
  5
2152
  8
0
 10
99.210000000000093
 20
204.86832013797951
 30
0.0
 40
0.3949999999999998
 50
43.341758227219401
 51
196.65824177277699
  0
ARC
  5
2153
  8
0
 10
100.0000000000001
 20
205.6138662884625
 30
0.0
 40
0.6912499999999989
 50
223.3417582272194
 51
316.65824177278051
  0
ARC
  5
2154
  8
0
 10
100.79000000000001
 20
204.86832013797951
 30
0.0
 40
0.3950000000000002
 50
343.34175822722301
 51
136.65824177278051
  0
ARC
  5
2155
  8
0
 10
98.169338093988131
 20
202.44306685576879
 30
0.0
 40
0.691250000000001
 50
343.34175822722301
 51
50.311122059333812
  0
ARC
  5
2156
  8
0
 10
99.210000000000093
 20
202.13167986202069
 30
0.0
 40
0.3950000000000001
 50
163.34175822722301
 51
316.65824177278051
  0
ARC
  5
2157
  8
0
 10
100.0000000000001
 20
201.3861337115377
 30
0.0
 40
0.6912500000000003
 50
43.341758227219401
 51
136.65824177277901
  0
ARC
  5
2158
  8
0
 10
100.79000000000001
 20
202.13167986202069
 30
0.0
 40
0.3949999999999998
 50
223.3417582272194
 51
16.658241772777011
  0
ARC
  5
2159
  8
0
 10
101.830661906012
 20
202.44306685576879
 30
0.0
 40
0.6912500000000003
 50
129.68887794066609
 51
196.65824177277699
  0
ARC
  5
215A
  8
0
 10
101.830661906012
 20
204.55693314423141
 30
0.0
 40
0.6912500000000011
 50
163.34175822722301
 51
230.3111220593442
  0
LINE
  5
215B
  8
0
 10
97.250000000000057
 20
202.97500000000011
 30
0.0
 11
98.610783099134125
 21
202.97500000000011
 31
0.0
  0
LINE
  5
215C
  8
0
 10
97.250000000000057
 20
204.02500000000009
 30
0.0
 11
98.610783099134039
 21
204.02500000000009
 31
0.0
  0
LINE
  5
215D
  8
0
 10
101.3892169008661
 20
204.02500000000009
 30
0.0
 11
102.75
 21
204.02500000000009
 31
0.0
  0
LINE
  5
215E
  8
0
 10
101.389216900866
 20
202.97500000000011
 30
0.0
 11
102.75
 21
202.97500000000011
 31
0.0
  0
ARC
  5
215F
  8
0
 10
100.0
 20
203.5
 30
0.0
 40
2.7567916134521511
 50
355.97735839170429
 51
4.0226416083022736
  0
LINE
  5
2160
  8
0
 10
102.75
 20
204.02500000000009
 30
0.0
 11
102.75
 21
202.97500000000011
 31
0.0
  0
LINE
  5
2161
  8
0
 10
97.250000000000085
 20
204.02500000000009
 30
0.0
 11
97.250000000000085
 21
202.97500000000011
 31
0.0
  0
ARC
  5
2162
  8
0
 10
100.0
 20
203.5
 30
0.0
 40
2.7567916134521511
 50
10.97839132993632
 51
169.0216086700637
  0
ARC
  5
2163
  8
0
 10
100.0
 20
203.5
 30
0.0
 40
2.7567916134521511
 50
190.9783913299363
 51
349.0216086700637
  0
ARC
  5
2164
  8
0
 10
100.0
 20
203.5
 30
0.0
 40
2.7567916134521511
 50
175.97735839169769
 51
184.02264160830231
  0
CIRCLE
  5
2830
  8
0
 10
100.0
 20
203.5
 30
0.0
 40
4.3708382722768269
  0
LINE
  5
2F42
  8
0
 10
102.0
 20
99.999999999999957
 30
0.0
 11
98.0
 21
100.0
 31
0.0
  0
LINE
  5
2F43
  8
0
 10
96.999999999999986
 20
125.0
 30
0.0
 11
97.0
 21
101.0
 31
0.0
  0
LINE
  5
2F44
  8
3
 10
97.541499999999914
 20
123.0
 30
0.0
 11
97.541499999999928
 21
100.4585000000001
 31
0.0
  0
LINE
  5
2F45
  8
3
 10
102.4585000000001
 20
123.0
 30
0.0
 11
102.4585000000001
 21
100.4585
 31
0.0
  0
LINE
  5
2F46
  8
0
 10
103.0
 20
125.0
 30
0.0
 11
103.0
 21
100.9999999999999
 31
0.0
  0
LINE
  5
2F47
  8
0
 10
103.0
 20
100.9999999999999
 30
0.0
 11
102.0
 21
99.999999999999957
 31
0.0
  0
LINE
  5
2F48
  8
0
 10
98.0
 20
100.0
 30
0.0
 11
97.0
 21
101.0
 31
0.0
  0
LINE
  5
2F49
  8
0
 10
97.0
 20
101.0
 30
0.0
 11
103.0
 21
100.9999999999999
 31
0.0
  0
LINE
  5
2F4A
  8
0
 10
96.999999999999986
 20
123.0
 30
0.0
 11
103.0
 21
122.9999999999999
 31
0.0
  0
LINE
  5
2F4B
  8
3
 10
102.4585000000001
 20
122.9999999999999
 30
0.0
 11
103.0
 21
123.9379055122983
 31
0.0
  0
LINE
  5
2F4C
  8
3
 10
97.541499999999971
 20
122.9999999999999
 30
0.0
 11
97.000000000000043
 21
123.9379055122983
 31
0.0
  0
LINE
  5
303A
  8
0
 10
52.0
 20
99.999999999999957
 30
0.0
 11
48.0
 21
100.0
 31
0.0
  0
LINE
  5
303B
  8
0
 10
46.999999999999979
 20
125.0
 30
0.0
 11
47.0
 21
101.0
 31
0.0
  0
LINE
  5
303C
  8
3
 10
47.541499999999907
 20
123.0
 30
0.0
 11
47.541499999999921
 21
100.4585000000001
 31
0.0
  0
LINE
  5
303D
  8
3
 10
52.458500000000079
 20
123.0
 30
0.0
 11
52.4585000000001
 21
100.4585
 31
0.0
  0
LINE
  5
303E
  8
0
 10
53.000000000000007
 20
125.0
 30
0.0
 11
53.0
 21
100.9999999999999
 31
0.0
  0
LINE
  5
303F
  8
0
 10
53.0
 20
100.9999999999999
 30
0.0
 11
52.0
 21
99.999999999999957
 31
0.0
  0
LINE
  5
3040
  8
0
 10
48.0
 20
100.0
 30
0.0
 11
47.0
 21
101.0
 31
0.0
  0
LINE
  5
3041
  8
0
 10
47.0
 20
101.0
 30
0.0
 11
53.0
 21
100.9999999999999
 31
0.0
  0
LINE
  5
3042
  8
0
 10
46.999999999999979
 20
123.0
 30
0.0
 11
52.999999999999979
 21
122.9999999999999
 31
0.0
  0
LINE
  5
3043
  8
3
 10
52.458500000000079
 20
122.9999999999999
 30
0.0
 11
53.000000000000007
 21
123.9379055122983
 31
0.0
  0
LINE
  5
3044
  8
3
 10
47.541499999999971
 20
122.9999999999999
 30
0.0
 11
47.000000000000043
 21
123.9379055122983
 31
0.0
  0
LINE
  5
3045
  8
0
 10
202.0
 20
99.999999999999957
 30
0.0
 11
198.0
 21
100.0
 31
0.0
  0
LINE
  5
3046
  8
0
 10
196.99999999999989
 20
125.0
 30
0.0
 11
197.0
 21
101.0
 31
0.0
  0
LINE
  5
3047
  8
3
 10
197.5414999999999
 20
123.0
 30
0.0
 11
197.5414999999999
 21
100.4585000000001
 31
0.0
  0
LINE
  5
3048
  8
3
 10
202.4585000000001
 20
123.0
 30
0.0
 11
202.4585000000001
 21
100.4585
 31
0.0
  0
LINE
  5
3049
  8
0
 10
203.0
 20
125.0
 30
0.0
 11
203.0
 21
100.9999999999999
 31
0.0
  0
LINE
  5
304A
  8
0
 10
203.0
 20
100.9999999999999
 30
0.0
 11
202.0
 21
99.999999999999957
 31
0.0
  0
LINE
  5
304B
  8
0
 10
198.0
 20
100.0
 30
0.0
 11
197.0
 21
101.0
 31
0.0
  0
LINE
  5
304C
  8
0
 10
197.0
 20
101.0
 30
0.0
 11
203.0
 21
100.9999999999999
 31
0.0
  0
LINE
  5
304D
  8
0
 10
196.99999999999989
 20
123.0
 30
0.0
 11
203.0
 21
122.9999999999999
 31
0.0
  0
LINE
  5
304E
  8
3
 10
202.4585000000001
 20
122.9999999999999
 30
0.0
 11
203.0
 21
123.9379055122983
 31
0.0
  0
LINE
  5
304F
  8
3
 10
197.5414999999999
 20
122.9999999999999
 30
0.0
 11
197.0
 21
123.9379055122983
 31
0.0
  0
CIRCLE
  5
3054
  8
3
 10
100.0
 20
50.0
 30
0.0
 40
2.4585000000000998
  0
CIRCLE
  5
3055
  8
0
 10
100.0
 20
49.999999999999993
 30
0.0
 40
3.0
  0
POLYLINE
  5
3D7C
  8
0
 66
     1
 10
0.0
 20
0.0
 30
0.0
  0
VERTEX
  5
3F65
  8
0
 10
164.9476609108018
 20
200.89206169254041
 30
0.0
  0
VERTEX
  5
3F66
  8
0
 10
164.9460388624334
 20
200.88355934023721
 30
0.0
  0
VERTEX
  5
3F67
  8
0
 10
164.94119783696021
 20
200.85893715743319
 30
0.0
  0
VERTEX
  5
3F68
  8
0
 10
164.92864492975241
 20
200.79958561252411
 30
0.0
  0
VERTEX
  5
3F69
  8
0
 10
164.9110081488553
 20
200.7247196698529
 30
0.0
  0
VERTEX
  5
3F6A
  8
0
 10
164.8621499475091
 20
200.55105746681261
 30
0.0
  0
VERTEX
  5
3F6B
  8
0
 10
164.79745980419801
 20
200.3663863031982
 30
0.0
  0
VERTEX
  5
3F6C
  8
0
 10
164.71638776127131
 20
200.17672173880871
 30
0.0
  0
VERTEX
  5
3F6D
  8
0
 10
164.61927954596561
 20
199.98733986856499
 30
0.0
  0
VERTEX
  5
3F6E
  8
0
 10
164.5094588089184
 20
199.80603634883801
 30
0.0
  0
VERTEX
  5
3F6F
  8
0
 10
164.38359326057301
 20
199.62832956653759
 30
0.0
  0
VERTEX
  5
3F70
  8
0
 10
164.2396373650858
 20
199.45399787752831
 30
0.0
  0
VERTEX
  5
3F71
  8
0
 10
164.07790411550181
 20
199.28613436489681
 30
0.0
  0
VERTEX
  5
3F72
  8
0
 10
163.93026234192939
 20
199.1534618898591
 30
0.0
  0
VERTEX
  5
3F73
  8
0
 10
163.76963067165019
 20
199.02752042610169
 30
0.0
  0
VERTEX
  5
3F74
  8
0
 10
163.59353460301091
 20
198.90821962612651
 30
0.0
  0
VERTEX
  5
3F75
  8
0
 10
163.4035141219228
 20
198.79855735314459
 30
0.0
  0
VERTEX
  5
3F76
  8
0
 10
163.08343654884879
 20
198.65247158287559
 30
0.0
  0
VERTEX
  5
3F77
  8
0
 10
162.90960931753921
 20
198.59122213359521
 30
0.0
  0
VERTEX
  5
3F78
  8
0
 10
162.72869696014919
 20
198.53984523774611
 30
0.0
  0
VERTEX
  5
3F79
  8
0
 10
162.57069963410251
 20
198.50478321211571
 30
0.0
  0
SEQEND
  5
3F7A
  8
0
  0
ARC
  5
3D7D
  8
0
 10
99.999999999998465
 20
203.5
 30
0.0
 40
65.000000000001577
 50
357.7005541943343
 51
2.2994458056641078
  0
POLYLINE
  5
3D7E
  8
0
 66
     1
 10
0.0
 20
0.0
 30
0.0
  0
VERTEX
  5
3F7B
  8
0
 10
162.57069963410251
 20
208.4952167878844
 30
0.0
  0
VERTEX
  5
3F7C
  8
0
 10
162.7572741918554
 20
208.4528495996779
 30
0.0
  0
VERTEX
  5
3F7D
  8
0
 10
162.9406330392471
 20
208.39872067522899
 30
0.0
  0
VERTEX
  5
3F7E
  8
0
 10
163.12229055356349
 20
208.33216892251039
 30
0.0
  0
VERTEX
  5
3F7F
  8
0
 10
163.29771165831329
 20
208.2548002609949
 30
0.0
  0
VERTEX
  5
3F80
  8
0
 10
163.61194124287431
 20
208.08014731379839
 30
0.0
  0
VERTEX
  5
3F81
  8
0
 10
163.89775477635339
 20
207.87347300583181
 30
0.0
  0
VERTEX
  5
3F82
  8
0
 10
164.0916575537189
 20
207.70057403452469
 30
0.0
  0
VERTEX
  5
3F83
  8
0
 10
164.2663102461463
 20
207.51566473952531
 30
0.0
  0
VERTEX
  5
3F84
  8
0
 10
164.42365651816681
 20
207.3180184054325
 30
0.0
  0
VERTEX
  5
3F85
  8
0
 10
164.5611151625148
 20
207.11227050293391
 30
0.0
  0
VERTEX
  5
3F86
  8
0
 10
164.6779971277137
 20
206.9021580469597
 30
0.0
  0
VERTEX
  5
3F87
  8
0
 10
164.7755230157093
 20
206.6886272389456
 30
0.0
  0
VERTEX
  5
3F88
  8
0
 10
164.85436784587179
 20
206.47335486161049
 30
0.0
  0
VERTEX
  5
3F89
  8
0
 10
164.9127899925837
 20
206.26809084321241
 30
0.0
  0
VERTEX
  5
3F8A
  8
0
 10
164.9380971820267
 20
206.1562878433285
 30
0.0
  0
VERTEX
  5
3F8B
  8
0
 10
164.94694200474621
 20
206.11172308183211
 30
0.0
  0
VERTEX
  5
3F8C
  8
0
 10
164.9476609108018
 20
206.10793830745959
 30
0.0
  0
SEQEND
  5
3F8D
  8
0
  0
POLYLINE
  5
3D7F
  8
0
 66
     1
 10
0.0
 20
0.0
 30
0.0
  0
VERTEX
  5
3F8E
  8
0
 10
162.08735688418341
 20
208.54872785940739
 30
0.0
  0
VERTEX
  5
3F8F
  8
0
 10
162.3293153811432
 20
208.5318704498591
 30
0.0
  0
VERTEX
  5
3F90
  8
0
 10
162.57069963410251
 20
208.4952167878844
 30
0.0
  0
SEQEND
  5
3F91
  8
0
  0
LINE
  5
3D80
  8
0
 10
126.0
 20
209.59999999999999
 30
0.0
 11
162.08735688418341
 21
208.54872785940739
 31
0.0
  0
LINE
  5
3D81
  8
0
 10
162.08735688418341
 20
198.45127214059269
 30
0.0
 11
126.0000000000001
 21
197.40000000000001
 31
0.0
  0
POLYLINE
  5
3D82
  8
0
 66
     1
 10
0.0
 20
0.0
 30
0.0
  0
VERTEX
  5
3F92
  8
0
 10
162.57069963410251
 20
198.50478321211571
 30
0.0
  0
VERTEX
  5
3F93
  8
0
 10
162.33090325817849
 20
198.46830534196971
 30
0.0
  0
VERTEX
  5
3F94
  8
0
 10
162.08735688418341
 20
198.45127214059269
 30
0.0
  0
SEQEND
  5
3F95
  8
0
  0
LINE
  5
3D85
  8
0
 10
104.37639516151449
 20
195.00948173313839
 30
0.0
 11
104.2000000000012
 21
194.92314160079641
 31
0.0
  0
LINE
  5
3D86
  8
0
 10
104.2000000000024
 20
212.0768583992031
 30
0.0
 11
104.37639516151449
 21
211.99051826686161
 31
0.0
  0
POLYLINE
  5
3D87
  8
0
 66
     1
 10
0.0
 20
0.0
 30
0.0
 70
     8
  0
VERTEX
  5
3D88
  8
0
 10
104.3763951615144
 20
195.00948173313839
 30
0.0
 70
    32
  0
VERTEX
  5
3D89
  8
0
 10
105.4407863125834
 20
195.5016312276077
 30
0.0
 70
    32
  0
VERTEX
  5
3D8A
  8
0
 10
106.5229873316228
 20
195.95317315734809
 30
0.0
 70
    32
  0
VERTEX
  5
3D8B
  8
0
 10
107.63048474527289
 20
196.3666108369172
 30
0.0
 70
    32
  0
VERTEX
  5
3D8C
  8
0
 10
108.7528724832689
 20
196.73751867645899
 30
0.0
 70
    32
  0
VERTEX
  5
3D8D
  8
0
 10
109.71089380716759
 20
197.01713213270341
 30
0.0
 70
    32
  0
VERTEX
  5
3D8E
  8
0
 10
110.677638465409
 20
197.26583232712471
 30
0.0
 70
    32
  0
VERTEX
  5
3D8F
  8
0
 10
111.65161508812641
 20
197.483237918311
 30
0.0
 70
    32
  0
VERTEX
  5
3D90
  8
0
 10
112.5406798340681
 20
197.6532070688512
 30
0.0
 70
    32
  0
VERTEX
  5
3D91
  8
0
 10
113.4343304039929
 20
197.79715278781799
 30
0.0
 70
    32
  0
VERTEX
  5
3D92
  8
0
 10
114.4125645282633
 20
197.92423465794971
 30
0.0
 70
    32
  0
VERTEX
  5
3D93
  8
0
 10
115.3943637157293
 20
198.02013693950599
 30
0.0
 70
    32
  0
VERTEX
  5
3D94
  8
0
 10
116.4985848188431
 20
198.09044467060991
 30
0.0
 70
    32
  0
VERTEX
  5
3D95
  8
0
 10
117.604995350669
 20
198.12133084479169
 30
0.0
 70
    32
  0
VERTEX
  5
3D96
  8
0
 10
118.7114821461095
 20
198.11273309305031
 30
0.0
 70
    32
  0
VERTEX
  5
3D97
  8
0
 10
120.0602221399993
 20
198.0487124241597
 30
0.0
 70
    32
  0
VERTEX
  5
3D98
  8
0
 10
121.4049396741471
 20
197.92604282766791
 30
0.0
 70
    32
  0
VERTEX
  5
3D99
  8
0
 10
122.75714321768901
 20
197.7426749203716
 30
0.0
 70
    32
  0
VERTEX
  5
3D9A
  8
0
 10
124.1000000000007
 20
197.49999999999989
 30
0.0
 70
    32
  0
SEQEND
  5
3D9B
  8
0
  0
POLYLINE
  5
3D9C
  8
0
 66
     1
 10
0.0
 20
0.0
 30
0.0
 70
     8
  0
VERTEX
  5
3D9D
  8
0
 10
124.10000000000009
 20
209.5
 30
0.0
 70
    32
  0
VERTEX
  5
3D9E
  8
0
 10
124.5677130852937
 20
209.5669821579892
 30
0.0
 70
    32
  0
VERTEX
  5
3D9F
  8
0
 10
125.0402236199605
 20
209.60632500718319
 30
0.0
 70
    32
  0
VERTEX
  5
3DA0
  8
0
 10
125.5193402691695
 20
209.61757474369591
 30
0.0
 70
    32
  0
VERTEX
  5
3DA1
  8
0
 10
126.0000000000001
 20
209.59999999999999
 30
0.0
 70
    32
  0
SEQEND
  5
3DA2
  8
0
  0
POLYLINE
  5
3DA3
  8
0
 66
     1
 10
0.0
 20
0.0
 30
0.0
 70
     8
  0
VERTEX
  5
3DA4
  8
0
 10
124.10000000000009
 20
209.5
 30
0.0
 70
    32
  0
VERTEX
  5
3DA5
  8
0
 10
123.1548298330392
 20
209.3228337892441
 30
0.0
 70
    32
  0
VERTEX
  5
3DA6
  8
0
 10
122.204633062569
 20
209.1750634365971
 30
0.0
 70
    32
  0
VERTEX
  5
3DA7
  8
0
 10
121.1345274471019
 20
209.04455876444439
 30
0.0
 70
    32
  0
VERTEX
  5
3DA8
  8
0
 10
120.0602304373103
 20
208.95129694664141
 30
0.0
 70
    32
  0
VERTEX
  5
3DA9
  8
0
 10
118.98369519329179
 20
208.8954448704585
 30
0.0
 70
    32
  0
VERTEX
  5
3DAA
  8
0
 10
117.66958909459279
 20
208.878074309205
 30
0.0
 70
    32
  0
VERTEX
  5
3DAB
  8
0
 10
116.3559722302721
 20
208.91639002410909
 30
0.0
 70
    32
  0
VERTEX
  5
3DAC
  8
0
 10
115.0321429079365
 20
209.01158596443
 30
0.0
 70
    32
  0
VERTEX
  5
3DAD
  8
0
 10
113.7136354921788
 20
209.1633299326981
 30
0.0
 70
    32
  0
VERTEX
  5
3DAE
  8
0
 10
112.81980969912129
 20
209.29895495142441
 30
0.0
 70
    32
  0
VERTEX
  5
3DAF
  8
0
 10
111.9303232315191
 20
209.46057976605331
 30
0.0
 70
    32
  0
VERTEX
  5
3DB0
  8
0
 10
110.94028981135
 20
209.67229864524131
 30
0.0
 70
    32
  0
VERTEX
  5
3DB1
  8
0
 10
109.95741851468421
 20
209.91628974126479
 30
0.0
 70
    32
  0
VERTEX
  5
3DB2
  8
0
 10
108.98326953137369
 20
210.1921678401803
 30
0.0
 70
    32
  0
VERTEX
  5
3DB3
  8
0
 10
107.8107637170781
 20
210.570602221477
 30
0.0
 70
    32
  0
VERTEX
  5
3DB4
  8
0
 10
106.6541496216029
 20
210.9953358571768
 30
0.0
 70
    32
  0
VERTEX
  5
3DB5
  8
0
 10
105.50531854694761
 20
211.47008877521671
 30
0.0
 70
    32
  0
VERTEX
  5
3DB6
  8
0
 10
104.3763951615144
 20
211.99051826686161
 30
0.0
 70
    32
  0
SEQEND
  5
3DB7
  8
0
  0
POLYLINE
  5
3DB8
  8
0
 66
     1
 10
0.0
 20
0.0
 30
0.0
 70
     8
  0
VERTEX
  5
3DB9
  8
0
 10
126.0000000000002
 20
197.40000000000001
 30
0.0
 70
    32
  0
VERTEX
  5
3DBA
  8
0
 10
125.52783536435101
 20
197.38248483026439
 30
0.0
 70
    32
  0
VERTEX
  5
3DBB
  8
0
 10
125.05380400550629
 20
197.39296023074689
 30
0.0
 70
    32
  0
VERTEX
  5
3DBC
  8
0
 10
124.5761549348336
 20
197.43206684872419
 30
0.0
 70
    32
  0
VERTEX
  5
3DBD
  8
0
 10
124.1000000000007
 20
197.49999999999989
 30
0.0
 70
    32
  0
SEQEND
  5
3DBE
  8
0
  0
LINE
  5
3DC1
  8
0
 10
90.450413125845785
 20
49.911171327933523
 30
0.0
 11
90.450413125845785
 21
50.088828672066541
 31
0.0
  0
POLYLINE
  5
3DC2
  8
0
 66
     1
 10
0.0
 20
0.0
 30
0.0
 70
     8
  0
VERTEX
  5
3DC3
  8
0
 10
90.570452236937626
 20
51.511995034424672
 30
0.0
 70
    32
  0
VERTEX
  5
3DC4
  8
0
 10
90.474555462778312
 20
50.68440219777068
 30
0.0
 70
    32
  0
VERTEX
  5
3DC5
  8
0
 10
90.450413125845785
 20
50.088828672066143
 30
0.0
 70
    32
  0
SEQEND
  5
3DC6
  8
0
  0
POLYLINE
  5
3DC7
  8
0
 66
     1
 10
0.0
 20
0.0
 30
0.0
 70
     8
  0
VERTEX
  5
3DC8
  8
0
 10
90.450413125845785
 20
49.911171327933907
 30
0.0
 70
    32
  0
VERTEX
  5
3DC9
  8
0
 10
90.494494115892223
 20
49.079208010899038
 30
0.0
 70
    32
  0
VERTEX
  5
3DCA
  8
0
 10
90.570452236937626
 20
48.488004965575378
 30
0.0
 70
    32
  0
SEQEND
  5
3DCB
  8
0
  0
ARC
  5
3DCD
  8
0
 10
100.0
 20
50.0
 30
0.0
 40
9.5499999999999901
 50
189.1096336310577
 51
296.09051982275878
  0
POLYLINE
  5
3DCE
  8
0
 66
     1
 10
0.0
 20
0.0
 30
0.0
 70
     8
  0
VERTEX
  5
3DCF
  8
0
 10
124.09999999999999
 20
44.0
 30
0.0
 70
    32
  0
VERTEX
  5
3DD0
  8
0
 10
123.1599089775091
 20
44.176294988511813
 30
0.0
 70
    32
  0
VERTEX
  5
3DD1
  8
0
 10
122.2152025559958
 20
44.32345854203799
 30
0.0
 70
    32
  0
VERTEX
  5
3DD2
  8
0
 10
121.1517428676094
 20
44.45364026006132
 30
0.0
 70
    32
  0
VERTEX
  5
3DD3
  8
0
 10
120.084597080604
 20
44.547005058911509
 30
0.0
 70
    32
  0
VERTEX
  5
3DD4
  8
0
 10
119.0156859252489
 20
44.603436844606271
 30
0.0
 70
    32
  0
VERTEX
  5
3DD5
  8
0
 10
117.71159484342741
 20
44.622233160706848
 30
0.0
 70
    32
  0
VERTEX
  5
3DD6
  8
0
 10
116.4085028982489
 20
44.586213372188119
 30
0.0
 70
    32
  0
VERTEX
  5
3DD7
  8
0
 10
115.09582239729851
 20
44.494301194471802
 30
0.0
 70
    32
  0
VERTEX
  5
3DD8
  8
0
 10
113.7885311464666
 20
44.34682626864241
 30
0.0
 70
    32
  0
VERTEX
  5
3DD9
  8
0
 10
112.87363725444391
 20
44.209968982663383
 30
0.0
 70
    32
  0
VERTEX
  5
3DDA
  8
0
 10
111.9631233789939
 20
44.045857378581331
 30
0.0
 70
    32
  0
VERTEX
  5
3DDB
  8
0
 10
110.9489189815762
 20
43.829695899757382
 30
0.0
 70
    32
  0
VERTEX
  5
3DDC
  8
0
 10
109.94168316150871
 20
43.579528431362398
 30
0.0
 70
    32
  0
VERTEX
  5
3DDD
  8
0
 10
108.94291630538601
 20
43.295658262854658
 30
0.0
 70
    32
  0
VERTEX
  5
3DDE
  8
0
 10
107.7378789157828
 20
42.904160459489731
 30
0.0
 70
    32
  0
VERTEX
  5
3DDF
  8
0
 10
106.54833304287411
 20
42.463176903626497
 30
0.0
 70
    32
  0
VERTEX
  5
3DE0
  8
0
 10
105.36379936089691
 20
41.967648339163823
 30
0.0
 70
    32
  0
VERTEX
  5
3DE1
  8
0
 10
104.20000000000231
 20
41.423141600796953
 30
0.0
 70
    32
  0
SEQEND
  5
3DE2
  8
0
  0
POLYLINE
  5
3DE3
  8
0
 66
     1
 10
0.0
 20
0.0
 30
0.0
 70
     8
  0
VERTEX
  5
3DE4
  8
0
 10
124.09999999999999
 20
44.0
 30
0.0
 70
    32
  0
VERTEX
  5
3DE5
  8
0
 10
124.56757377801991
 20
43.933033611432791
 30
0.0
 70
    32
  0
VERTEX
  5
3DE6
  8
0
 10
125.0400372390354
 20
43.89368496344764
 30
0.0
 70
    32
  0
VERTEX
  5
3DE7
  8
0
 10
125.5191981281635
 20
43.882424336242082
 30
0.0
 70
    32
  0
VERTEX
  5
3DE8
  8
0
 10
126.0000000000001
 20
43.900000000000027
 30
0.0
 70
    32
  0
SEQEND
  5
3DE9
  8
0
  0
POLYLINE
  5
3DEA
  8
0
 66
     1
 10
0.0
 20
0.0
 30
0.0
 70
     8
  0
VERTEX
  5
3DEB
  8
0
 10
126.0000000000001
 20
56.100000000000023
 30
0.0
 70
    32
  0
VERTEX
  5
3DEC
  8
0
 10
125.52768612094199
 20
56.117516294195688
 30
0.0
 70
    32
  0
VERTEX
  5
3DED
  8
0
 10
125.0536007059292
 20
56.10702923987315
 30
0.0
 70
    32
  0
VERTEX
  5
3DEE
  8
0
 10
124.57600161877239
 20
56.067915960812513
 30
0.0
 70
    32
  0
VERTEX
  5
3DEF
  8
0
 10
124.1000000000007
 20
56.000000000000171
 30
0.0
 70
    32
  0
SEQEND
  5
3DF0
  8
0
  0
POLYLINE
  5
3DF1
  8
0
 66
     1
 10
0.0
 20
0.0
 30
0.0
 70
     8
  0
VERTEX
  5
3DF2
  8
0
 10
104.2000000000051
 20
58.57685839920174
 30
0.0
 70
    32
  0
VERTEX
  5
3DF3
  8
0
 10
105.21912325138349
 20
58.096857621204997
 30
0.0
 70
    32
  0
VERTEX
  5
3DF4
  8
0
 10
106.25444278080271
 20
57.654407048636919
 30
0.0
 70
    32
  0
VERTEX
  5
3DF5
  8
0
 10
107.31408147924439
 20
57.246612413648499
 30
0.0
 70
    32
  0
VERTEX
  5
3DF6
  8
0
 10
108.3867078884235
 20
56.878275968379
 30
0.0
 70
    32
  0
VERTEX
  5
3DF7
  8
0
 10
109.4848332979282
 20
56.545830445335298
 30
0.0
 70
    32
  0
VERTEX
  5
3DF8
  8
0
 10
110.59345987668399
 20
56.25449136492211
 30
0.0
 70
    32
  0
VERTEX
  5
3DF9
  8
0
 10
111.719047835788
 20
56.00292485511698
 30
0.0
 70
    32
  0
VERTEX
  5
3DFA
  8
0
 10
112.8559712893199
 20
55.79294654983574
 30
0.0
 70
    32
  0
VERTEX
  5
3DFB
  8
0
 10
113.9631543600041
 20
55.630220967313107
 30
0.0
 70
    32
  0
VERTEX
  5
3DFC
  8
0
 10
115.0755388547243
 20
55.507548124099571
 30
0.0
 70
    32
  0
VERTEX
  5
3DFD
  8
0
 10
116.20001955027659
 20
55.424651569976049
 30
0.0
 70
    32
  0
VERTEX
  5
3DFE
  8
0
 10
117.32713211217499
 20
55.382683659918712
 30
0.0
 70
    32
  0
VERTEX
  5
3DFF
  8
0
 10
118.46766763220739
 20
55.38198032038337
 30
0.0
 70
    32
  0
VERTEX
  5
3E00
  8
0
 10
119.60798338514719
 20
55.423247375730618
 30
0.0
 70
    32
  0
VERTEX
  5
3E01
  8
0
 10
120.7551202840307
 20
55.507303474992618
 30
0.0
 70
    32
  0
VERTEX
  5
3E02
  8
0
 10
121.8989258452058
 20
55.633917041287297
 30
0.0
 70
    32
  0
VERTEX
  5
3E03
  8
0
 10
123.0017720143984
 20
55.79698463495685
 30
0.0
 70
    32
  0
VERTEX
  5
3E04
  8
0
 10
124.1000000000007
 20
56.000000000000171
 30
0.0
 70
    32
  0
SEQEND
  5
3E05
  8
0
  0
ARC
  5
3E06
  8
0
 10
100.0
 20
50.000000000000057
 30
0.0
 40
9.5499999999999758
 50
63.909480177223003
 51
170.89036636894059
  0
LINE
  5
3E3B
  8
0
 10
90.450413125845785
 20
203.41117132793349
 30
0.0
 11
90.450413125845785
 21
203.5888286720666
 31
0.0
  0
POLYLINE
  5
3E3C
  8
0
 66
     1
 10
0.0
 20
0.0
 30
0.0
 70
     8
  0
VERTEX
  5
3E3D
  8
0
 10
90.570452236937626
 20
205.0119950344247
 30
0.0
 70
    32
  0
VERTEX
  5
3E3E
  8
0
 10
90.474555462778355
 20
204.18440219777071
 30
0.0
 70
    32
  0
VERTEX
  5
3E3F
  8
0
 10
90.450413125845785
 20
203.5888286720662
 30
0.0
 70
    32
  0
SEQEND
  5
3E40
  8
0
  0
POLYLINE
  5
3E41
  8
0
 66
     1
 10
0.0
 20
0.0
 30
0.0
 70
     8
  0
VERTEX
  5
3E42
  8
0
 10
90.450413125845785
 20
203.41117132793391
 30
0.0
 70
    32
  0
VERTEX
  5
3E43
  8
0
 10
90.494494115892266
 20
202.57920801089909
 30
0.0
 70
    32
  0
VERTEX
  5
3E44
  8
0
 10
90.570452236937626
 20
201.98800496557541
 30
0.0
 70
    32
  0
SEQEND
  5
3E45
  8
0
  0
ARC
  5
3E46
  8
0
 10
100.0
 20
203.5
 30
0.0
 40
9.5499999999999901
 50
189.1096336310577
 51
296.09051982275878
  0
ARC
  5
3E47
  8
0
 10
100.0
 20
203.50000000000011
 30
0.0
 40
9.5499999999999758
 50
63.909480177223003
 51
170.89036636894059
  0
POLYLINE
  5
3E48
  8
0
 66
     1
 10
0.0
 20
0.0
 30
0.0
  0
VERTEX
  5
3F96
  8
0
 10
164.9476609108018
 20
47.392061692540381
 30
0.0
  0
VERTEX
  5
3F97
  8
0
 10
164.9460388624334
 20
47.383559340237177
 30
0.0
  0
VERTEX
  5
3F98
  8
0
 10
164.94119783696021
 20
47.358937157433161
 30
0.0
  0
VERTEX
  5
3F99
  8
0
 10
164.92864492975241
 20
47.299585612524083
 30
0.0
  0
VERTEX
  5
3F9A
  8
0
 10
164.9110081488553
 20
47.224719669852902
 30
0.0
  0
VERTEX
  5
3F9B
  8
0
 10
164.8621499475091
 20
47.051057466812551
 30
0.0
  0
VERTEX
  5
3F9C
  8
0
 10
164.79745980419801
 20
46.866386303198169
 30
0.0
  0
VERTEX
  5
3F9D
  8
0
 10
164.71638776127131
 20
46.676721738808617
 30
0.0
  0
VERTEX
  5
3F9E
  8
0
 10
164.61927954596561
 20
46.487339868565009
 30
0.0
  0
VERTEX
  5
3F9F
  8
0
 10
164.5094588089184
 20
46.306036348837999
 30
0.0
  0
VERTEX
  5
3FA0
  8
0
 10
164.38359326057301
 20
46.128329566537609
 30
0.0
  0
VERTEX
  5
3FA1
  8
0
 10
164.2396373650858
 20
45.953997877528252
 30
0.0
  0
VERTEX
  5
3FA2
  8
0
 10
164.07790411550181
 20
45.786134364896782
 30
0.0
  0
VERTEX
  5
3FA3
  8
0
 10
163.93026234192939
 20
45.653461889859102
 30
0.0
  0
VERTEX
  5
3FA4
  8
0
 10
163.76963067165019
 20
45.527520426101653
 30
0.0
  0
VERTEX
  5
3FA5
  8
0
 10
163.59353460301091
 20
45.408219626126531
 30
0.0
  0
VERTEX
  5
3FA6
  8
0
 10
163.4035141219228
 20
45.298557353144638
 30
0.0
  0
VERTEX
  5
3FA7
  8
0
 10
163.08343654884879
 20
45.152471582875592
 30
0.0
  0
VERTEX
  5
3FA8
  8
0
 10
162.90960931753921
 20
45.091222133595181
 30
0.0
  0
VERTEX
  5
3FA9
  8
0
 10
162.72869696014919
 20
45.039845237746071
 30
0.0
  0
VERTEX
  5
3FAA
  8
0
 10
162.57069963410251
 20
45.004783212115733
 30
0.0
  0
SEQEND
  5
3FAB
  8
0
  0
ARC
  5
3E49
  8
0
 10
99.999999999998465
 20
50.0
 30
0.0
 40
65.000000000001577
 50
357.7005541943343
 51
2.299445805665735
  0
POLYLINE
  5
3E4A
  8
0
 66
     1
 10
0.0
 20
0.0
 30
0.0
  0
VERTEX
  5
3FAC
  8
0
 10
162.57069963410251
 20
54.995216787884317
 30
0.0
  0
VERTEX
  5
3FAD
  8
0
 10
162.7572741918554
 20
54.952849599677847
 30
0.0
  0
VERTEX
  5
3FAE
  8
0
 10
162.9406330392471
 20
54.898720675228951
 30
0.0
  0
VERTEX
  5
3FAF
  8
0
 10
163.12229055356349
 20
54.832168922510327
 30
0.0
  0
VERTEX
  5
3FB0
  8
0
 10
163.29771165831329
 20
54.754800260994841
 30
0.0
  0
VERTEX
  5
3FB1
  8
0
 10
163.61194124287431
 20
54.58014731379842
 30
0.0
  0
VERTEX
  5
3FB2
  8
0
 10
163.89775477635339
 20
54.373473005831727
 30
0.0
  0
VERTEX
  5
3FB3
  8
0
 10
164.0916575537189
 20
54.200574034524656
 30
0.0
  0
VERTEX
  5
3FB4
  8
0
 10
164.2663102461463
 20
54.015664739525221
 30
0.0
  0
VERTEX
  5
3FB5
  8
0
 10
164.42365651816681
 20
53.81801840543244
 30
0.0
  0
VERTEX
  5
3FB6
  8
0
 10
164.5611151625148
 20
53.612270502933882
 30
0.0
  0
VERTEX
  5
3FB7
  8
0
 10
164.6779971277137
 20
53.402158046959642
 30
0.0
  0
VERTEX
  5
3FB8
  8
0
 10
164.7755230157093
 20
53.188627238945507
 30
0.0
  0
VERTEX
  5
3FB9
  8
0
 10
164.85436784587179
 20
52.973354861610453
 30
0.0
  0
VERTEX
  5
3FBA
  8
0
 10
164.9127899925837
 20
52.768090843212399
 30
0.0
  0
VERTEX
  5
3FBB
  8
0
 10
164.9380971820267
 20
52.656287843328407
 30
0.0
  0
VERTEX
  5
3FBC
  8
0
 10
164.94694200474621
 20
52.611723081832046
 30
0.0
  0
VERTEX
  5
3FBD
  8
0
 10
164.9476609108018
 20
52.607938307459619
 30
0.0
  0
SEQEND
  5
3FBE
  8
0
  0
POLYLINE
  5
3E4B
  8
0
 66
     1
 10
0.0
 20
0.0
 30
0.0
  0
VERTEX
  5
3FBF
  8
0
 10
162.08735688418341
 20
55.048727859407393
 30
0.0
  0
VERTEX
  5
3FC0
  8
0
 10
162.3293153811432
 20
55.031870449859071
 30
0.0
  0
VERTEX
  5
3FC1
  8
0
 10
162.57069963410251
 20
54.995216787884317
 30
0.0
  0
SEQEND
  5
3FC2
  8
0
  0
LINE
  5
3E4C
  8
0
 10
126.0
 20
56.100000000000023
 30
0.0
 11
162.08735688418341
 21
55.048727859407393
 31
0.0
  0
LINE
  5
3E4D
  8
0
 10
162.08735688418341
 20
44.951272140592657
 30
0.0
 11
126.0000000000001
 21
43.900000000000027
 31
0.0
  0
POLYLINE
  5
3E4E
  8
0
 66
     1
 10
0.0
 20
0.0
 30
0.0
  0
VERTEX
  5
3FC3
  8
0
 10
162.57069963410251
 20
45.004783212115733
 30
0.0
  0
VERTEX
  5
3FC4
  8
0
 10
162.33090325817849
 20
44.968305341969653
 30
0.0
  0
VERTEX
  5
3FC5
  8
0
 10
162.08735688418341
 20
44.951272140592657
 30
0.0
  0
SEQEND
  5
3FC6
  8
0
  0
LINE
  5
3E4F
  8
0
 10
206.11774279162049
 20
154.1999999999999
 30
0.0
 11
193.88225720837951
 21
154.1999999999999
 31
0.0
  0
LINE
  5
3E50
  8
0
 10
209.5499999999999
 20
142.8178159218545
 30
0.0
 11
209.42922749272961
 21
142.79851952158299
 31
0.0
  0
LINE
  5
3E51
  8
0
 10
190.57077250727031
 20
142.79851952158299
 30
0.0
 11
190.4500000000001
 21
142.8178159218545
 31
0.0
  0
LINE
  5
3E52
  8
0
 10
193.88225720837951
 20
154.1999999999999
 30
0.0
 11
193.88225720837951
 21
144.66335485425009
 31
0.0
  0
LINE
  5
3E53
  8
0
 10
206.1177427916204
 20
144.6633548542502
 30
0.0
 11
206.11774279162049
 21
154.1999999999999
 31
0.0
  0
LINE
  5
3E54
  8
0
 10
209.5499999999999
 20
142.8178159218545
 30
0.0
 11
209.5499999999999
 21
153.21444829107531
 31
0.0
  0
LINE
  5
3E55
  8
0
 10
190.44999999999999
 20
153.21671712103779
 30
0.0
 11
190.44999999999999
 21
142.8178159218545
 31
0.0
  0
ARC
  5
3E56
  8
0
 10
201.02876123833551
 20
144.1265864192508
 30
0.0
 40
3.9715406153842472
 50
12.30949788091597
 51
44.292520188599489
  0
ARC
  5
3E57
  8
0
 10
206.8244758281248
 20
150.66975882464641
 30
0.0
 40
4.788631723700405
 50
208.29354516188519
 51
231.92748188296949
  0
LINE
  5
3E58
  8
0
 10
202.60793830746019
 20
150.55342247233469
 30
0.0
 11
202.6079383074601
 21
148.40000000000001
 31
0.0
  0
ARC
  5
3E59
  8
0
 10
208.9509899444802
 20
146.61543495366939
 30
0.0
 40
7.4660598555769537
 50
121.9942467939849
 51
148.1665483416372
  0
ARC
  5
3E5A
  8
0
 10
204.97578811245569
 20
153.0377084349671
 30
0.0
 40
0.0923648930436289
 50
282.14268636865899
 51
322.15666678226683
  0
LINE
  5
3E5B
  8
0
 10
205.04872785940751
 20
144.0696484494469
 30
0.0
 11
205.04872785940731
 21
152.98104215944451
 31
0.0
  0
ARC
  5
3E5C
  8
0
 10
200.3875539365456
 20
143.81150993441759
 30
0.0
 40
4.668316380892529
 50
3.1698355058481771
 51
14.4103335047683
  0
ARC
  5
3E5D
  8
0
 10
194.21116306802489
 20
149.79734505767971
 30
0.0
 40
3.4742897503895671
 50
303.49449907082078
 51
336.28447388431391
  0
ARC
  5
3E5E
  8
0
 10
198.81682579633261
 20
144.20973274258981
 30
0.0
 40
3.8032583071215358
 50
134.97959643636571
 51
168.4183854941214
  0
LINE
  5
3E5F
  8
0
 10
194.95127214059261
 20
152.9810421594446
 30
0.0
 11
194.95127214059261
 21
144.0696484494527
 31
0.0
  0
ARC
  5
3E60
  8
0
 10
195.02434148452409
 20
153.03791463289551
 30
0.0
 40
0.0925937754872692
 50
217.89489322124021
 51
257.80575362760959
  0
ARC
  5
3E61
  8
0
 10
191.69350589075421
 20
147.2581246061211
 30
0.0
 40
6.5827445836163339
 50
30.039461591756059
 51
59.799743272629541
  0
LINE
  5
3E62
  8
0
 10
197.39206169254001
 20
148.40000000000009
 30
0.0
 11
197.39206169254001
 21
150.55342247233469
 31
0.0
  0
LINE
  5
3E63
  8
0
 10
197.39206169254001
 20
150.55342247233469
 30
0.0
 11
202.60793830746019
 21
150.55342247233469
 31
0.0
  0
LINE
  5
3E64
  8
0
 10
197.39206169254001
 20
148.40000000000009
 30
0.0
 11
202.6079383074601
 21
148.40000000000001
 31
0.0
  0
LINE
  5
3E65
  8
0
 10
195.00478321211571
 20
152.94741004052921
 30
0.0
 11
204.99521678788429
 21
152.94741004052921
 31
0.0
  0
LINE
  5
3E66
  8
0
 10
204.90899711639679
 20
144.97328848624511
 30
0.0
 11
195.09100288360321
 21
144.97328848624511
 31
0.0
  0
ARC
  5
3E67
  8
0
 10
215.01541413863589
 20
144.03336207300461
 30
0.0
 40
9.9667523341193931
 50
179.79140037323279
 51
188.8499736261839
  0
ARC
  5
3E68
  8
0
 10
191.631144400317
 20
178.2384851521397
 30
0.0
 40
24.357439715453989
 50
269.71381284647271
 51
275.30283911073531
  0
ARC
  5
3E69
  8
0
 10
208.35467645761119
 20
177.7888152608254
 30
0.0
 40
23.9078518988802
 50
264.63127834961853
 51
270.32555012735918
  0
POLYLINE
  5
3E6A
  8
0
 66
     1
 10
0.0
 20
0.0
 30
0.0
 70
   128
  0
VERTEX
  5
3FC7
  8
0
 10
205.04872785940731
 20
152.9810421594446
 30
0.0
  0
VERTEX
  5
3FC8
  8
0
 10
205.31105871531241
 20
153.52628506334079
 30
0.0
  0
VERTEX
  5
3FC9
  8
0
 10
205.57371592649989
 20
153.9103370555429
 30
0.0
  0
VERTEX
  5
3FCA
  8
0
 10
205.8367804095349
 20
154.1340858233325
 30
0.0
  0
VERTEX
  5
3FCB
  8
0
 10
206.1177427916204
 20
154.1999999999999
 30
0.0
  0
SEQEND
  5
3FCC
  8
0
  0
POLYLINE
  5
3E6B
  8
0
 66
     1
 10
0.0
 20
0.0
 30
0.0
 70
   128
  0
VERTEX
  5
3FCD
  8
0
 10
193.88225720837951
 20
154.1999999999999
 30
0.0
  0
VERTEX
  5
3FCE
  8
0
 10
194.0944142516542
 20
154.16632252784919
 30
0.0
  0
VERTEX
  5
3FCF
  8
0
 10
194.2888318595227
 20
154.04721015511871
 30
0.0
  0
VERTEX
  5
3FD0
  8
0
 10
194.48328584390691
 20
153.8406886278066
 30
0.0
  0
VERTEX
  5
3FD1
  8
0
 10
194.67767734566959
 20
153.54607068512351
 30
0.0
  0
VERTEX
  5
3FD2
  8
0
 10
194.95127214059261
 20
152.9810421594446
 30
0.0
  0
SEQEND
  5
3FD3
  8
0
  0
LINE
  5
3E6C
  8
0
 10
205.24092100213301
 20
142.5
 30
0.0
 11
194.75907899786711
 21
142.5
 31
0.0
  0
POLYLINE
  5
3E6D
  8
0
 66
     1
 10
0.0
 20
0.0
 30
0.0
 70
   128
  0
VERTEX
  5
3FD4
  8
0
 10
206.09999999999999
 20
144.6910547060389
 30
0.0
  0
VERTEX
  5
3FD5
  8
0
 10
205.94165747816911
 20
144.92529390253529
 30
0.0
  0
VERTEX
  5
3FD6
  8
0
 10
205.7831843295555
 20
144.99985385159169
 30
0.0
  0
VERTEX
  5
3FD7
  8
0
 10
205.6241513345619
 20
144.91011652171039
 30
0.0
  0
VERTEX
  5
3FD8
  8
0
 10
205.46527233525771
 20
144.65394355696631
 30
0.0
  0
SEQEND
  5
3FD9
  8
0
  0
ARC
  5
3E6E
  8
0
 10
211.8737167364709
 20
143.5715653296119
 30
0.0
 40
6.4992078186877631
 50
170.41329070082341
 51
178.39197716134669
  0
ARC
  5
3E6F
  8
0
 10
201.84553596041181
 20
143.5030179433185
 30
0.0
 40
3.5404356477928669
 50
343.54253048569279
 51
4.0642010341670654
  0
LINE
  5
3E70
  8
0
 10
190.4500000000001
 20
142.8178159218545
 30
0.0
 11
191.42314160079329
 21
142.8178159218545
 31
0.0
  0
POLYLINE
  5
3E71
  8
0
 66
     1
 10
0.0
 20
0.0
 30
0.0
 70
   128
  0
VERTEX
  5
3FDA
  8
0
 10
206.09999999999999
 20
144.6910547060389
 30
0.0
  0
VERTEX
  5
3FDB
  8
0
 10
206.1177427916204
 20
144.6633548542502
 30
0.0
  0
VERTEX
  5
3FDC
  8
0
 10
206.10725573729781
 20
144.633960416919
 30
0.0
  0
VERTEX
  5
3FDD
  8
0
 10
206.06814245823719
 20
144.60266494563911
 30
0.0
  0
VERTEX
  5
3FDE
  8
0
 10
206.00022649742471
 20
144.5697166194463
 30
0.0
  0
SEQEND
  5
3FDF
  8
0
  0
POLYLINE
  5
3E72
  8
0
 66
     1
 10
0.0
 20
0.0
 30
0.0
 70
   128
  0
VERTEX
  5
3FE0
  8
0
 10
208.57708489662781
 20
142.81781592185459
 30
0.0
  0
VERTEX
  5
3FE1
  8
0
 10
207.6553702452955
 20
142.87075510994899
 30
0.0
  0
VERTEX
  5
3FE2
  8
0
 10
206.8812712925681
 20
143.01878699397349
 30
0.0
  0
VERTEX
  5
3FE3
  8
0
 10
206.2550600567298
 20
143.23397309047081
 30
0.0
  0
VERTEX
  5
3FE4
  8
0
 10
205.79312719490011
 20
143.4821324316184
 30
0.0
  0
VERTEX
  5
3FE5
  8
0
 10
205.50788087921339
 20
143.72926240078061
 30
0.0
  0
VERTEX
  5
3FE6
  8
0
 10
205.3869179234529
 20
143.96931511549161
 30
0.0
  0
VERTEX
  5
3FE7
  8
0
 10
205.4234049300118
 20
144.19586750549129
 30
0.0
  0
VERTEX
  5
3FE8
  8
0
 10
205.63418757760149
 20
144.39927932932051
 30
0.0
  0
VERTEX
  5
3FE9
  8
0
 10
206.00022649742479
 20
144.5697166194463
 30
0.0
  0
SEQEND
  5
3FEA
  8
0
  0
LINE
  5
3E73
  8
0
 10
208.5768583992008
 20
142.8178159218545
 30
0.0
 11
209.5499999999999
 21
142.8178159218545
 31
0.0
  0
LINE
  5
3E74
  8
0
 10
209.42922749272961
 20
142.79851952158299
 30
0.0
 11
205.3151708907661
 21
142.79851952158299
 31
0.0
  0
LINE
  5
3E75
  8
0
 10
194.6848291092339
 20
142.79851952158299
 30
0.0
 11
190.57077250727031
 21
142.79851952158299
 31
0.0
  0
LINE
  5
3E76
  8
0
 10
191.50948173106519
 20
153.6696323297075
 30
0.0
 11
191.50948173313839
 21
153.88134928423869
 31
0.0
  0
LINE
  5
3E77
  8
0
 10
191.42314160079329
 20
142.8178159218545
 30
0.0
 11
191.42314160079641
 21
153.64238051648931
 31
0.0
  0
LINE
  5
3E78
  8
0
 10
191.509481728992
 20
153.66963232903879
 30
0.0
 11
191.42314160079641
 21
153.64238051648931
 31
0.0
  0
LINE
  5
3E79
  8
0
 10
208.5768583992031
 20
153.6423805164896
 30
0.0
 11
208.5768583992008
 21
142.8178159218545
 31
0.0
  0
LINE
  5
3E7A
  8
0
 10
208.49051826686161
 20
153.88134928423869
 30
0.0
 11
208.49051826893481
 21
153.6696323297075
 31
0.0
  0
ARC
  5
3E7B
  8
0
 10
210.7214710942535
 20
160.58741487663431
 30
0.0
 40
7.2686220066366669
 50
252.12572904660809
 51
252.83941676786881
  0
ARC
  5
3E7C
  8
0
 10
191.59070701630671
 20
151.998947390415
 30
0.0
 40
1.6519535733045501
 50
95.821792881304972
 51
132.5091477098851
  0
ARC
  5
3E7D
  8
0
 10
208.30226395057599
 20
151.73876293289391
 30
0.0
 40
1.9233205702096161
 50
50.108399302904161
 51
81.791774607201901
  0
ARC
  5
3E7E
  8
0
 10
199.6124460634544
 20
143.81150993441759
 30
0.0
 40
4.668316380892529
 50
165.58966649523171
 51
176.8301644941518
  0
ARC
  5
3E7F
  8
0
 10
184.98458586136411
 20
144.03336207300461
 30
0.0
 40
9.9667523341193931
 50
351.1500263738161
 51
0.2085996267672103
  0
POLYLINE
  5
3E80
  8
0
 66
     1
 10
0.0
 20
0.0
 30
0.0
 70
   128
  0
VERTEX
  5
3FEB
  8
0
 10
193.90000000000001
 20
144.6910547060389
 30
0.0
  0
VERTEX
  5
3FEC
  8
0
 10
194.05834252183089
 20
144.92529390253529
 30
0.0
  0
VERTEX
  5
3FED
  8
0
 10
194.2168156704445
 20
144.99985385159169
 30
0.0
  0
VERTEX
  5
3FEE
  8
0
 10
194.3758486654381
 20
144.91011652171039
 30
0.0
  0
VERTEX
  5
3FEF
  8
0
 10
194.53472766474221
 20
144.65394355696631
 30
0.0
  0
SEQEND
  5
3FF0
  8
0
  0
ARC
  5
3E81
  8
0
 10
188.12628326352899
 20
143.5715653296119
 30
0.0
 40
6.4992078186877631
 50
1.6080228386532489
 51
9.5867092991765315
  0
ARC
  5
3E82
  8
0
 10
198.15446403958819
 20
143.5030179433185
 30
0.0
 40
3.5404356477928669
 50
175.9357989658329
 51
196.45746951430709
  0
POLYLINE
  5
3E83
  8
0
 66
     1
 10
0.0
 20
0.0
 30
0.0
 70
   128
  0
VERTEX
  5
3FF1
  8
0
 10
193.90000000000001
 20
144.6910547060389
 30
0.0
  0
VERTEX
  5
3FF2
  8
0
 10
193.8822572083796
 20
144.6633548542502
 30
0.0
  0
VERTEX
  5
3FF3
  8
0
 10
193.89274426270219
 20
144.633960416919
 30
0.0
  0
VERTEX
  5
3FF4
  8
0
 10
193.93185754176281
 20
144.60266494563911
 30
0.0
  0
VERTEX
  5
3FF5
  8
0
 10
193.99977350257529
 20
144.5697166194463
 30
0.0
  0
SEQEND
  5
3FF6
  8
0
  0
POLYLINE
  5
3E84
  8
0
 66
     1
 10
0.0
 20
0.0
 30
0.0
 70
   128
  0
VERTEX
  5
3FF7
  8
0
 10
191.42291510337219
 20
142.81781592185459
 30
0.0
  0
VERTEX
  5
3FF8
  8
0
 10
192.3446297547045
 20
142.87075510994899
 30
0.0
  0
VERTEX
  5
3FF9
  8
0
 10
193.1187287074319
 20
143.01878699397349
 30
0.0
  0
VERTEX
  5
3FFA
  8
0
 10
193.74493994327011
 20
143.23397309047081
 30
0.0
  0
VERTEX
  5
3FFB
  8
0
 10
194.20687280509981
 20
143.4821324316184
 30
0.0
  0
VERTEX
  5
3FFC
  8
0
 10
194.49211912078661
 20
143.72926240078061
 30
0.0
  0
VERTEX
  5
3FFD
  8
0
 10
194.6130820765471
 20
143.96931511549161
 30
0.0
  0
VERTEX
  5
3FFE
  8
0
 10
194.57659506998809
 20
144.19586750549129
 30
0.0
  0
VERTEX
  5
3FFF
  8
0
 10
194.36581242239839
 20
144.39927932932051
 30
0.0
  0
VERTEX
  5
4000
  8
0
 10
193.99977350257521
 20
144.5697166194463
 30
0.0
  0
SEQEND
  5
4001
  8
0
  0
ENDSEC
  0
EOF
