  0
SECTION
  2
HEADER
  9
$ACADVER
  1
AC1009
  9
$INSBASE
 10
0.0
 20
0.0
 30
0.0
  9
$EXTMIN
 10
0.0
 20
-2.960436562073669
 30
0.0
  9
$EXTMAX
 10
209.5499999999999
 20
193.05000000000001
 30
0.0
  9
$LIMMIN
 10
0.0
 20
0.0
  9
$LIMMAX
 10
187.5
 20
135.0
  9
$ORTHOMODE
 70
     1
  9
$REGENMODE
 70
     1
  9
$FILLMODE
 70
     1
  9
$QTEXTMODE
 70
     0
  9
$MIRRTEXT
 70
     0
  9
$DRAGMODE
 70
     2
  9
$LTSCALE
 40
5.0
  9
$OSMODE
 70
    37
  9
$ATTMODE
 70
     1
  9
$TEXTSIZE
 40
4.0
  9
$TRACEWID
 40
0.05
  9
$TEXTSTYLE
  7
STANDARD
  9
$CLAYER
  8
0
  9
$CELTYPE
  6
BYLAYER
  9
$CECOLOR
 62
   256
  9
$DIMSCALE
 40
0.5
  9
$DIMASZ
 40
3.0
  9
$DIMEXO
 40
2.0
  9
$DIMDLI
 40
0.38
  9
$DIMRND
 40
0.0
  9
$DIMDLE
 40
0.0
  9
$DIMEXE
 40
2.0
  9
$DIMTP
 40
0.0
  9
$DIMTM
 40
0.0
  9
$DIMTXT
 40
3.0
  9
$DIMCEN
 40
0.0
  9
$DIMTSZ
 40
0.0
  9
$DIMTOL
 70
     0
  9
$DIMLIM
 70
     0
  9
$DIMTIH
 70
     0
  9
$DIMTOH
 70
     0
  9
$DIMSE1
 70
     0
  9
$DIMSE2
 70
     0
  9
$DIMTAD
 70
     1
  9
$DIMZIN
 70
     0
  9
$DIMBLK
  1

  9
$DIMASO
 70
     0
  9
$DIMSHO
 70
     0
  9
$DIMPOST
  1

  9
$DIMAPOST
  1

  9
$DIMALT
 70
     0
  9
$DIMALTD
 70
     2
  9
$DIMALTF
 40
25.399999999999999
  9
$DIMLFAC
 40
1.0
  9
$DIMTOFL
 70
     0
  9
$DIMTVP
 40
1.6000000000000001
  9
$DIMTIX
 70
     1
  9
$DIMSOXD
 70
     0
  9
$DIMSAH
 70
     0
  9
$DIMBLK1
  1

  9
$DIMBLK2
  1

  9
$DIMSTYLE
  2
STANDARD
  9
$DIMCLRD
 70
     0
  9
$DIMCLRE
 70
     0
  9
$DIMCLRT
 70
     0
  9
$DIMTFAC
 40
1.0
  9
$DIMGAP
 40
0.09
  9
$LUNITS
 70
     2
  9
$LUPREC
 70
     1
  9
$SKETCHINC
 40
0.1
  9
$FILLETRAD
 40
1.25
  9
$AUNITS
 70
     0
  9
$AUPREC
 70
     0
  9
$MENU
  1
E:\r13\win\SUPPORT\ACAD
  9
$ELEVATION
 40
0.0
  9
$PELEVATION
 40
0.0
  9
$THICKNESS
 40
0.0
  9
$LIMCHECK
 70
     0
  9
$BLIPMODE
 70
     0
  9
$CHAMFERA
 40
0.0
  9
$CHAMFERB
 40
0.0
  9
$SKPOLY
 70
     0
  9
$TDCREATE
 40
2449840.6143865739
  9
$TDUPDATE
 40
2456801.6690472919
  9
$TDINDWG
 40
0.3484548148
  9
$TDUSRTIMER
 40
0.3484548148
  9
$USRTIMER
 70
     1
  9
$ANGBASE
 50
0.0
  9
$ANGDIR
 70
     0
  9
$PDMODE
 70
     0
  9
$PDSIZE
 40
0.0
  9
$PLINEWID
 40
0.0
  9
$COORDS
 70
     1
  9
$SPLFRAME
 70
     0
  9
$SPLINETYPE
 70
     6
  9
$SPLINESEGS
 70
     8
  9
$ATTDIA
 70
     0
  9
$ATTREQ
 70
     1
  9
$HANDLING
 70
     1
  9
$HANDSEED
  5
42BE
  9
$SURFTAB1
 70
     6
  9
$SURFTAB2
 70
     6
  9
$SURFTYPE
 70
     6
  9
$SURFU
 70
     6
  9
$SURFV
 70
     6
  9
$UCSNAME
  2

  9
$UCSORG
 10
0.0
 20
0.0
 30
0.0
  9
$UCSXDIR
 10
1.0
 20
0.0
 30
0.0
  9
$UCSYDIR
 10
0.0
 20
1.0
 30
0.0
  9
$PUCSNAME
  2

  9
$PUCSORG
 10
0.0
 20
0.0
 30
0.0
  9
$PUCSXDIR
 10
1.0
 20
0.0
 30
0.0
  9
$PUCSYDIR
 10
0.0
 20
1.0
 30
0.0
  9
$USERI1
 70
     0
  9
$USERI2
 70
     1
  9
$USERI3
 70
     1
  9
$USERI4
 70
     0
  9
$USERI5
 70
     0
  9
$USERR1
 40
0.0
  9
$USERR2
 40
0.0
  9
$USERR3
 40
0.0
  9
$USERR4
 40
0.0
  9
$USERR5
 40
0.0
  9
$WORLDVIEW
 70
     1
  9
$SHADEDGE
 70
     3
  9
$SHADEDIF
 70
    70
  9
$TILEMODE
 70
     1
  9
$MAXACTVP
 70
    16
  9
$PLIMCHECK
 70
     0
  9
$PEXTMIN
 10
1.0000000000000000E+020
 20
1.0000000000000000E+020
 30
1.0000000000000000E+020
  9
$PEXTMAX
 10
-1.0000000000000000E+020
 20
-1.0000000000000000E+020
 30
-1.0000000000000000E+020
  9
$PLIMMIN
 10
0.0
 20
0.0
  9
$PLIMMAX
 10
12.0
 20
9.0
  9
$UNITMODE
 70
     0
  9
$VISRETAIN
 70
     0
  9
$PLINEGEN
 70
     0
  9
$PSLTSCALE
 70
     0
  0
ENDSEC
  0
SECTION
  2
TABLES
  0
TABLE
  2
VPORT
 70
     1
  0
VPORT
  2
*ACTIVE
 70
     0
 10
0.0
 20
0.0
 11
1.0
 21
1.0
 12
235.63977746870651
 22
135.0
 13
0.0
 23
0.0
 14
5.0
 24
5.0
 15
5.0
 25
5.0
 16
0.0
 26
0.0
 36
1.0
 17
0.0
 27
0.0
 37
0.0
 40
270.0
 41
1.7454798331015291
 42
50.0
 43
0.0
 44
0.0
 50
0.0
 51
0.0
 71
     0
 72
   100
 73
     1
 74
     0
 75
     0
 76
     0
 77
     0
 78
     0
  0
ENDTAB
  0
TABLE
  2
LTYPE
 70
     4
  0
LTYPE
  2
CONTINUOUS
 70
     0
  3
Solid Line
 72
    65
 73
     0
 40
0.0
  0
LTYPE
  2
CENTER
 70
     0
  3
____ _ ____ _ ____ _ ____ _ ____ _ ____ _ ____
 72
    65
 73
     4
 40
2.0
 49
1.25
 49
-0.25
 49
0.25
 49
-0.25
  0
LTYPE
  2
HIDDEN
 70
     0
  3
_ _ _ _ _ _ _ _ _ _ _ _ _ _ _ _ _ _ _ _ _ _ _
 72
    65
 73
     2
 40
0.375
 49
0.25
 49
-0.125
  0
LTYPE
  2
PHANTOM2
 70
     0
  3
___ _ _ ___ _ _ ___ _ _ ___ _ _
 72
    65
 73
     6
 40
1.25
 49
0.625
 49
-0.125
 49
0.125
 49
-0.125
 49
0.125
 49
-0.125
  0
ENDTAB
  0
TABLE
  2
LAYER
 70
     4
  0
LAYER
  2
0
 70
     0
 62
     7
  6
CONTINUOUS
  0
LAYER
  2
1
 70
     0
 62
     1
  6
CENTER
  0
LAYER
  2
2
 70
     0
 62
     2
  6
HIDDEN
  0
LAYER
  2
3
 70
     0
 62
     3
  6
CONTINUOUS
  0
ENDTAB
  0
TABLE
  2
STYLE
 70
     2
  0
STYLE
  2
STANDARD
 70
     0
 40
0.0
 41
1.0
 50
0.0
 71
     0
 42
4.0
  3
TXT
  4
BIGFONT
  0
STYLE
  2
STANDARD1
 70
     0
 40
0.0
 41
1.0
 50
0.0
 71
     0
 42
3.0
  3
txt
  4

  0
ENDTAB
  0
TABLE
  2
VIEW
 70
     1
  0
VIEW
  2
ALL
 70
     0
 40
179.66152299999999
 10
141.903918
 20
89.830760999999995
 41
0.0
 11
0.0
 21
0.0
 31
1.0
 12
0.0
 22
0.0
 32
0.0
 42
0.0
 43
0.0
 44
0.0
 50
0.0
 71
     0
  0
ENDTAB
  0
TABLE
  2
UCS
 70
     0
  0
ENDTAB
  0
TABLE
  2
APPID
 70
     5
  0
APPID
  2
ACAD
 70
     0
  0
APPID
  2
DCO15
 70
     0
  0
APPID
  2
ACAD_MLEADERVER
 70
     0
  0
APPID
  2
ACAD_NAV_VCDISPLAY
 70
     0
  0
APPID
  2
ACAD_EXEMPT_FROM_CAD_STANDARDS
 70
     0
  0
ENDTAB
  0
TABLE
  2
DIMSTYLE
 70
     1
  0
DIMSTYLE
  2
STANDARD
 70
     0
  3

  4

  5

  6

  7

 40
1.0
 41
0.18
 42
0.0625
 43
0.38
 44
0.18
 45
0.0
 46
0.0
 47
0.0
 48
0.0
140
0.18
141
0.09
142
0.0
143
25.399999999999999
144
1.0
145
0.0
146
1.0
147
0.09
 71
     0
 72
     0
 73
     1
 74
     1
 75
     0
 76
     0
 77
     0
 78
     0
170
     0
171
     2
172
     0
173
     0
174
     0
175
     0
176
     0
177
     0
178
     0
  0
ENDTAB
  0
ENDSEC
  0
SECTION
  2
BLOCKS
  0
BLOCK
  8
0
  2
$MODEL_SPACE
 70
     0
 10
0.0
 20
0.0
 30
0.0
  3
$MODEL_SPACE
  1

  0
ENDBLK
  5
1BD
  8
0
  0
BLOCK
 67
     1
  8
0
  2
$PAPER_SPACE
 70
     0
 10
0.0
 20
0.0
 30
0.0
  3
$PAPER_SPACE
  1

  0
ENDBLK
  5
1BB
 67
     1
  8
0
  0
ENDSEC
  0
SECTION
  2
ENTITIES
  0
TEXT
  5
DC5
  8
0
 62
     3
 10
0.0
 20
0.0
 30
0.0
 40
10.0
  1
HKF6-OG-SUS
  7
STANDARD1
  0
LINE
  5
F83
  8
1
 10
100.0
 20
133.5
 30
0.0
 11
100.0
 21
95.0
 31
0.0
  0
LINE
  5
F84
  8
0
 10
165.0
 20
123.40000000000011
 30
0.0
 11
165.0
 21
125.5534224723346
 31
0.0
  0
ARC
  5
F85
  8
0
 10
162.4999999999996
 20
123.40000000000011
 30
0.0
 40
2.5000000000003371
 50
323.130102354185
 51
0.0
  0
ARC
  5
F87
  8
0
 10
99.999999999996334
 20
120.9999999999901
 30
0.0
 40
8.0000000000105551
 50
68.984897038977863
 51
69.635865193682079
  0
ARC
  5
F88
  8
0
 10
100.00000000000711
 20
120.99999999998499
 30
0.0
 40
8.0000000000164402
 50
110.3641348063274
 51
116.2309721323889
  0
LINE
  5
F89
  8
0
 10
102.783882181415
 20
128.5
 30
0.0
 11
97.216117818585104
 21
128.5
 31
0.0
  0
LINE
  5
F96
  8
0
 10
163.1001621460594
 20
119.9732884862451
 30
0.0
 11
164.50000000000071
 21
121.900000000001
 31
0.0
  0
ARC
  5
FA8
  8
0
 10
162.60000000000011
 20
125.5534224723347
 30
0.0
 40
2.3999999999999351
 50
0.0
 51
85.943534391419846
  0
LINE
  5
FAF
  8
0
 10
158.2460601798098
 20
117.5
 30
0.0
 11
155.56124767773159
 21
117.5
 31
0.0
  0
ARC
  5
FB0
  8
0
 10
158.2460601798098
 20
123.4999999999999
 30
0.0
 40
5.999999999999968
 50
273.13632042633202
 51
323.99999999999881
  0
ARC
  5
FB1
  8
0
 10
158.2460601798098
 20
123.5000000000294
 30
0.0
 40
6.000000000029444
 50
269.9999999999992
 51
273.1363204263165
  0
POLYLINE
  5
FB3
  8
0
 66
     1
 10
0.0
 20
0.0
 30
0.0
 70
     8
  0
VERTEX
  5
FB4
  8
0
 10
150.8846596460923
 20
118.75394355696621
 30
0.0
 70
    32
  0
VERTEX
  5
FB5
  8
0
 10
150.35690187716671
 20
119.0227765927917
 30
0.0
 70
    32
  0
VERTEX
  5
FB6
  8
0
 10
149.80864115487651
 20
119.2467021405439
 30
0.0
 70
    32
  0
VERTEX
  5
FB7
  8
0
 10
149.22697371124781
 20
119.428585231952
 30
0.0
 70
    32
  0
VERTEX
  5
FB8
  8
0
 10
148.63194723640419
 20
119.5601726491506
 30
0.0
 70
    32
  0
VERTEX
  5
FB9
  8
0
 10
147.85399924873329
 20
119.6539435569663
 30
0.0
 70
    32
  0
SEQEND
  5
FBA
  8
0
  0
POLYLINE
  5
FBB
  8
0
 66
     1
 10
0.0
 20
0.0
 30
0.0
 70
     8
  0
VERTEX
  5
FBC
  8
0
 10
150.8846596460923
 20
118.75394355696621
 30
0.0
 70
    32
  0
VERTEX
  5
FBD
  8
0
 10
151.57364356660969
 20
118.39319578897
 30
0.0
 70
    32
  0
VERTEX
  5
FBE
  8
0
 10
152.29014798286931
 20
118.0909731693009
 30
0.0
 70
    32
  0
VERTEX
  5
FBF
  8
0
 10
153.05106280020669
 20
117.8433976637111
 30
0.0
 70
    32
  0
VERTEX
  5
FC0
  8
0
 10
153.83027713553989
 20
117.66168134011519
 30
0.0
 70
    32
  0
VERTEX
  5
FC1
  8
0
 10
154.68825455201949
 20
117.54086630056921
 30
0.0
 70
    32
  0
VERTEX
  5
FC2
  8
0
 10
155.56124767773159
 20
117.5
 30
0.0
 70
    32
  0
SEQEND
  5
FC3
  8
0
  0
LINE
  5
FD2
  8
0
 10
106.45
 20
100.0
 30
0.0
 11
106.75
 21
100.3
 31
0.0
  0
LINE
  5
FD3
  8
0
 10
93.250000000000014
 20
100.3
 30
0.0
 11
93.549999999999997
 21
100.0
 31
0.0
  0
LINE
  5
FD4
  8
0
 10
106.45
 20
100.0
 30
0.0
 11
93.549999999999997
 21
100.0
 31
0.0
  0
LINE
  5
FD5
  8
0
 10
93.250000000000014
 20
106.5
 30
0.0
 11
93.250000000000014
 21
100.3
 31
0.0
  0
LINE
  5
FD6
  8
0
 10
106.75
 20
100.3
 30
0.0
 11
106.75
 21
106.5
 31
0.0
  0
LINE
  5
FD7
  8
0
 10
106.75
 20
100.3
 30
0.0
 11
93.250000000000014
 21
100.3
 31
0.0
  0
LINE
  5
FD8
  8
0
 10
104.3763951615144
 20
128.6696323303762
 30
0.0
 11
104.2000000000012
 21
128.64238051648931
 31
0.0
  0
LINE
  5
FD9
  8
0
 10
104.3763951615144
 20
128.88134928423861
 30
0.0
 11
104.3763951615144
 21
128.6696323303762
 31
0.0
  0
LINE
  5
FDB
  8
0
 10
108.75
 20
106.5
 30
0.0
 11
109.25
 21
107.0
 31
0.0
  0
LINE
  5
FDC
  8
0
 10
90.750000000000014
 20
107.0
 30
0.0
 11
91.25
 21
106.5
 31
0.0
  0
LINE
  5
FDD
  8
0
 10
108.75
 20
106.5
 30
0.0
 11
91.25
 21
106.5
 31
0.0
  0
LINE
  5
FDE
  8
0
 10
109.25
 20
107.0
 30
0.0
 11
109.42922749272969
 21
117.798519521583
 31
0.0
  0
LINE
  5
FDF
  8
0
 10
90.570452236937626
 20
117.8178159218545
 30
0.0
 11
90.750000000000014
 21
107.0
 31
0.0
  0
LINE
  5
FE0
  8
0
 10
109.25
 20
107.0
 30
0.0
 11
90.750000000000014
 21
107.0
 31
0.0
  0
LINE
  5
FE1
  8
0
 10
90.570452236937598
 20
117.8178159218546
 30
0.0
 11
90.449999999999989
 21
125.09999999999999
 31
0.0
  0
POLYLINE
  5
FE3
  8
0
 66
     1
 10
0.0
 20
0.0
 30
0.0
 70
     8
  0
VERTEX
  5
FE4
  8
0
 10
95.299999999999926
 20
128.2167956159247
 30
0.0
 70
    32
  0
VERTEX
  5
FE5
  8
0
 10
95.992832232932884
 20
128.1838013115057
 30
0.0
 70
    32
  0
VERTEX
  5
FE6
  8
0
 10
96.712595287327403
 20
128.16129890766999
 30
0.0
 70
    32
  0
VERTEX
  5
FE7
  8
0
 10
97.476220963512247
 20
128.15060417433151
 30
0.0
 70
    32
  0
VERTEX
  5
FE8
  8
0
 10
98.257656637781025
 20
128.15360363744921
 30
0.0
 70
    32
  0
VERTEX
  5
FE9
  8
0
 10
99.028908045272445
 20
128.17049191735771
 30
0.0
 70
    32
  0
VERTEX
  5
FEA
  8
0
 10
99.806180876739404
 20
128.2014327139004
 30
0.0
 70
    32
  0
VERTEX
  5
FEB
  8
0
 10
100.6067708906112
 20
128.248044110618
 30
0.0
 70
    32
  0
VERTEX
  5
FEC
  8
0
 10
101.402148123674
 20
128.30911027589241
 30
0.0
 70
    32
  0
VERTEX
  5
FED
  8
0
 10
102.1175053999264
 20
128.37673452259591
 30
0.0
 70
    32
  0
VERTEX
  5
FEE
  8
0
 10
102.8195911581649
 20
128.4547868907944
 30
0.0
 70
    32
  0
VERTEX
  5
FEF
  8
0
 10
103.5209183432906
 20
128.5444378954781
 30
0.0
 70
    32
  0
VERTEX
  5
FF0
  8
0
 10
104.2000000000012
 20
128.64238051648931
 30
0.0
 70
    32
  0
SEQEND
  5
FF1
  8
0
  0
LINE
  5
FF2
  8
0
 10
93.300000000000736
 20
128.0962476533158
 30
0.0
 11
95.299999999999898
 21
128.2167956159247
 31
0.0
  0
POLYLINE
  5
FF3
  8
0
 66
     1
 10
0.0
 20
0.0
 30
0.0
 70
     8
  0
VERTEX
  5
FF4
  8
0
 10
93.300000000000736
 20
128.0962476533158
 30
0.0
 70
    32
  0
VERTEX
  5
FF5
  8
0
 10
92.957275878821747
 20
128.05925695463739
 30
0.0
 70
    32
  0
VERTEX
  5
FF6
  8
0
 10
92.635697873725832
 20
127.9873711308291
 30
0.0
 70
    32
  0
VERTEX
  5
FF7
  8
0
 10
92.328783001536124
 20
127.88260711540801
 30
0.0
 70
    32
  0
VERTEX
  5
FF8
  8
0
 10
92.046156414484045
 20
127.7512682224561
 30
0.0
 70
    32
  0
VERTEX
  5
FF9
  8
0
 10
91.681382610454378
 20
127.5232463082877
 30
0.0
 70
    32
  0
VERTEX
  5
FFA
  8
0
 10
91.366494528426912
 20
127.2584728281646
 30
0.0
 70
    32
  0
VERTEX
  5
FFB
  8
0
 10
91.093772327991275
 20
126.9569515115564
 30
0.0
 70
    32
  0
VERTEX
  5
FFC
  8
0
 10
90.870789001859663
 20
126.6322110256332
 30
0.0
 70
    32
  0
VERTEX
  5
FFD
  8
0
 10
90.689714922639666
 20
126.275099249386
 30
0.0
 70
    32
  0
VERTEX
  5
FFE
  8
0
 10
90.559868549339967
 20
125.9044502457615
 30
0.0
 70
    32
  0
VERTEX
  5
FFF
  8
0
 10
90.479297235409916
 20
125.5182447763171
 30
0.0
 70
    32
  0
VERTEX
  5
1000
  8
0
 10
90.450125641863309
 20
125.1274560630898
 30
0.0
 70
    32
  0
VERTEX
  5
1001
  8
0
 10
90.45001521914196
 20
125.10955586836241
 30
0.0
 70
    32
  0
VERTEX
  5
1002
  8
0
 10
90.449999999999989
 20
125.09999999999999
 30
0.0
 70
    32
  0
SEQEND
  5
1003
  8
0
  0
POLYLINE
  5
1004
  8
0
 66
     1
 10
0.0
 20
0.0
 30
0.0
 70
     8
  0
VERTEX
  5
1005
  8
0
 10
147.85399924873329
 20
119.6539435569663
 30
0.0
 70
    32
  0
VERTEX
  5
1006
  8
0
 10
144.22115365082951
 20
119.842994763736
 30
0.0
 70
    32
  0
VERTEX
  5
1007
  8
0
 10
140.58484562599551
 20
119.9581306265372
 30
0.0
 70
    32
  0
VERTEX
  5
1008
  8
0
 10
136.9473254957303
 20
119.99981966976929
 30
0.0
 70
    32
  0
VERTEX
  5
1009
  8
0
 10
136.9473254957303
 20
119.99981966976929
 30
0.0
 70
    32
  0
SEQEND
  5
100A
  8
0
  0
LINE
  5
101D
  8
0
 10
104.2000000000051
 20
117.8178159218546
 30
0.0
 11
90.570452236937598
 21
117.8178159218546
 31
0.0
  0
ARC
  5
101E
  8
0
 10
137.09782236219419
 20
-54.981819185994702
 30
0.0
 40
174.98170357484759
 50
90.049278502639112
 51
99.0979529050351
  0
LINE
  5
1026
  8
0
 10
104.3763951615144
 20
128.88134928423861
 30
0.0
 11
126.7109513646237
 21
129.19999989320911
 31
0.0
  0
POLYLINE
  5
1027
  8
0
 66
     1
 10
0.0
 20
0.0
 30
0.0
 70
     8
  0
VERTEX
  5
1028
  8
0
 10
150.24335288712089
 20
128.67790864949609
 30
0.0
 70
    32
  0
VERTEX
  5
1029
  8
0
 10
150.24335288712089
 20
128.67790864949609
 30
0.0
 70
    32
  0
VERTEX
  5
102A
  8
0
 10
150.13176336358271
 20
128.67279488356809
 30
0.0
 70
    32
  0
VERTEX
  5
102B
  8
0
 10
144.1073397711429
 20
128.9109870286473
 30
0.0
 70
    32
  0
VERTEX
  5
102C
  8
0
 10
138.07289474185379
 20
129.07760046862609
 30
0.0
 70
    32
  0
VERTEX
  5
102D
  8
0
 10
132.03670017261189
 20
129.1733013120795
 30
0.0
 70
    32
  0
VERTEX
  5
102E
  8
0
 10
130.46087675638179
 20
129.19063094570299
 30
0.0
 70
    32
  0
SEQEND
  5
102F
  8
0
  0
LINE
  5
1031
  8
0
 10
127.4000000000005
 20
129.19999999999979
 30
0.0
 11
126.72104812268211
 21
129.19999999999979
 31
0.0
  0
ARC
  5
1032
  8
0
 10
127.3999999999392
 20
-370.8000000196717
 30
0.0
 40
500.00000001967157
 50
89.649247169688479
 51
90.0
  0
ARC
  5
1033
  8
0
 10
127.400000000025
 20
-370.79999999958142
 30
0.0
 40
499.99999999958061
 50
85.943534391422276
 51
87.381433095064367
  0
LINE
  5
1E51
  8
1
 10
50.0
 20
133.5
 30
0.0
 11
50.0
 21
95.0
 31
0.0
  0
LINE
  5
1E52
  8
0
 10
43.882257208379542
 20
128.98555902619341
 30
0.0
 11
43.882257208379542
 21
129.19851610376321
 31
0.0
  0
POLYLINE
  5
1E53
  8
0
 66
     1
 10
0.0
 20
0.0
 30
0.0
 70
     8
  0
VERTEX
  5
1E54
  8
0
 10
43.882257208453147
 20
129.19854076025501
 30
0.0
 70
    32
  0
VERTEX
  5
1E55
  8
0
 10
43.892960230746858
 20
129.19739945388889
 30
0.0
 70
    32
  0
VERTEX
  5
1E56
  8
0
 10
43.932066848724148
 20
129.1956492943911
 30
0.0
 70
    32
  0
VERTEX
  5
1E57
  8
0
 10
43.999999999999822
 20
129.19342411633369
 30
0.0
 70
    32
  0
SEQEND
  5
1E58
  8
0
  0
LINE
  5
1E59
  8
0
 10
56.117742791620451
 20
129.19851886206141
 30
0.0
 11
56.117742791620451
 21
128.98538727628241
 31
0.0
  0
LINE
  5
1E5A
  8
0
 10
56.117742791620451
 20
129.19851886206141
 30
0.0
 11
56.059489129096811
 21
129.19999993156941
 31
0.0
  0
POLYLINE
  5
1E5B
  8
0
 66
     1
 10
0.0
 20
0.0
 30
0.0
 70
     8
  0
VERTEX
  5
1E5C
  8
0
 10
56.000000000000021
 20
129.1934241163336
 30
0.0
 70
    32
  0
VERTEX
  5
1E5D
  8
0
 10
56.066982157989102
 20
129.19561408244749
 30
0.0
 70
    32
  0
VERTEX
  5
1E5E
  8
0
 10
56.106325007183152
 20
129.19735617555631
 30
0.0
 70
    32
  0
VERTEX
  5
1E5F
  8
0
 10
56.117742791554541
 20
129.19854075564311
 30
0.0
 70
    32
  0
SEQEND
  5
1E60
  8
0
  0
LINE
  5
1E67
  8
0
 10
43.938777558244333
 20
129.19999999999979
 30
0.0
 11
56.061324092815532
 21
129.19999999999979
 31
0.0
  0
LINE
  5
1E68
  8
0
 10
43.940526278079901
 20
129.19999993582061
 30
0.0
 11
43.882257208379542
 21
129.19851610376321
 31
0.0
  0
LINE
  5
1E6A
  8
0
 10
58.490518266861599
 20
128.6696323303762
 30
0.0
 11
58.490518266861642
 21
128.88134928423861
 31
0.0
  0
POLYLINE
  5
1E6B
  8
0
 66
     1
 10
0.0
 20
0.0
 30
0.0
 70
     8
  0
VERTEX
  5
1E6C
  8
0
 10
56.000000000000021
 20
129.1934241163336
 30
0.0
 70
    32
  0
VERTEX
  5
1E6D
  8
0
 10
55.822833789244122
 20
129.18757893694371
 30
0.0
 70
    32
  0
VERTEX
  5
1E6E
  8
0
 10
55.675063436597092
 20
129.17991466558041
 30
0.0
 70
    32
  0
VERTEX
  5
1E6F
  8
0
 10
55.55644267209194
 20
129.17041733079401
 30
0.0
 70
    32
  0
VERTEX
  5
1E70
  8
0
 10
55.467702949343121
 20
129.15915770370941
 30
0.0
 70
    32
  0
VERTEX
  5
1E71
  8
0
 10
55.395444870458469
 20
129.14125258978589
 30
0.0
 70
    32
  0
VERTEX
  5
1E72
  8
0
 10
55.377076861643843
 20
129.1244107692431
 30
0.0
 70
    32
  0
SEQEND
  5
1E73
  8
0
  0
POLYLINE
  5
1E75
  8
0
 66
     1
 10
0.0
 20
0.0
 30
0.0
 70
     8
  0
VERTEX
  5
1E76
  8
0
 10
55.377076861643843
 20
129.1244107692431
 30
0.0
 70
    32
  0
VERTEX
  5
1E77
  8
0
 10
55.377996976510808
 20
129.1203881817581
 30
0.0
 70
    32
  0
VERTEX
  5
1E78
  8
0
 10
55.416390024108992
 20
129.0965498962214
 30
0.0
 70
    32
  0
VERTEX
  5
1E79
  8
0
 10
55.511346700980297
 20
129.0703172194917
 30
0.0
 70
    32
  0
VERTEX
  5
1E7A
  8
0
 10
55.663329932698041
 20
129.0421465665828
 30
0.0
 70
    32
  0
VERTEX
  5
1E7B
  8
0
 10
55.798954951424449
 20
129.02228713368669
 30
0.0
 70
    32
  0
VERTEX
  5
1E7C
  8
0
 10
55.960579766053279
 20
129.0021776649389
 30
0.0
 70
    32
  0
VERTEX
  5
1E7D
  8
0
 10
56.148764585258917
 20
128.98207308727299
 30
0.0
 70
    32
  0
VERTEX
  5
1E7E
  8
0
 10
56.362831336625547
 20
128.96244855578661
 30
0.0
 70
    32
  0
VERTEX
  5
1E7F
  8
0
 10
56.692167840180353
 20
128.93755510584691
 30
0.0
 70
    32
  0
VERTEX
  5
1E80
  8
0
 10
57.068370245915723
 20
128.91562595740399
 30
0.0
 70
    32
  0
VERTEX
  5
1E81
  8
0
 10
57.495335857176727
 20
128.89794384416371
 30
0.0
 70
    32
  0
VERTEX
  5
1E82
  8
0
 10
57.969267356827743
 20
128.88615150682341
 30
0.0
 70
    32
  0
VERTEX
  5
1E83
  8
0
 10
58.490518266861642
 20
128.88134928423861
 30
0.0
 70
    32
  0
SEQEND
  5
1E84
  8
0
  0
LINE
  5
1E85
  8
0
 10
41.509481733138379
 20
128.88134928423861
 30
0.0
 11
41.509481733138379
 21
128.6696323303762
 31
0.0
  0
POLYLINE
  5
1E87
  8
0
 66
     1
 10
0.0
 20
0.0
 30
0.0
 70
     8
  0
VERTEX
  5
1E88
  8
0
 10
41.509481733138379
 20
128.88134928423861
 30
0.0
 70
    32
  0
VERTEX
  5
1E89
  8
0
 10
42.000948827442663
 20
128.885660043668
 30
0.0
 70
    32
  0
VERTEX
  5
1E8A
  8
0
 10
42.453173157348083
 20
128.89628295514709
 30
0.0
 70
    32
  0
VERTEX
  5
1E8B
  8
0
 10
42.864574281220392
 20
128.91236714401111
 30
0.0
 70
    32
  0
VERTEX
  5
1E8C
  8
0
 10
43.237518676458983
 20
128.9329631252071
 30
0.0
 70
    32
  0
VERTEX
  5
1E8D
  8
0
 10
43.567392898913532
 20
128.95667704432589
 30
0.0
 70
    32
  0
VERTEX
  5
1E8E
  8
0
 10
43.788086453251957
 20
128.97596046093739
 30
0.0
 70
    32
  0
VERTEX
  5
1E8F
  8
0
 10
43.983237918311019
 20
128.99585171135419
 30
0.0
 70
    32
  0
VERTEX
  5
1E90
  8
0
 10
44.153207068851167
 20
129.015999999803
 30
0.0
 70
    32
  0
VERTEX
  5
1E91
  8
0
 10
44.297152787817929
 20
129.03599601852841
 30
0.0
 70
    32
  0
VERTEX
  5
1E92
  8
0
 10
44.424234657949647
 20
129.0572585495394
 30
0.0
 70
    32
  0
VERTEX
  5
1E93
  8
0
 10
44.520136939505917
 20
129.0776747927936
 30
0.0
 70
    32
  0
VERTEX
  5
1E94
  8
0
 10
44.584944830011707
 20
129.09705633004651
 30
0.0
 70
    32
  0
VERTEX
  5
1E95
  8
0
 10
44.618150533187212
 20
129.11511842159129
 30
0.0
 70
    32
  0
VERTEX
  5
1E96
  8
0
 10
44.622923138392473
 20
129.12441117525421
 30
0.0
 70
    32
  0
SEQEND
  5
1E97
  8
0
  0
POLYLINE
  5
1E98
  8
0
 66
     1
 10
0.0
 20
0.0
 30
0.0
 70
     8
  0
VERTEX
  5
1E99
  8
0
 10
44.622923138392473
 20
129.12441117525421
 30
0.0
 70
    32
  0
VERTEX
  5
1E9A
  8
0
 10
44.612733093050267
 20
129.1371361153179
 30
0.0
 70
    32
  0
VERTEX
  5
1E9B
  8
0
 10
44.549344857782721
 20
129.15615938420291
 30
0.0
 70
    32
  0
VERTEX
  5
1E9C
  8
0
 10
44.42604282766785
 20
129.17210794028711
 30
0.0
 70
    32
  0
VERTEX
  5
1E9D
  8
0
 10
44.243103234957509
 20
129.18456648916381
 30
0.0
 70
    32
  0
VERTEX
  5
1E9E
  8
0
 10
43.999999999999851
 20
129.19342411633369
 30
0.0
 70
    32
  0
SEQEND
  5
1E9F
  8
0
  0
ARC
  5
1EA0
  8
0
 10
50.000000000004313
 20
120.99999999999061
 30
0.0
 40
8.0000000000102602
 50
110.36413480632309
 51
115.5645820700214
  0
ARC
  5
1EA1
  8
0
 10
49.999999999995673
 20
120.99999999999061
 30
0.0
 40
8.0000000000102496
 50
64.435417929978598
 51
69.635865193676864
  0
LINE
  5
1EA2
  8
0
 10
47.21611781858504
 20
128.5
 30
0.0
 11
52.783882181415002
 21
128.5
 31
0.0
  0
POLYLINE
  5
1EA3
  8
0
 66
     1
 10
0.0
 20
0.0
 30
0.0
 70
     8
  0
VERTEX
  5
1EA4
  8
0
 10
54.374895026087799
 20
128.21133871181681
 30
0.0
 70
    32
  0
VERTEX
  5
1EA5
  8
0
 10
54.36331157487438
 20
128.22993197487119
 30
0.0
 70
    32
  0
VERTEX
  5
1EA6
  8
0
 10
54.322240748670332
 20
128.25331916882101
 30
0.0
 70
    32
  0
VERTEX
  5
1EA7
  8
0
 10
54.2512138344389
 20
128.27953261429539
 30
0.0
 70
    32
  0
VERTEX
  5
1EA8
  8
0
 10
54.148463963070149
 20
128.3087335823823
 30
0.0
 70
    32
  0
VERTEX
  5
1EA9
  8
0
 10
54.01489525261254
 20
128.34019659974911
 30
0.0
 70
    32
  0
VERTEX
  5
1EAA
  8
0
 10
53.857280445184152
 20
128.37223727959599
 30
0.0
 70
    32
  0
VERTEX
  5
1EAB
  8
0
 10
53.67186767621407
 20
128.40546443491289
 30
0.0
 70
    32
  0
VERTEX
  5
1EAC
  8
0
 10
53.456098038774371
 20
128.4398225447199
 30
0.0
 70
    32
  0
VERTEX
  5
1EAD
  8
0
 10
53.213357906630023
 20
128.47421628669309
 30
0.0
 70
    32
  0
VERTEX
  5
1EAE
  8
0
 10
52.955361705596196
 20
128.50672067989569
 30
0.0
 70
    32
  0
VERTEX
  5
1EAF
  8
0
 10
52.674749756476238
 20
128.53799619860649
 30
0.0
 70
    32
  0
VERTEX
  5
1EB0
  8
0
 10
52.368380448376072
 20
128.5678130999122
 30
0.0
 70
    32
  0
VERTEX
  5
1EB1
  8
0
 10
52.04189728207929
 20
128.59503064163371
 30
0.0
 70
    32
  0
VERTEX
  5
1EB2
  8
0
 10
51.713986536594852
 20
128.61793690843581
 30
0.0
 70
    32
  0
VERTEX
  5
1EB3
  8
0
 10
51.371597515936308
 20
128.6373432748166
 30
0.0
 70
    32
  0
VERTEX
  5
1EB4
  8
0
 10
51.011461117191679
 20
128.6529583910592
 30
0.0
 70
    32
  0
VERTEX
  5
1EB5
  8
0
 10
50.640926528189873
 20
128.66402222161639
 30
0.0
 70
    32
  0
VERTEX
  5
1EB6
  8
0
 10
50.314811302971307
 20
128.6696312212668
 30
0.0
 70
    32
  0
SEQEND
  5
1EB7
  8
0
  0
POLYLINE
  5
1EB8
  8
0
 66
     1
 10
0.0
 20
0.0
 30
0.0
 70
     8
  0
VERTEX
  5
1EB9
  8
0
 10
49.685188697027911
 20
128.66963122126671
 30
0.0
 70
    32
  0
VERTEX
  5
1EBA
  8
0
 10
49.328365295646009
 20
128.6632957462682
 30
0.0
 70
    32
  0
VERTEX
  5
1EBB
  8
0
 10
48.973741582778089
 20
128.6524119230144
 30
0.0
 70
    32
  0
VERTEX
  5
1EBC
  8
0
 10
48.618800577812571
 20
128.63686028769541
 30
0.0
 70
    32
  0
VERTEX
  5
1EBD
  8
0
 10
48.271412671638181
 20
128.6170082228534
 30
0.0
 70
    32
  0
VERTEX
  5
1EBE
  8
0
 10
47.947689152580658
 20
128.59423179230629
 30
0.0
 70
    32
  0
VERTEX
  5
1EBF
  8
0
 10
47.635916539955097
 20
128.56820109080871
 30
0.0
 70
    32
  0
VERTEX
  5
1EC0
  8
0
 10
47.334318455649921
 20
128.5389415272964
 30
0.0
 70
    32
  0
VERTEX
  5
1EC1
  8
0
 10
47.049860766522293
 20
128.50733992440519
 30
0.0
 70
    32
  0
VERTEX
  5
1EC2
  8
0
 10
46.793389039108341
 20
128.47511645043431
 30
0.0
 70
    32
  0
VERTEX
  5
1EC3
  8
0
 10
46.557325724172969
 20
128.44183338945879
 30
0.0
 70
    32
  0
VERTEX
  5
1EC4
  8
0
 10
46.340803774024202
 20
128.4075977517638
 30
0.0
 70
    32
  0
VERTEX
  5
1EC5
  8
0
 10
46.1493692887503
 20
128.3735020438852
 30
0.0
 70
    32
  0
VERTEX
  5
1EC6
  8
0
 10
45.990122362527778
 20
128.34128739780741
 30
0.0
 70
    32
  0
VERTEX
  5
1EC7
  8
0
 10
45.857766717106777
 20
128.31032841821579
 30
0.0
 70
    32
  0
VERTEX
  5
1EC8
  8
0
 10
45.752520113439019
 20
128.28072122838131
 30
0.0
 70
    32
  0
VERTEX
  5
1EC9
  8
0
 10
45.677961127886213
 20
128.25340861399309
 30
0.0
 70
    32
  0
VERTEX
  5
1ECA
  8
0
 10
45.636586953978608
 20
128.22984688342049
 30
0.0
 70
    32
  0
VERTEX
  5
1ECB
  8
0
 10
45.625104965447022
 20
128.21133901268129
 30
0.0
 70
    32
  0
SEQEND
  5
1ECC
  8
0
  0
LINE
  5
1ECD
  8
0
 10
41.509481733138379
 20
128.6696323303762
 30
0.0
 11
58.490518266861599
 21
128.6696323303762
 31
0.0
  0
LINE
  5
1ECE
  8
0
 10
58.576858399203068
 20
128.64238051648951
 30
0.0
 11
58.490518266861599
 21
128.6696323303762
 31
0.0
  0
LINE
  5
1ECF
  8
0
 10
41.509481733138408
 20
128.6696323303762
 30
0.0
 11
41.423141600796342
 21
128.64238051648931
 31
0.0
  0
POLYLINE
  5
1ED0
  8
0
 66
     1
 10
0.0
 20
0.0
 30
0.0
 70
     8
  0
VERTEX
  5
1ED1
  8
0
 10
59.26851087623541
 20
128.15000002841731
 30
0.0
 70
    32
  0
VERTEX
  5
1ED2
  8
0
 10
59.161413539286833
 20
128.1518215452073
 30
0.0
 70
    32
  0
VERTEX
  5
1ED3
  8
0
 10
58.931840741079348
 20
128.16351894929201
 30
0.0
 70
    32
  0
VERTEX
  5
1ED4
  8
0
 10
58.649623110733152
 20
128.1854212277492
 30
0.0
 70
    32
  0
VERTEX
  5
1ED5
  8
0
 10
58.313392809196408
 20
128.2167956159247
 30
0.0
 70
    32
  0
SEQEND
  5
1ED6
  8
0
  0
POLYLINE
  5
1ED7
  8
0
 66
     1
 10
0.0
 20
0.0
 30
0.0
 70
     8
  0
VERTEX
  5
1ED8
  8
0
 10
40.731223476994657
 20
128.1500000028505
 30
0.0
 70
    32
  0
VERTEX
  5
1ED9
  8
0
 10
40.69211011224791
 20
128.15030882714819
 30
0.0
 70
    32
  0
VERTEX
  5
1EDA
  8
0
 10
40.610285435215211
 20
128.15360363744921
 30
0.0
 70
    32
  0
VERTEX
  5
1EDB
  8
0
 10
40.499778833430852
 20
128.17038478015141
 30
0.0
 70
    32
  0
VERTEX
  5
1EDC
  8
0
 10
40.451967001132708
 20
128.2014327139004
 30
0.0
 70
    32
  0
VERTEX
  5
1EDD
  8
0
 10
40.450000000028659
 20
128.2113426483368
 30
0.0
 70
    32
  0
SEQEND
  5
1EDE
  8
0
  0
LINE
  5
1EDF
  8
0
 10
41.686607190803549
 20
128.2167956159247
 30
0.0
 11
58.313392809196429
 21
128.2167956159247
 31
0.0
  0
LINE
  5
1EE0
  8
0
 10
56.749999999999993
 20
106.5
 30
0.0
 11
56.749999999999993
 21
100.3
 31
0.0
  0
LINE
  5
1EE1
  8
0
 10
43.249999999999993
 20
100.3
 30
0.0
 11
43.249999999999993
 21
106.5
 31
0.0
  0
LINE
  5
1EE2
  8
0
 10
43.549999999999997
 20
100.0
 30
0.0
 11
43.249999999999993
 21
100.3
 31
0.0
  0
LINE
  5
1EE3
  8
0
 10
56.749999999999993
 20
100.3
 30
0.0
 11
56.449999999999982
 21
100.0
 31
0.0
  0
LINE
  5
1EE4
  8
0
 10
43.549999999999997
 20
100.0
 30
0.0
 11
56.449999999999982
 21
100.0
 31
0.0
  0
LINE
  5
1EE5
  8
0
 10
43.249999999999993
 20
100.3
 30
0.0
 11
56.749999999999993
 21
100.3
 31
0.0
  0
LINE
  5
1EE6
  8
0
 10
41.249999999999993
 20
106.5
 30
0.0
 11
40.749999999999993
 21
107.0
 31
0.0
  0
LINE
  5
1EE7
  8
0
 10
59.25
 20
107.0
 30
0.0
 11
58.75
 21
106.5
 31
0.0
  0
LINE
  5
1EE8
  8
0
 10
41.249999999999993
 20
106.5
 30
0.0
 11
58.75
 21
106.5
 31
0.0
  0
LINE
  5
1EE9
  8
0
 10
40.749999999999993
 20
107.0
 30
0.0
 11
40.570456276578632
 21
117.81757253206111
 31
0.0
  0
LINE
  5
1EEA
  8
0
 10
59.429543723421347
 20
117.81757253206089
 30
0.0
 11
59.25
 21
107.0
 31
0.0
  0
LINE
  5
1EEB
  8
0
 10
40.749999999999993
 20
107.0
 30
0.0
 11
59.25
 21
107.0
 31
0.0
  0
LINE
  5
1EED
  8
0
 10
50.0
 20
117.798519521583
 30
0.0
 11
40.449999999999982
 21
117.8178159218545
 31
0.0
  0
LINE
  5
1EEE
  8
0
 10
59.550000000000011
 20
117.8178159218545
 30
0.0
 11
50.0
 21
117.798519521583
 31
0.0
  0
POLYLINE
  5
1EF5
  8
0
 66
     1
 10
0.0
 20
0.0
 30
0.0
 70
     8
  0
VERTEX
  5
1EF6
  8
0
 10
41.686607190803549
 20
128.2167956159247
 30
0.0
 70
    32
  0
VERTEX
  5
1EF7
  8
0
 10
41.33250111283003
 20
128.1838807681165
 30
0.0
 70
    32
  0
VERTEX
  5
1EF8
  8
0
 10
41.033647884724921
 20
128.16129890766999
 30
0.0
 70
    32
  0
VERTEX
  5
1EF9
  8
0
 10
40.904133944400158
 20
128.15431099742909
 30
0.0
 70
    32
  0
VERTEX
  5
1EFA
  8
0
 10
40.790299490207687
 20
128.15059521038879
 30
0.0
 70
    32
  0
VERTEX
  5
1EFB
  8
0
 10
40.731223476994657
 20
128.1500000028505
 30
0.0
 70
    32
  0
SEQEND
  5
1EFC
  8
0
  0
POLYLINE
  5
1EFD
  8
0
 66
     1
 10
0.0
 20
0.0
 30
0.0
 70
     8
  0
VERTEX
  5
1EFE
  8
0
 10
43.194671205591149
 20
128.0962476533158
 30
0.0
 70
    32
  0
VERTEX
  5
1EFF
  8
0
 10
42.636624059829579
 20
128.13353428386901
 30
0.0
 70
    32
  0
VERTEX
  5
1F00
  8
0
 10
42.13461665110065
 20
128.1736105739767
 30
0.0
 70
    32
  0
VERTEX
  5
1F01
  8
0
 10
41.692469558905167
 20
128.21617151887281
 30
0.0
 70
    32
  0
VERTEX
  5
1F02
  8
0
 10
41.686607190803549
 20
128.2167956159247
 30
0.0
 70
    32
  0
SEQEND
  5
1F03
  8
0
  0
LINE
  5
1F05
  8
0
 10
40.449999999999982
 20
117.8178159218545
 30
0.0
 11
40.449999999999982
 21
128.21180357060919
 31
0.0
  0
POLYLINE
  5
1F06
  8
0
 66
     1
 10
0.0
 20
0.0
 30
0.0
 70
     8
  0
VERTEX
  5
1F07
  8
0
 10
40.450000000028659
 20
128.2113426483368
 30
0.0
 70
    32
  0
VERTEX
  5
1F08
  8
0
 10
40.452199119727752
 20
128.22276934749411
 30
0.0
 70
    32
  0
VERTEX
  5
1F09
  8
0
 10
40.469109704631038
 20
128.24782029311189
 30
0.0
 70
    32
  0
VERTEX
  5
1F0A
  8
0
 10
40.502885623269599
 20
128.27665308713529
 30
0.0
 70
    32
  0
VERTEX
  5
1F0B
  8
0
 10
40.553493733698289
 20
128.30911027589241
 30
0.0
 70
    32
  0
VERTEX
  5
1F0C
  8
0
 10
40.687235881439797
 20
128.37650145226041
 30
0.0
 70
    32
  0
VERTEX
  5
1F0D
  8
0
 10
40.877052134378559
 20
128.45530009181911
 30
0.0
 70
    32
  0
VERTEX
  5
1F0E
  8
0
 10
41.121918047504288
 20
128.54413813768431
 30
0.0
 70
    32
  0
VERTEX
  5
1F0F
  8
0
 10
41.423141600796377
 20
128.64238051648931
 30
0.0
 70
    32
  0
SEQEND
  5
1F10
  8
0
  0
LINE
  5
1F11
  8
0
 10
43.194671205591149
 20
128.09624765331569
 30
0.0
 11
56.80532879440883
 21
128.09624765331569
 31
0.0
  0
POLYLINE
  5
1F3C
  8
0
 66
     1
 10
0.0
 20
0.0
 30
0.0
 70
     8
  0
VERTEX
  5
1F3D
  8
0
 10
58.313392809196429
 20
128.2167956159247
 30
0.0
 70
    32
  0
VERTEX
  5
1F3E
  8
0
 10
57.87212584876152
 20
128.1742014998205
 30
0.0
 70
    32
  0
VERTEX
  5
1F3F
  8
0
 10
57.370947257297999
 20
128.13408754120201
 30
0.0
 70
    32
  0
VERTEX
  5
1F40
  8
0
 10
56.813671306506777
 20
128.0967590315158
 30
0.0
 70
    32
  0
VERTEX
  5
1F41
  8
0
 10
56.80532879440883
 20
128.0962476533158
 30
0.0
 70
    32
  0
SEQEND
  5
1F42
  8
0
  0
POLYLINE
  5
1F43
  8
0
 66
     1
 10
0.0
 20
0.0
 30
0.0
 70
     8
  0
VERTEX
  5
1F44
  8
0
 10
58.576858399203097
 20
128.64238051648951
 30
0.0
 70
    32
  0
VERTEX
  5
1F45
  8
0
 10
58.890258086871839
 20
128.539947283288
 30
0.0
 70
    32
  0
VERTEX
  5
1F46
  8
0
 10
59.146510184642892
 20
128.44612905278581
 30
0.0
 70
    32
  0
VERTEX
  5
1F47
  8
0
 10
59.253695384486257
 20
128.40241372621949
 30
0.0
 70
    32
  0
VERTEX
  5
1F48
  8
0
 10
59.344799410387253
 20
128.36170044310549
 30
0.0
 70
    32
  0
VERTEX
  5
1F49
  8
0
 10
59.419776825111789
 20
128.32404995518499
 30
0.0
 70
    32
  0
VERTEX
  5
1F4A
  8
0
 10
59.477996461592291
 20
128.2897908430204
 30
0.0
 70
    32
  0
VERTEX
  5
1F4B
  8
0
 10
59.54201692867548
 20
128.23395487726029
 30
0.0
 70
    32
  0
VERTEX
  5
1F4C
  8
0
 10
59.549999999999983
 20
128.21134136505719
 30
0.0
 70
    32
  0
SEQEND
  5
1F4D
  8
0
  0
LINE
  5
1F4E
  8
0
 10
59.550000000000011
 20
128.2113582943112
 30
0.0
 11
59.550000000000011
 21
117.8178159218545
 31
0.0
  0
POLYLINE
  5
1F4F
  8
0
 66
     1
 10
0.0
 20
0.0
 30
0.0
 70
     8
  0
VERTEX
  5
1F50
  8
0
 10
59.549999999999983
 20
128.21134136505719
 30
0.0
 70
    32
  0
VERTEX
  5
1F51
  8
0
 10
59.549999268980912
 20
128.21114210642591
 30
0.0
 70
    32
  0
VERTEX
  5
1F52
  8
0
 10
59.541671052245171
 20
128.19190556866261
 30
0.0
 70
    32
  0
VERTEX
  5
1F53
  8
0
 10
59.516319789369902
 20
128.1760328772385
 30
0.0
 70
    32
  0
VERTEX
  5
1F54
  8
0
 10
59.473878371777971
 20
128.1639370214541
 30
0.0
 70
    32
  0
VERTEX
  5
1F55
  8
0
 10
59.414056807743627
 20
128.15558733089989
 30
0.0
 70
    32
  0
VERTEX
  5
1F56
  8
0
 10
59.336989228015788
 20
128.15100312319959
 30
0.0
 70
    32
  0
VERTEX
  5
1F57
  8
0
 10
59.26851087623541
 20
128.15000002841731
 30
0.0
 70
    32
  0
SEQEND
  5
1F58
  8
0
  0
LINE
  5
208E
  8
0
 10
109.42922749272969
 20
117.798519521583
 30
0.0
 11
104.2000000000051
 21
117.8178159218546
 31
0.0
  0
LINE
  5
20E8
  8
2
 10
100.0
 20
115.4194999999999
 30
0.0
 11
102.5000000000001
 21
113.9761243270259
 31
0.0
  0
LINE
  5
20E9
  8
2
 10
102.5000000000002
 20
101.0000000000009
 30
0.0
 11
102.5000000000002
 21
113.9761243270259
 31
0.0
  0
LINE
  5
20EA
  8
2
 10
103.0000000000002
 20
100.5000000000004
 30
0.0
 11
103.0000000000002
 21
112.0
 31
0.0
  0
LINE
  5
20EB
  8
2
 10
102.5000000000002
 20
101.0000000000009
 30
0.0
 11
103.5000000000002
 21
100.0
 31
0.0
  0
LINE
  5
20EC
  8
2
 10
102.5000000000002
 20
112.86602540378431
 30
0.0
 11
103.0000000000002
 21
112.0
 31
0.0
  0
LINE
  5
20ED
  8
2
 10
97.499999999999815
 20
101.0000000000009
 30
0.0
 11
102.5000000000002
 21
101.0000000000009
 31
0.0
  0
LINE
  5
20EE
  8
2
 10
97.499999999999815
 20
112.86602540378431
 30
0.0
 11
96.999999999999844
 21
112.0
 31
0.0
  0
LINE
  5
20EF
  8
2
 10
96.999999999999844
 20
112.0
 30
0.0
 11
103.0000000000002
 21
112.0
 31
0.0
  0
LINE
  5
20F0
  8
2
 10
99.999999999999986
 20
115.4194999999999
 30
0.0
 11
97.499999999999787
 21
113.9761243270259
 31
0.0
  0
LINE
  5
20F1
  8
2
 10
97.499999999999787
 20
113.9761243270259
 30
0.0
 11
102.5000000000001
 21
113.9761243270259
 31
0.0
  0
LINE
  5
20F2
  8
2
 10
97.499999999999815
 20
101.0000000000009
 30
0.0
 11
96.499999999999815
 21
100.0
 31
0.0
  0
LINE
  5
20F3
  8
2
 10
96.999999999999844
 20
100.5000000000004
 30
0.0
 11
96.999999999999844
 21
112.0
 31
0.0
  0
LINE
  5
20F4
  8
2
 10
97.499999999999815
 20
101.0000000000009
 30
0.0
 11
97.499999999999815
 21
113.9761243270259
 31
0.0
  0
LINE
  5
20F5
  8
2
 10
50.0
 20
115.4194999999999
 30
0.0
 11
52.500000000000171
 21
113.9761243270259
 31
0.0
  0
LINE
  5
20F6
  8
2
 10
52.500000000000227
 20
101.0000000000009
 30
0.0
 11
52.500000000000227
 21
113.9761243270259
 31
0.0
  0
LINE
  5
20F7
  8
2
 10
53.000000000000171
 20
100.5000000000004
 30
0.0
 11
53.000000000000171
 21
112.0
 31
0.0
  0
LINE
  5
20F8
  8
2
 10
52.500000000000227
 20
101.0000000000009
 30
0.0
 11
53.50000000000022
 21
100.0
 31
0.0
  0
LINE
  5
20F9
  8
2
 10
52.500000000000227
 20
112.86602540378431
 30
0.0
 11
53.000000000000171
 21
112.0
 31
0.0
  0
LINE
  5
20FA
  8
2
 10
47.499999999999808
 20
101.0000000000009
 30
0.0
 11
52.500000000000227
 21
101.0000000000009
 31
0.0
  0
LINE
  5
20FB
  8
2
 10
47.499999999999808
 20
112.86602540378431
 30
0.0
 11
46.999999999999837
 21
112.0
 31
0.0
  0
LINE
  5
20FC
  8
2
 10
46.999999999999837
 20
112.0
 30
0.0
 11
53.00000000000022
 21
112.0
 31
0.0
  0
LINE
  5
20FD
  8
2
 10
49.999999999999972
 20
115.4194999999999
 30
0.0
 11
47.49999999999978
 21
113.9761243270259
 31
0.0
  0
LINE
  5
20FE
  8
2
 10
47.49999999999978
 20
113.9761243270259
 30
0.0
 11
52.500000000000171
 21
113.9761243270259
 31
0.0
  0
LINE
  5
20FF
  8
2
 10
47.499999999999808
 20
101.0000000000009
 30
0.0
 11
46.499999999999808
 21
100.0
 31
0.0
  0
LINE
  5
2100
  8
2
 10
46.999999999999837
 20
100.5000000000004
 30
0.0
 11
46.999999999999837
 21
112.0
 31
0.0
  0
LINE
  5
2101
  8
2
 10
47.499999999999808
 20
101.0000000000009
 30
0.0
 11
47.499999999999808
 21
113.9761243270259
 31
0.0
  0
LINE
  5
2D8D
  8
1
 10
85.450413125845785
 20
178.5
 30
0.0
 11
170.0
 21
178.5
 31
0.0
  0
LINE
  5
2D8E
  8
1
 10
100.0
 20
163.94999999999999
 30
0.0
 11
100.0
 21
193.05000000000001
 31
0.0
  0
LINE
  5
2DB9
  8
0
 10
104.37639516151449
 20
170.00948173313839
 30
0.0
 11
104.2000000000012
 21
169.92314160079641
 31
0.0
  0
LINE
  5
2DBA
  8
0
 10
104.2000000000024
 20
187.07685839920299
 30
0.0
 11
104.37639516151449
 21
186.99051826686161
 31
0.0
  0
POLYLINE
  5
2DBB
  8
0
 66
     1
 10
0.0
 20
0.0
 30
0.0
 70
     8
  0
VERTEX
  5
2DBC
  8
0
 10
104.3763951615144
 20
170.00948173313839
 30
0.0
 70
    32
  0
VERTEX
  5
2DBD
  8
0
 10
105.4407863125834
 20
170.5016312276077
 30
0.0
 70
    32
  0
VERTEX
  5
2DBE
  8
0
 10
106.5229873316228
 20
170.95317315734809
 30
0.0
 70
    32
  0
VERTEX
  5
2DBF
  8
0
 10
107.63048474527289
 20
171.3666108369172
 30
0.0
 70
    32
  0
VERTEX
  5
2DC0
  8
0
 10
108.7528724832689
 20
171.73751867645899
 30
0.0
 70
    32
  0
VERTEX
  5
2DC1
  8
0
 10
109.71089380716759
 20
172.01713213270341
 30
0.0
 70
    32
  0
VERTEX
  5
2DC2
  8
0
 10
110.677638465409
 20
172.2658323271246
 30
0.0
 70
    32
  0
VERTEX
  5
2DC3
  8
0
 10
111.65161508812641
 20
172.483237918311
 30
0.0
 70
    32
  0
VERTEX
  5
2DC4
  8
0
 10
112.5406798340681
 20
172.6532070688512
 30
0.0
 70
    32
  0
VERTEX
  5
2DC5
  8
0
 10
113.4343304039929
 20
172.79715278781791
 30
0.0
 70
    32
  0
VERTEX
  5
2DC6
  8
0
 10
114.4125645282633
 20
172.92423465794971
 30
0.0
 70
    32
  0
VERTEX
  5
2DC7
  8
0
 10
115.3943637157293
 20
173.0201369395059
 30
0.0
 70
    32
  0
VERTEX
  5
2DC8
  8
0
 10
116.4985848188431
 20
173.09044467060991
 30
0.0
 70
    32
  0
VERTEX
  5
2DC9
  8
0
 10
117.604995350669
 20
173.12133084479169
 30
0.0
 70
    32
  0
VERTEX
  5
2DCA
  8
0
 10
118.7114821461095
 20
173.11273309305031
 30
0.0
 70
    32
  0
VERTEX
  5
2DCB
  8
0
 10
120.0602221399993
 20
173.0487124241597
 30
0.0
 70
    32
  0
VERTEX
  5
2DCC
  8
0
 10
121.4049396741471
 20
172.9260428276678
 30
0.0
 70
    32
  0
VERTEX
  5
2DCD
  8
0
 10
122.75714321768901
 20
172.7426749203716
 30
0.0
 70
    32
  0
VERTEX
  5
2DCE
  8
0
 10
124.1000000000007
 20
172.49999999999989
 30
0.0
 70
    32
  0
SEQEND
  5
2DCF
  8
0
  0
POLYLINE
  5
2DD6
  8
0
 66
     1
 10
0.0
 20
0.0
 30
0.0
 70
     8
  0
VERTEX
  5
2DD7
  8
0
 10
124.10000000000009
 20
184.5
 30
0.0
 70
    32
  0
VERTEX
  5
2DD8
  8
0
 10
124.5677130852937
 20
184.56698215798909
 30
0.0
 70
    32
  0
VERTEX
  5
2DD9
  8
0
 10
125.0402236199605
 20
184.6063250071831
 30
0.0
 70
    32
  0
VERTEX
  5
2DDA
  8
0
 10
125.5193402691695
 20
184.6175747436958
 30
0.0
 70
    32
  0
VERTEX
  5
2DDB
  8
0
 10
126.0000000000001
 20
184.59999999999999
 30
0.0
 70
    32
  0
SEQEND
  5
2DDC
  8
0
  0
POLYLINE
  5
2DDD
  8
0
 66
     1
 10
0.0
 20
0.0
 30
0.0
 70
     8
  0
VERTEX
  5
2DDE
  8
0
 10
124.10000000000009
 20
184.5
 30
0.0
 70
    32
  0
VERTEX
  5
2DDF
  8
0
 10
123.1548298330392
 20
184.3228337892441
 30
0.0
 70
    32
  0
VERTEX
  5
2DE0
  8
0
 10
122.204633062569
 20
184.1750634365971
 30
0.0
 70
    32
  0
VERTEX
  5
2DE1
  8
0
 10
121.1345274471019
 20
184.04455876444439
 30
0.0
 70
    32
  0
VERTEX
  5
2DE2
  8
0
 10
120.0602304373103
 20
183.95129694664141
 30
0.0
 70
    32
  0
VERTEX
  5
2DE3
  8
0
 10
118.98369519329179
 20
183.8954448704585
 30
0.0
 70
    32
  0
VERTEX
  5
2DE4
  8
0
 10
117.66958909459279
 20
183.87807430920489
 30
0.0
 70
    32
  0
VERTEX
  5
2DE5
  8
0
 10
116.3559722302721
 20
183.91639002410901
 30
0.0
 70
    32
  0
VERTEX
  5
2DE6
  8
0
 10
115.0321429079365
 20
184.01158596442991
 30
0.0
 70
    32
  0
VERTEX
  5
2DE7
  8
0
 10
113.7136354921788
 20
184.16332993269799
 30
0.0
 70
    32
  0
VERTEX
  5
2DE8
  8
0
 10
112.81980969912129
 20
184.29895495142441
 30
0.0
 70
    32
  0
VERTEX
  5
2DE9
  8
0
 10
111.9303232315191
 20
184.4605797660532
 30
0.0
 70
    32
  0
VERTEX
  5
2DEA
  8
0
 10
110.94028981135
 20
184.67229864524131
 30
0.0
 70
    32
  0
VERTEX
  5
2DEB
  8
0
 10
109.95741851468421
 20
184.91628974126479
 30
0.0
 70
    32
  0
VERTEX
  5
2DEC
  8
0
 10
108.98326953137369
 20
185.1921678401803
 30
0.0
 70
    32
  0
VERTEX
  5
2DED
  8
0
 10
107.8107637170781
 20
185.570602221477
 30
0.0
 70
    32
  0
VERTEX
  5
2DEE
  8
0
 10
106.6541496216029
 20
185.99533585717671
 30
0.0
 70
    32
  0
VERTEX
  5
2DEF
  8
0
 10
105.50531854694761
 20
186.47008877521671
 30
0.0
 70
    32
  0
VERTEX
  5
2DF0
  8
0
 10
104.3763951615144
 20
186.99051826686161
 30
0.0
 70
    32
  0
SEQEND
  5
2DF1
  8
0
  0
POLYLINE
  5
2DF2
  8
0
 66
     1
 10
0.0
 20
0.0
 30
0.0
 70
     8
  0
VERTEX
  5
2DF3
  8
0
 10
126.0000000000002
 20
172.40000000000001
 30
0.0
 70
    32
  0
VERTEX
  5
2DF4
  8
0
 10
125.52783536435101
 20
172.38248483026439
 30
0.0
 70
    32
  0
VERTEX
  5
2DF5
  8
0
 10
125.05380400550629
 20
172.39296023074689
 30
0.0
 70
    32
  0
VERTEX
  5
2DF6
  8
0
 10
124.5761549348336
 20
172.43206684872411
 30
0.0
 70
    32
  0
VERTEX
  5
2DF7
  8
0
 10
124.1000000000007
 20
172.49999999999989
 30
0.0
 70
    32
  0
SEQEND
  5
2DF8
  8
0
  0
LINE
  5
2DFF
  8
1
 10
85.450413125845785
 20
50.000000000000007
 30
0.0
 11
170.0
 21
50.000000000000007
 31
0.0
  0
LINE
  5
2E00
  8
1
 10
100.0
 20
35.450000000000031
 30
0.0
 11
100.0
 21
64.550000000000026
 31
0.0
  0
LINE
  5
2E01
  8
0
 10
90.450413125845785
 20
49.911171327933502
 30
0.0
 11
90.450413125845785
 21
50.088828672066519
 31
0.0
  0
POLYLINE
  5
2E2C
  8
0
 66
     1
 10
0.0
 20
0.0
 30
0.0
 70
     8
  0
VERTEX
  5
2E2D
  8
0
 10
90.570452236937626
 20
51.511995034424658
 30
0.0
 70
    32
  0
VERTEX
  5
2E2E
  8
0
 10
90.474555462778312
 20
50.684402197770702
 30
0.0
 70
    32
  0
VERTEX
  5
2E2F
  8
0
 10
90.450413125845785
 20
50.088828672066128
 30
0.0
 70
    32
  0
SEQEND
  5
2E30
  8
0
  0
POLYLINE
  5
2E31
  8
0
 66
     1
 10
0.0
 20
0.0
 30
0.0
 70
     8
  0
VERTEX
  5
2E32
  8
0
 10
90.450413125845785
 20
49.911171327933928
 30
0.0
 70
    32
  0
VERTEX
  5
2E33
  8
0
 10
90.494494115892223
 20
49.079208010899023
 30
0.0
 70
    32
  0
VERTEX
  5
2E34
  8
0
 10
90.570452236937626
 20
48.488004965575371
 30
0.0
 70
    32
  0
SEQEND
  5
2E35
  8
0
  0
LINE
  5
2E45
  8
0
 10
90.570452236937626
 20
48.488004965575371
 30
0.0
 11
90.570452236937626
 21
51.511995034424658
 31
0.0
  0
ARC
  5
2E46
  8
0
 10
100.0
 20
50.000000000000007
 30
0.0
 40
9.5499999999999901
 50
189.10963363105779
 51
296.09051982275889
  0
POLYLINE
  5
2E47
  8
0
 66
     1
 10
0.0
 20
0.0
 30
0.0
 70
     8
  0
VERTEX
  5
2E48
  8
0
 10
124.09999999999999
 20
43.999999999999979
 30
0.0
 70
    32
  0
VERTEX
  5
2E49
  8
0
 10
123.1599089775091
 20
44.176294988511792
 30
0.0
 70
    32
  0
VERTEX
  5
2E4A
  8
0
 10
122.2152025559958
 20
44.323458542038011
 30
0.0
 70
    32
  0
VERTEX
  5
2E4B
  8
0
 10
121.1517428676094
 20
44.453640260061313
 30
0.0
 70
    32
  0
VERTEX
  5
2E4C
  8
0
 10
120.084597080604
 20
44.547005058911523
 30
0.0
 70
    32
  0
VERTEX
  5
2E4D
  8
0
 10
119.0156859252489
 20
44.603436844606293
 30
0.0
 70
    32
  0
VERTEX
  5
2E4E
  8
0
 10
117.71159484342741
 20
44.622233160706841
 30
0.0
 70
    32
  0
VERTEX
  5
2E4F
  8
0
 10
116.4085028982489
 20
44.586213372188141
 30
0.0
 70
    32
  0
VERTEX
  5
2E50
  8
0
 10
115.09582239729851
 20
44.494301194471809
 30
0.0
 70
    32
  0
VERTEX
  5
2E51
  8
0
 10
113.7885311464666
 20
44.346826268642431
 30
0.0
 70
    32
  0
VERTEX
  5
2E52
  8
0
 10
112.87363725444391
 20
44.209968982663398
 30
0.0
 70
    32
  0
VERTEX
  5
2E53
  8
0
 10
111.9631233789939
 20
44.045857378581339
 30
0.0
 70
    32
  0
VERTEX
  5
2E54
  8
0
 10
110.9489189815762
 20
43.829695899757361
 30
0.0
 70
    32
  0
VERTEX
  5
2E55
  8
0
 10
109.94168316150871
 20
43.579528431362391
 30
0.0
 70
    32
  0
VERTEX
  5
2E56
  8
0
 10
108.94291630538601
 20
43.295658262854637
 30
0.0
 70
    32
  0
VERTEX
  5
2E57
  8
0
 10
107.7378789157828
 20
42.904160459489717
 30
0.0
 70
    32
  0
VERTEX
  5
2E58
  8
0
 10
106.54833304287411
 20
42.463176903626511
 30
0.0
 70
    32
  0
VERTEX
  5
2E59
  8
0
 10
105.36379936089691
 20
41.967648339163823
 30
0.0
 70
    32
  0
VERTEX
  5
2E5A
  8
0
 10
104.20000000000231
 20
41.423141600796939
 30
0.0
 70
    32
  0
SEQEND
  5
2E5B
  8
0
  0
POLYLINE
  5
2E5C
  8
0
 66
     1
 10
0.0
 20
0.0
 30
0.0
 70
     8
  0
VERTEX
  5
2E5D
  8
0
 10
124.09999999999999
 20
43.999999999999979
 30
0.0
 70
    32
  0
VERTEX
  5
2E5E
  8
0
 10
124.56757377801991
 20
43.933033611432812
 30
0.0
 70
    32
  0
VERTEX
  5
2E5F
  8
0
 10
125.0400372390354
 20
43.893684963447647
 30
0.0
 70
    32
  0
VERTEX
  5
2E60
  8
0
 10
125.5191981281635
 20
43.882424336242089
 30
0.0
 70
    32
  0
VERTEX
  5
2E61
  8
0
 10
126.0000000000001
 20
43.90000000000002
 30
0.0
 70
    32
  0
SEQEND
  5
2E62
  8
0
  0
POLYLINE
  5
2E64
  8
0
 66
     1
 10
0.0
 20
0.0
 30
0.0
 70
     8
  0
VERTEX
  5
2E65
  8
0
 10
126.0000000000001
 20
56.100000000000009
 30
0.0
 70
    32
  0
VERTEX
  5
2E66
  8
0
 10
125.52768612094199
 20
56.11751629419571
 30
0.0
 70
    32
  0
VERTEX
  5
2E67
  8
0
 10
125.0536007059292
 20
56.107029239873171
 30
0.0
 70
    32
  0
VERTEX
  5
2E68
  8
0
 10
124.57600161877239
 20
56.067915960812499
 30
0.0
 70
    32
  0
VERTEX
  5
2E69
  8
0
 10
124.1000000000007
 20
56.000000000000192
 30
0.0
 70
    32
  0
SEQEND
  5
2E6A
  8
0
  0
POLYLINE
  5
2E6B
  8
0
 66
     1
 10
0.0
 20
0.0
 30
0.0
 70
     8
  0
VERTEX
  5
2E6C
  8
0
 10
104.2000000000051
 20
58.576858399201718
 30
0.0
 70
    32
  0
VERTEX
  5
2E6D
  8
0
 10
105.21912325138349
 20
58.09685762120499
 30
0.0
 70
    32
  0
VERTEX
  5
2E6E
  8
0
 10
106.25444278080271
 20
57.654407048636941
 30
0.0
 70
    32
  0
VERTEX
  5
2E6F
  8
0
 10
107.31408147924439
 20
57.246612413648521
 30
0.0
 70
    32
  0
VERTEX
  5
2E70
  8
0
 10
108.3867078884235
 20
56.878275968379022
 30
0.0
 70
    32
  0
VERTEX
  5
2E71
  8
0
 10
109.4848332979282
 20
56.545830445335312
 30
0.0
 70
    32
  0
VERTEX
  5
2E72
  8
0
 10
110.59345987668399
 20
56.25449136492211
 30
0.0
 70
    32
  0
VERTEX
  5
2E73
  8
0
 10
111.719047835788
 20
56.002924855117001
 30
0.0
 70
    32
  0
VERTEX
  5
2E74
  8
0
 10
112.8559712893199
 20
55.79294654983574
 30
0.0
 70
    32
  0
VERTEX
  5
2E75
  8
0
 10
113.9631543600041
 20
55.630220967313093
 30
0.0
 70
    32
  0
VERTEX
  5
2E76
  8
0
 10
115.0755388547243
 20
55.50754812409955
 30
0.0
 70
    32
  0
VERTEX
  5
2E77
  8
0
 10
116.20001955027659
 20
55.424651569976042
 30
0.0
 70
    32
  0
VERTEX
  5
2E78
  8
0
 10
117.32713211217499
 20
55.382683659918719
 30
0.0
 70
    32
  0
VERTEX
  5
2E79
  8
0
 10
118.46766763220739
 20
55.381980320383363
 30
0.0
 70
    32
  0
VERTEX
  5
2E7A
  8
0
 10
119.60798338514719
 20
55.423247375730611
 30
0.0
 70
    32
  0
VERTEX
  5
2E7B
  8
0
 10
120.7551202840307
 20
55.507303474992639
 30
0.0
 70
    32
  0
VERTEX
  5
2E7C
  8
0
 10
121.8989258452058
 20
55.633917041287319
 30
0.0
 70
    32
  0
VERTEX
  5
2E7D
  8
0
 10
123.0017720143984
 20
55.796984634956871
 30
0.0
 70
    32
  0
VERTEX
  5
2E7E
  8
0
 10
124.1000000000007
 20
56.000000000000192
 30
0.0
 70
    32
  0
SEQEND
  5
2E7F
  8
0
  0
ARC
  5
2E80
  8
0
 10
100.0
 20
50.000000000000043
 30
0.0
 40
9.5499999999999758
 50
63.90948017722296
 51
170.89036636894051
  0
CIRCLE
  5
2E81
  8
0
 10
100.0
 20
50.000000000000007
 30
0.0
 40
9.25
  0
CIRCLE
  5
2E82
  8
0
 10
100.0
 20
50.000000000000007
 30
0.0
 40
2.5000000000002269
  0
CIRCLE
  5
2E83
  8
0
 10
100.0
 20
50.000000000000007
 30
0.0
 40
6.75
  0
LINE
  5
2E84
  8
1
 10
200.0
 20
133.5
 30
0.0
 11
200.0
 21
95.0
 31
0.0
  0
LINE
  5
2E9D
  8
0
 10
193.5499999999999
 20
100.0
 30
0.0
 11
206.4500000000001
 21
100.0
 31
0.0
  0
LINE
  5
2E9E
  8
0
 10
193.5499999999999
 20
100.0
 30
0.0
 11
193.25
 21
100.3
 31
0.0
  0
LINE
  5
2E9F
  8
0
 10
206.75
 20
100.3
 30
0.0
 11
206.4500000000001
 21
100.0
 31
0.0
  0
LINE
  5
2EA0
  8
0
 10
193.25
 20
100.3
 30
0.0
 11
206.75
 21
100.3
 31
0.0
  0
LINE
  5
2EA1
  8
0
 10
206.75
 20
106.5
 30
0.0
 11
206.75
 21
100.3
 31
0.0
  0
LINE
  5
2EA2
  8
0
 10
193.25
 20
100.3
 30
0.0
 11
193.25
 21
106.5
 31
0.0
  0
LINE
  5
2EA3
  8
0
 10
191.25
 20
106.5
 30
0.0
 11
208.75
 21
106.5
 31
0.0
  0
LINE
  5
2EA4
  8
0
 10
191.25
 20
106.5
 30
0.0
 11
190.75
 21
107.0
 31
0.0
  0
LINE
  5
2EA5
  8
0
 10
209.25
 20
107.0
 30
0.0
 11
208.75
 21
106.5
 31
0.0
  0
LINE
  5
2EA6
  8
0
 10
190.75
 20
107.0
 30
0.0
 11
209.25
 21
107.0
 31
0.0
  0
LINE
  5
2EA7
  8
0
 10
190.75
 20
107.0
 30
0.0
 11
190.57077250727031
 21
117.798519521583
 31
0.0
  0
LINE
  5
2EA8
  8
0
 10
209.42922749272981
 20
117.798519521583
 30
0.0
 11
209.25
 21
107.0
 31
0.0
  0
LINE
  5
3000
  8
2
 10
200.0
 20
115.4194999999999
 30
0.0
 11
202.5000000000002
 21
113.9761243270259
 31
0.0
  0
LINE
  5
3001
  8
2
 10
202.5000000000002
 20
101.0000000000009
 30
0.0
 11
202.5000000000002
 21
113.9761243270259
 31
0.0
  0
LINE
  5
3002
  8
2
 10
203.0000000000002
 20
100.5000000000004
 30
0.0
 11
203.0000000000002
 21
112.0
 31
0.0
  0
LINE
  5
3003
  8
2
 10
202.5000000000002
 20
101.0000000000009
 30
0.0
 11
203.5000000000002
 21
100.0
 31
0.0
  0
LINE
  5
3004
  8
2
 10
202.5000000000002
 20
112.86602540378431
 30
0.0
 11
203.0000000000002
 21
112.0
 31
0.0
  0
LINE
  5
3005
  8
2
 10
197.4999999999998
 20
101.0000000000009
 30
0.0
 11
202.5000000000002
 21
101.0000000000009
 31
0.0
  0
LINE
  5
3006
  8
2
 10
197.4999999999998
 20
112.86602540378431
 30
0.0
 11
196.99999999999969
 21
112.0
 31
0.0
  0
LINE
  5
3007
  8
2
 10
196.99999999999969
 20
112.0
 30
0.0
 11
203.0000000000002
 21
112.0
 31
0.0
  0
LINE
  5
3008
  8
2
 10
200.0
 20
115.4194999999999
 30
0.0
 11
197.4999999999998
 21
113.9761243270259
 31
0.0
  0
LINE
  5
3009
  8
2
 10
197.4999999999998
 20
113.9761243270259
 30
0.0
 11
202.5000000000002
 21
113.9761243270259
 31
0.0
  0
LINE
  5
300A
  8
2
 10
197.4999999999998
 20
101.0000000000009
 30
0.0
 11
196.4999999999998
 21
100.0
 31
0.0
  0
LINE
  5
300B
  8
2
 10
196.99999999999969
 20
100.5000000000004
 30
0.0
 11
196.99999999999969
 21
112.0
 31
0.0
  0
LINE
  5
300C
  8
2
 10
197.4999999999998
 20
101.0000000000009
 30
0.0
 11
197.4999999999998
 21
113.9761243270259
 31
0.0
  0
CIRCLE
  5
300D
  8
3
 10
100.0
 20
50.000000000000007
 30
0.0
 40
3.0
  0
CIRCLE
  5
300E
  8
0
 10
100.0
 20
178.5
 30
0.0
 40
4.0
  0
ARC
  5
300F
  8
0
 10
98.169338093988131
 20
179.55693314423141
 30
0.0
 40
0.6912500000000005
 50
309.68887794066018
 51
16.658241772777039
  0
ARC
  5
3010
  8
0
 10
99.210000000000093
 20
179.86832013797951
 30
0.0
 40
0.3949999999999998
 50
43.341758227220339
 51
196.65824177277699
  0
ARC
  5
3011
  8
0
 10
100.0000000000001
 20
180.6138662884625
 30
0.0
 40
0.6912499999999989
 50
223.34175822722031
 51
316.65824177277949
  0
ARC
  5
3012
  8
0
 10
100.79000000000001
 20
179.86832013797951
 30
0.0
 40
0.3950000000000002
 50
343.3417582272229
 51
136.6582417727796
  0
ARC
  5
3013
  8
0
 10
98.169338093988131
 20
177.44306685576879
 30
0.0
 40
0.691250000000001
 50
343.3417582272229
 51
50.311122059332007
  0
ARC
  5
3014
  8
0
 10
99.210000000000093
 20
177.13167986202069
 30
0.0
 40
0.3950000000000001
 50
163.3417582272229
 51
316.65824177277949
  0
ARC
  5
3015
  8
0
 10
100.0000000000001
 20
176.3861337115377
 30
0.0
 40
0.6912500000000003
 50
43.341758227220339
 51
136.65824177277921
  0
ARC
  5
3016
  8
0
 10
100.79000000000001
 20
177.13167986202069
 30
0.0
 40
0.3949999999999998
 50
223.34175822722031
 51
16.658241772777039
  0
ARC
  5
3017
  8
0
 10
101.830661906012
 20
177.44306685576879
 30
0.0
 40
0.6912500000000003
 50
129.68887794066799
 51
196.65824177277699
  0
ARC
  5
3018
  8
0
 10
101.830661906012
 20
179.55693314423141
 30
0.0
 40
0.6912500000000011
 50
163.3417582272229
 51
230.31112205934431
  0
LINE
  5
3019
  8
0
 10
97.250000000000057
 20
177.97500000000011
 30
0.0
 11
98.610783099134096
 21
177.97500000000011
 31
0.0
  0
LINE
  5
301A
  8
0
 10
97.250000000000057
 20
179.02500000000009
 30
0.0
 11
98.610783099134039
 21
179.02500000000009
 31
0.0
  0
LINE
  5
301B
  8
0
 10
101.3892169008661
 20
179.02500000000009
 30
0.0
 11
102.75
 21
179.02500000000009
 31
0.0
  0
LINE
  5
301C
  8
0
 10
101.389216900866
 20
177.97500000000011
 30
0.0
 11
102.75
 21
177.97500000000011
 31
0.0
  0
ARC
  5
301D
  8
0
 10
100.0
 20
178.5
 30
0.0
 40
2.7567916134521511
 50
355.97735839170451
 51
4.0226416083024681
  0
LINE
  5
301E
  8
0
 10
102.75
 20
179.02500000000009
 30
0.0
 11
102.75
 21
177.97500000000011
 31
0.0
  0
LINE
  5
301F
  8
0
 10
97.250000000000114
 20
179.02500000000009
 30
0.0
 11
97.250000000000114
 21
177.97500000000011
 31
0.0
  0
ARC
  5
3020
  8
0
 10
100.0
 20
178.5
 30
0.0
 40
2.7567916134521511
 50
10.9783913299367
 51
169.0216086700633
  0
ARC
  5
3021
  8
0
 10
100.0
 20
178.5
 30
0.0
 40
2.7567916134521511
 50
190.9783913299367
 51
349.0216086700633
  0
ARC
  5
3022
  8
0
 10
100.0
 20
178.5
 30
0.0
 40
2.7567916134521511
 50
175.97735839169749
 51
184.02264160830251
  0
CIRCLE
  5
3029
  8
0
 10
100.0
 20
178.5
 30
0.0
 40
4.3708382722768269
  0
LINE
  5
302A
  8
0
 10
90.450413125845785
 20
178.41117132793349
 30
0.0
 11
90.450413125845785
 21
178.58882867206651
 31
0.0
  0
POLYLINE
  5
302B
  8
0
 66
     1
 10
0.0
 20
0.0
 30
0.0
 70
     8
  0
VERTEX
  5
302C
  8
0
 10
90.570452236937626
 20
180.01199503442459
 30
0.0
 70
    32
  0
VERTEX
  5
302D
  8
0
 10
90.474555462778355
 20
179.18440219777059
 30
0.0
 70
    32
  0
VERTEX
  5
302E
  8
0
 10
90.450413125845785
 20
178.58882867206609
 30
0.0
 70
    32
  0
SEQEND
  5
302F
  8
0
  0
POLYLINE
  5
3030
  8
0
 66
     1
 10
0.0
 20
0.0
 30
0.0
 70
     8
  0
VERTEX
  5
3031
  8
0
 10
90.450413125845785
 20
178.41117132793391
 30
0.0
 70
    32
  0
VERTEX
  5
3032
  8
0
 10
90.494494115892266
 20
177.57920801089901
 30
0.0
 70
    32
  0
VERTEX
  5
3033
  8
0
 10
90.570452236937626
 20
176.98800496557541
 30
0.0
 70
    32
  0
SEQEND
  5
3034
  8
0
  0
ARC
  5
3035
  8
0
 10
100.0
 20
178.5
 30
0.0
 40
9.5499999999999901
 50
189.10963363105779
 51
296.09051982275889
  0
ARC
  5
3036
  8
0
 10
100.0
 20
178.5
 30
0.0
 40
9.5499999999999758
 50
63.90948017722296
 51
170.89036636894051
  0
POLYLINE
  5
31B2
  8
0
 66
     1
 10
0.0
 20
0.0
 30
0.0
  0
VERTEX
  5
4221
  8
0
 10
164.9476609108018
 20
175.89206169254041
 30
0.0
  0
VERTEX
  5
4222
  8
0
 10
164.9460388624334
 20
175.88355934023721
 30
0.0
  0
VERTEX
  5
4223
  8
0
 10
164.94119783696021
 20
175.8589371574331
 30
0.0
  0
VERTEX
  5
4224
  8
0
 10
164.92864492975241
 20
175.79958561252411
 30
0.0
  0
VERTEX
  5
4225
  8
0
 10
164.9110081488553
 20
175.7247196698529
 30
0.0
  0
VERTEX
  5
4226
  8
0
 10
164.8621499475091
 20
175.55105746681249
 30
0.0
  0
VERTEX
  5
4227
  8
0
 10
164.79745980419801
 20
175.36638630319811
 30
0.0
  0
VERTEX
  5
4228
  8
0
 10
164.71638776127131
 20
175.1767217388086
 30
0.0
  0
VERTEX
  5
4229
  8
0
 10
164.61927954596561
 20
174.98733986856499
 30
0.0
  0
VERTEX
  5
422A
  8
0
 10
164.5094588089184
 20
174.80603634883801
 30
0.0
  0
VERTEX
  5
422B
  8
0
 10
164.38359326057301
 20
174.62832956653759
 30
0.0
  0
VERTEX
  5
422C
  8
0
 10
164.2396373650858
 20
174.4539978775282
 30
0.0
  0
VERTEX
  5
422D
  8
0
 10
164.07790411550181
 20
174.28613436489681
 30
0.0
  0
VERTEX
  5
422E
  8
0
 10
163.93026234192939
 20
174.1534618898591
 30
0.0
  0
VERTEX
  5
422F
  8
0
 10
163.76963067165019
 20
174.0275204261016
 30
0.0
  0
VERTEX
  5
4230
  8
0
 10
163.59353460301091
 20
173.90821962612651
 30
0.0
  0
VERTEX
  5
4231
  8
0
 10
163.4035141219228
 20
173.79855735314459
 30
0.0
  0
VERTEX
  5
4232
  8
0
 10
163.08343654884879
 20
173.65247158287559
 30
0.0
  0
VERTEX
  5
4233
  8
0
 10
162.90960931753921
 20
173.59122213359521
 30
0.0
  0
VERTEX
  5
4234
  8
0
 10
162.72869696014919
 20
173.53984523774599
 30
0.0
  0
VERTEX
  5
4235
  8
0
 10
162.57069963410251
 20
173.50478321211571
 30
0.0
  0
SEQEND
  5
4236
  8
0
  0
ARC
  5
31B3
  8
0
 10
99.999999999998465
 20
178.5
 30
0.0
 40
65.000000000001577
 50
357.70055419433498
 51
2.299445805664921
  0
POLYLINE
  5
31B4
  8
0
 66
     1
 10
0.0
 20
0.0
 30
0.0
  0
VERTEX
  5
4237
  8
0
 10
162.57069963410251
 20
183.49521678788429
 30
0.0
  0
VERTEX
  5
4238
  8
0
 10
162.7572741918554
 20
183.45284959967779
 30
0.0
  0
VERTEX
  5
4239
  8
0
 10
162.9406330392471
 20
183.3987206752289
 30
0.0
  0
VERTEX
  5
423A
  8
0
 10
163.12229055356349
 20
183.33216892251031
 30
0.0
  0
VERTEX
  5
423B
  8
0
 10
163.29771165831329
 20
183.25480026099481
 30
0.0
  0
VERTEX
  5
423C
  8
0
 10
163.61194124287431
 20
183.08014731379839
 30
0.0
  0
VERTEX
  5
423D
  8
0
 10
163.89775477635339
 20
182.8734730058317
 30
0.0
  0
VERTEX
  5
423E
  8
0
 10
164.0916575537189
 20
182.70057403452461
 30
0.0
  0
VERTEX
  5
423F
  8
0
 10
164.2663102461463
 20
182.51566473952519
 30
0.0
  0
VERTEX
  5
4240
  8
0
 10
164.42365651816681
 20
182.31801840543241
 30
0.0
  0
VERTEX
  5
4241
  8
0
 10
164.5611151625148
 20
182.1122705029338
 30
0.0
  0
VERTEX
  5
4242
  8
0
 10
164.6779971277137
 20
181.90215804695961
 30
0.0
  0
VERTEX
  5
4243
  8
0
 10
164.7755230157093
 20
181.68862723894549
 30
0.0
  0
VERTEX
  5
4244
  8
0
 10
164.85436784587179
 20
181.4733548616104
 30
0.0
  0
VERTEX
  5
4245
  8
0
 10
164.9127899925837
 20
181.26809084321241
 30
0.0
  0
VERTEX
  5
4246
  8
0
 10
164.9380971820267
 20
181.15628784332841
 30
0.0
  0
VERTEX
  5
4247
  8
0
 10
164.94694200474621
 20
181.111723081832
 30
0.0
  0
VERTEX
  5
4248
  8
0
 10
164.9476609108018
 20
181.10793830745959
 30
0.0
  0
SEQEND
  5
4249
  8
0
  0
POLYLINE
  5
31CE
  8
0
 66
     1
 10
0.0
 20
0.0
 30
0.0
  0
VERTEX
  5
424A
  8
0
 10
162.08735688418341
 20
183.54872785940739
 30
0.0
  0
VERTEX
  5
424B
  8
0
 10
162.3293153811432
 20
183.5318704498591
 30
0.0
  0
VERTEX
  5
424C
  8
0
 10
162.57069963410251
 20
183.49521678788429
 30
0.0
  0
SEQEND
  5
424D
  8
0
  0
LINE
  5
31CF
  8
0
 10
126.0
 20
184.59999999999999
 30
0.0
 11
162.08735688418341
 21
183.54872785940739
 31
0.0
  0
LINE
  5
31D6
  8
0
 10
162.08735688418341
 20
173.45127214059261
 30
0.0
 11
126.0000000000001
 21
172.40000000000001
 31
0.0
  0
POLYLINE
  5
31D7
  8
0
 66
     1
 10
0.0
 20
0.0
 30
0.0
  0
VERTEX
  5
424E
  8
0
 10
162.57069963410251
 20
173.50478321211571
 30
0.0
  0
VERTEX
  5
424F
  8
0
 10
162.33090325817849
 20
173.4683053419696
 30
0.0
  0
VERTEX
  5
4250
  8
0
 10
162.08735688418341
 20
173.45127214059261
 30
0.0
  0
SEQEND
  5
4251
  8
0
  0
POLYLINE
  5
31E0
  8
0
 66
     1
 10
0.0
 20
0.0
 30
0.0
  0
VERTEX
  5
4252
  8
0
 10
164.9476609108018
 20
47.392061692540388
 30
0.0
  0
VERTEX
  5
4253
  8
0
 10
164.9460388624334
 20
47.38355934023717
 30
0.0
  0
VERTEX
  5
4254
  8
0
 10
164.94119783696021
 20
47.358937157433147
 30
0.0
  0
VERTEX
  5
4255
  8
0
 10
164.92864492975241
 20
47.299585612524091
 30
0.0
  0
VERTEX
  5
4256
  8
0
 10
164.9110081488553
 20
47.224719669852909
 30
0.0
  0
VERTEX
  5
4257
  8
0
 10
164.8621499475091
 20
47.051057466812537
 30
0.0
  0
VERTEX
  5
4258
  8
0
 10
164.79745980419801
 20
46.866386303198183
 30
0.0
  0
VERTEX
  5
4259
  8
0
 10
164.71638776127131
 20
46.676721738808631
 30
0.0
  0
VERTEX
  5
425A
  8
0
 10
164.61927954596561
 20
46.48733986856503
 30
0.0
  0
VERTEX
  5
425B
  8
0
 10
164.5094588089184
 20
46.306036348837992
 30
0.0
  0
VERTEX
  5
425C
  8
0
 10
164.38359326057301
 20
46.12832956653763
 30
0.0
  0
VERTEX
  5
425D
  8
0
 10
164.2396373650858
 20
45.953997877528259
 30
0.0
  0
VERTEX
  5
425E
  8
0
 10
164.07790411550181
 20
45.786134364896789
 30
0.0
  0
VERTEX
  5
425F
  8
0
 10
163.93026234192939
 20
45.653461889859081
 30
0.0
  0
VERTEX
  5
4260
  8
0
 10
163.76963067165019
 20
45.527520426101667
 30
0.0
  0
VERTEX
  5
4261
  8
0
 10
163.59353460301091
 20
45.408219626126552
 30
0.0
  0
VERTEX
  5
4262
  8
0
 10
163.4035141219228
 20
45.298557353144652
 30
0.0
  0
VERTEX
  5
4263
  8
0
 10
163.08343654884879
 20
45.152471582875599
 30
0.0
  0
VERTEX
  5
4264
  8
0
 10
162.90960931753921
 20
45.091222133595188
 30
0.0
  0
VERTEX
  5
4265
  8
0
 10
162.72869696014919
 20
45.039845237746093
 30
0.0
  0
VERTEX
  5
4266
  8
0
 10
162.57069963410251
 20
45.004783212115747
 30
0.0
  0
SEQEND
  5
4267
  8
0
  0
ARC
  5
31E1
  8
0
 10
99.999999999998465
 20
50.000000000000007
 30
0.0
 40
65.000000000001577
 50
357.7005541943343
 51
2.299445805665735
  0
POLYLINE
  5
31E2
  8
0
 66
     1
 10
0.0
 20
0.0
 30
0.0
  0
VERTEX
  5
4268
  8
0
 10
162.57069963410251
 20
54.995216787884331
 30
0.0
  0
VERTEX
  5
4269
  8
0
 10
162.7572741918554
 20
54.952849599677862
 30
0.0
  0
VERTEX
  5
426A
  8
0
 10
162.9406330392471
 20
54.898720675228972
 30
0.0
  0
VERTEX
  5
426B
  8
0
 10
163.12229055356349
 20
54.832168922510348
 30
0.0
  0
VERTEX
  5
426C
  8
0
 10
163.29771165831329
 20
54.754800260994863
 30
0.0
  0
VERTEX
  5
426D
  8
0
 10
163.61194124287431
 20
54.580147313798442
 30
0.0
  0
VERTEX
  5
426E
  8
0
 10
163.89775477635339
 20
54.373473005831741
 30
0.0
  0
VERTEX
  5
426F
  8
0
 10
164.0916575537189
 20
54.200574034524649
 30
0.0
  0
VERTEX
  5
4270
  8
0
 10
164.2663102461463
 20
54.015664739525199
 30
0.0
  0
VERTEX
  5
4271
  8
0
 10
164.42365651816681
 20
53.818018405432447
 30
0.0
  0
VERTEX
  5
4272
  8
0
 10
164.5611151625148
 20
53.61227050293386
 30
0.0
  0
VERTEX
  5
4273
  8
0
 10
164.6779971277137
 20
53.402158046959649
 30
0.0
  0
VERTEX
  5
4274
  8
0
 10
164.7755230157093
 20
53.188627238945529
 30
0.0
  0
VERTEX
  5
4275
  8
0
 10
164.85436784587179
 20
52.973354861610467
 30
0.0
  0
VERTEX
  5
4276
  8
0
 10
164.9127899925837
 20
52.768090843212391
 30
0.0
  0
VERTEX
  5
4277
  8
0
 10
164.9380971820267
 20
52.656287843328428
 30
0.0
  0
VERTEX
  5
4278
  8
0
 10
164.94694200474621
 20
52.611723081832068
 30
0.0
  0
VERTEX
  5
4279
  8
0
 10
164.9476609108018
 20
52.607938307459641
 30
0.0
  0
SEQEND
  5
427A
  8
0
  0
POLYLINE
  5
31E3
  8
0
 66
     1
 10
0.0
 20
0.0
 30
0.0
  0
VERTEX
  5
427B
  8
0
 10
162.08735688418341
 20
55.0487278594074
 30
0.0
  0
VERTEX
  5
427C
  8
0
 10
162.3293153811432
 20
55.031870449859078
 30
0.0
  0
VERTEX
  5
427D
  8
0
 10
162.57069963410251
 20
54.995216787884331
 30
0.0
  0
SEQEND
  5
427E
  8
0
  0
LINE
  5
31E4
  8
0
 10
126.0
 20
56.10000000000003
 30
0.0
 11
162.08735688418341
 21
55.0487278594074
 31
0.0
  0
LINE
  5
31E5
  8
0
 10
162.08735688418341
 20
44.951272140592678
 30
0.0
 11
126.0000000000001
 21
43.900000000000048
 31
0.0
  0
POLYLINE
  5
31E6
  8
0
 66
     1
 10
0.0
 20
0.0
 30
0.0
  0
VERTEX
  5
427F
  8
0
 10
162.57069963410251
 20
45.004783212115747
 30
0.0
  0
VERTEX
  5
4280
  8
0
 10
162.33090325817849
 20
44.968305341969661
 30
0.0
  0
VERTEX
  5
4281
  8
0
 10
162.08735688418341
 20
44.951272140592678
 30
0.0
  0
SEQEND
  5
4282
  8
0
  0
LINE
  5
3DA8
  8
0
 10
206.11774279162049
 20
129.19999999999999
 30
0.0
 11
193.88225720837951
 21
129.19999999999999
 31
0.0
  0
LINE
  5
3DA9
  8
0
 10
209.5499999999999
 20
117.8178159218545
 30
0.0
 11
209.42922749272961
 21
117.798519521583
 31
0.0
  0
LINE
  5
3DAA
  8
0
 10
190.57077250727031
 20
117.798519521583
 30
0.0
 11
190.4500000000001
 21
117.8178159218545
 31
0.0
  0
LINE
  5
3DAB
  8
0
 10
193.88225720837951
 20
129.19999999999999
 30
0.0
 11
193.88225720837951
 21
119.6633548542501
 31
0.0
  0
LINE
  5
3DAC
  8
0
 10
206.1177427916204
 20
119.6633548542502
 30
0.0
 11
206.11774279162049
 21
129.19999999999999
 31
0.0
  0
LINE
  5
3DB5
  8
0
 10
209.5499999999999
 20
117.8178159218545
 30
0.0
 11
209.5499999999999
 21
128.21444829107531
 31
0.0
  0
LINE
  5
3DB6
  8
0
 10
190.44999999999999
 20
128.21671712103779
 30
0.0
 11
190.44999999999999
 21
117.8178159218545
 31
0.0
  0
ARC
  5
3DB7
  8
0
 10
201.02876123833551
 20
119.1265864192508
 30
0.0
 40
3.9715406153842472
 50
12.30949788091632
 51
44.292520188600122
  0
ARC
  5
3DB8
  8
0
 10
206.8244758281248
 20
125.66975882464639
 30
0.0
 40
4.788631723700405
 50
208.29354516188519
 51
231.92748188297119
  0
LINE
  5
3DB9
  8
0
 10
202.60793830746019
 20
125.5534224723347
 30
0.0
 11
202.6079383074601
 21
123.40000000000001
 31
0.0
  0
ARC
  5
3DBA
  8
0
 10
208.9509899444802
 20
121.61543495366941
 30
0.0
 40
7.4660598555769537
 50
121.9942467939849
 51
148.1665483416372
  0
ARC
  5
3DBB
  8
0
 10
204.97578811245569
 20
128.0377084349671
 30
0.0
 40
0.0923648930436289
 50
282.14268636865887
 51
322.15666678226518
  0
LINE
  5
3DBC
  8
0
 10
205.04872785940751
 20
119.0696484494469
 30
0.0
 11
205.04872785940731
 21
127.9810421594445
 31
0.0
  0
ARC
  5
3DBD
  8
0
 10
200.3875539365456
 20
118.8115099344176
 30
0.0
 40
4.668316380892529
 50
3.1698355058481771
 51
14.4103335047683
  0
ARC
  5
3DBE
  8
0
 10
194.21116306802489
 20
124.79734505767971
 30
0.0
 40
3.4742897503895671
 50
303.49449907082089
 51
336.28447388431317
  0
ARC
  5
3DBF
  8
0
 10
198.81682579633261
 20
119.20973274258979
 30
0.0
 40
3.8032583071215358
 50
134.97959643636511
 51
168.41838549412171
  0
LINE
  5
3DC1
  8
0
 10
194.95127214059261
 20
127.9810421594446
 30
0.0
 11
194.95127214059261
 21
119.0696484494527
 31
0.0
  0
ARC
  5
3DC2
  8
0
 10
195.02434148452409
 20
128.03791463289551
 30
0.0
 40
0.0925937754872692
 50
217.89489322124081
 51
257.80575362760948
  0
ARC
  5
3DC3
  8
0
 10
191.69350589075421
 20
122.2581246061211
 30
0.0
 40
6.5827445836163339
 50
30.039461591756069
 51
59.79974327262989
  0
LINE
  5
3DC4
  8
0
 10
197.39206169254001
 20
123.40000000000011
 30
0.0
 11
197.39206169254001
 21
125.5534224723347
 31
0.0
  0
LINE
  5
3DC5
  8
0
 10
197.39206169254001
 20
125.5534224723347
 30
0.0
 11
202.60793830746019
 21
125.5534224723347
 31
0.0
  0
LINE
  5
3DC6
  8
0
 10
197.39206169254001
 20
123.40000000000011
 30
0.0
 11
202.6079383074601
 21
123.40000000000001
 31
0.0
  0
LINE
  5
3DC8
  8
0
 10
195.00478321211571
 20
127.94741004052921
 30
0.0
 11
204.99521678788429
 21
127.94741004052921
 31
0.0
  0
LINE
  5
3DC9
  8
0
 10
204.90899711639679
 20
119.9732884862451
 30
0.0
 11
195.09100288360321
 21
119.9732884862451
 31
0.0
  0
ARC
  5
3DCA
  8
0
 10
215.01541413863589
 20
119.0333620730046
 30
0.0
 40
9.9667523341193931
 50
179.79140037323279
 51
188.84997362618421
  0
ARC
  5
3DCD
  8
0
 10
191.631144400317
 20
153.2384851521397
 30
0.0
 40
24.357439715453989
 50
269.71381284647271
 51
275.30283911073531
  0
ARC
  5
3DCE
  8
0
 10
208.35467645761119
 20
152.7888152608254
 30
0.0
 40
23.9078518988802
 50
264.63127834961853
 51
270.32555012735918
  0
POLYLINE
  5
3DCF
  8
0
 66
     1
 10
0.0
 20
0.0
 30
0.0
 70
   128
  0
VERTEX
  5
4283
  8
0
 10
205.04872785940731
 20
127.9810421594446
 30
0.0
  0
VERTEX
  5
4284
  8
0
 10
205.31105871531241
 20
128.52628506334079
 30
0.0
  0
VERTEX
  5
4285
  8
0
 10
205.57371592649989
 20
128.9103370555429
 30
0.0
  0
VERTEX
  5
4286
  8
0
 10
205.8367804095349
 20
129.1340858233325
 30
0.0
  0
VERTEX
  5
4287
  8
0
 10
206.1177427916204
 20
129.19999999999999
 30
0.0
  0
SEQEND
  5
4288
  8
0
  0
POLYLINE
  5
3DD0
  8
0
 66
     1
 10
0.0
 20
0.0
 30
0.0
 70
   128
  0
VERTEX
  5
4289
  8
0
 10
193.88225720837951
 20
129.19999999999999
 30
0.0
  0
VERTEX
  5
428A
  8
0
 10
194.0944142516542
 20
129.16632252784919
 30
0.0
  0
VERTEX
  5
428B
  8
0
 10
194.2888318595227
 20
129.04721015511871
 30
0.0
  0
VERTEX
  5
428C
  8
0
 10
194.48328584390691
 20
128.8406886278066
 30
0.0
  0
VERTEX
  5
428D
  8
0
 10
194.67767734566959
 20
128.54607068512351
 30
0.0
  0
VERTEX
  5
428E
  8
0
 10
194.95127214059261
 20
127.9810421594446
 30
0.0
  0
SEQEND
  5
428F
  8
0
  0
LINE
  5
3DD1
  8
0
 10
205.24092100213301
 20
117.5
 30
0.0
 11
194.75907899786711
 21
117.5
 31
0.0
  0
POLYLINE
  5
3DD7
  8
0
 66
     1
 10
0.0
 20
0.0
 30
0.0
 70
   128
  0
VERTEX
  5
4290
  8
0
 10
206.09999999999999
 20
119.691054706039
 30
0.0
  0
VERTEX
  5
4291
  8
0
 10
205.94165747816911
 20
119.9252939025353
 30
0.0
  0
VERTEX
  5
4292
  8
0
 10
205.7831843295555
 20
119.99985385159169
 30
0.0
  0
VERTEX
  5
4293
  8
0
 10
205.6241513345619
 20
119.91011652171041
 30
0.0
  0
VERTEX
  5
4294
  8
0
 10
205.46527233525771
 20
119.6539435569663
 30
0.0
  0
SEQEND
  5
4295
  8
0
  0
ARC
  5
3DD8
  8
0
 10
211.8737167364709
 20
118.5715653296119
 30
0.0
 40
6.4992078186877631
 50
170.41329070082369
 51
178.3919771613468
  0
ARC
  5
3DD9
  8
0
 10
201.84553596041181
 20
118.5030179433185
 30
0.0
 40
3.5404356477928669
 50
343.54253048569279
 51
4.064201034167179
  0
LINE
  5
3DDB
  8
0
 10
190.4500000000001
 20
117.8178159218545
 30
0.0
 11
191.42314160079329
 21
117.8178159218545
 31
0.0
  0
POLYLINE
  5
3DDF
  8
0
 66
     1
 10
0.0
 20
0.0
 30
0.0
 70
   128
  0
VERTEX
  5
4296
  8
0
 10
206.09999999999999
 20
119.691054706039
 30
0.0
  0
VERTEX
  5
4297
  8
0
 10
206.1177427916204
 20
119.6633548542502
 30
0.0
  0
VERTEX
  5
4298
  8
0
 10
206.10725573729781
 20
119.633960416919
 30
0.0
  0
VERTEX
  5
4299
  8
0
 10
206.06814245823719
 20
119.60266494563921
 30
0.0
  0
VERTEX
  5
429A
  8
0
 10
206.00022649742471
 20
119.5697166194463
 30
0.0
  0
SEQEND
  5
429B
  8
0
  0
POLYLINE
  5
3DE0
  8
0
 66
     1
 10
0.0
 20
0.0
 30
0.0
 70
   128
  0
VERTEX
  5
429C
  8
0
 10
208.57708489662781
 20
117.8178159218546
 30
0.0
  0
VERTEX
  5
429D
  8
0
 10
207.6553702452955
 20
117.870755109949
 30
0.0
  0
VERTEX
  5
429E
  8
0
 10
206.8812712925681
 20
118.01878699397351
 30
0.0
  0
VERTEX
  5
429F
  8
0
 10
206.2550600567298
 20
118.2339730904708
 30
0.0
  0
VERTEX
  5
42A0
  8
0
 10
205.79312719490011
 20
118.4821324316184
 30
0.0
  0
VERTEX
  5
42A1
  8
0
 10
205.50788087921339
 20
118.7292624007806
 30
0.0
  0
VERTEX
  5
42A2
  8
0
 10
205.3869179234529
 20
118.9693151154917
 30
0.0
  0
VERTEX
  5
42A3
  8
0
 10
205.4234049300118
 20
119.19586750549129
 30
0.0
  0
VERTEX
  5
42A4
  8
0
 10
205.63418757760149
 20
119.39927932932051
 30
0.0
  0
VERTEX
  5
42A5
  8
0
 10
206.00022649742479
 20
119.5697166194463
 30
0.0
  0
SEQEND
  5
42A6
  8
0
  0
LINE
  5
3DE1
  8
0
 10
208.5768583992008
 20
117.8178159218545
 30
0.0
 11
209.5499999999999
 21
117.8178159218545
 31
0.0
  0
LINE
  5
3DE2
  8
0
 10
209.42922749272961
 20
117.798519521583
 30
0.0
 11
205.3151708907661
 21
117.798519521583
 31
0.0
  0
LINE
  5
3DE3
  8
0
 10
194.68617800329
 20
117.798519521583
 30
0.0
 11
190.57077250727031
 21
117.798519521583
 31
0.0
  0
LINE
  5
3DE4
  8
0
 10
191.50948173106519
 20
128.6696323297075
 30
0.0
 11
191.50948173313839
 21
128.88134928423869
 31
0.0
  0
LINE
  5
3DE5
  8
0
 10
191.42314160079329
 20
117.8178159218545
 30
0.0
 11
191.42314160079641
 21
128.64238051648931
 31
0.0
  0
LINE
  5
3DE6
  8
0
 10
191.509481728992
 20
128.66963232903879
 30
0.0
 11
191.42314160079641
 21
128.64238051648931
 31
0.0
  0
LINE
  5
3DE7
  8
0
 10
208.5768583992031
 20
128.6423805164896
 30
0.0
 11
208.5768583992008
 21
117.8178159218545
 31
0.0
  0
LINE
  5
3DE8
  8
0
 10
208.49051826686161
 20
128.88134928423869
 30
0.0
 11
208.49051826893481
 21
128.6696323297075
 31
0.0
  0
ARC
  5
3DE9
  8
0
 10
210.7214710942535
 20
135.58741487663431
 30
0.0
 40
7.2686220066366669
 50
252.1257290466082
 51
252.8394167678687
  0
ARC
  5
3DEE
  8
0
 10
191.59070701630671
 20
126.998947390415
 30
0.0
 40
1.6519535733045501
 50
95.821792881304901
 51
132.5091477098851
  0
ARC
  5
3DEF
  8
0
 10
208.30226395057599
 20
126.73876293289391
 30
0.0
 40
1.9233205702096161
 50
50.108399302905887
 51
81.791774607202015
  0
ARC
  5
3F9C
  8
0
 10
199.6124460634544
 20
118.8115099344176
 30
0.0
 40
4.668316380892529
 50
165.5896664952306
 51
176.830164494152
  0
ARC
  5
3F9D
  8
0
 10
184.98458586136411
 20
119.0333620730046
 30
0.0
 40
9.9667523341193931
 50
351.15002637381599
 51
0.2085996267671995
  0
POLYLINE
  5
3F9E
  8
0
 66
     1
 10
0.0
 20
0.0
 30
0.0
 70
   128
  0
VERTEX
  5
42A7
  8
0
 10
193.90000000000001
 20
119.691054706039
 30
0.0
  0
VERTEX
  5
42A8
  8
0
 10
194.05834252183089
 20
119.9252939025353
 30
0.0
  0
VERTEX
  5
42A9
  8
0
 10
194.2168156704445
 20
119.99985385159169
 30
0.0
  0
VERTEX
  5
42AA
  8
0
 10
194.3758486654381
 20
119.91011652171041
 30
0.0
  0
VERTEX
  5
42AB
  8
0
 10
194.53472766474221
 20
119.6539435569663
 30
0.0
  0
SEQEND
  5
42AC
  8
0
  0
ARC
  5
3F9F
  8
0
 10
188.12628326352899
 20
118.5715653296119
 30
0.0
 40
6.4992078186877631
 50
1.6080228386532489
 51
9.5867092991764391
  0
ARC
  5
3FA0
  8
0
 10
198.15446403958819
 20
118.5030179433185
 30
0.0
 40
3.5404356477928669
 50
175.93579896583259
 51
196.4574695143078
  0
POLYLINE
  5
3FA1
  8
0
 66
     1
 10
0.0
 20
0.0
 30
0.0
 70
   128
  0
VERTEX
  5
42AD
  8
0
 10
193.90000000000001
 20
119.691054706039
 30
0.0
  0
VERTEX
  5
42AE
  8
0
 10
193.8822572083796
 20
119.6633548542502
 30
0.0
  0
VERTEX
  5
42AF
  8
0
 10
193.89274426270219
 20
119.633960416919
 30
0.0
  0
VERTEX
  5
42B0
  8
0
 10
193.93185754176281
 20
119.60266494563921
 30
0.0
  0
VERTEX
  5
42B1
  8
0
 10
193.99977350257529
 20
119.5697166194463
 30
0.0
  0
SEQEND
  5
42B2
  8
0
  0
POLYLINE
  5
3FA2
  8
0
 66
     1
 10
0.0
 20
0.0
 30
0.0
 70
   128
  0
VERTEX
  5
42B3
  8
0
 10
191.42291510337219
 20
117.8178159218546
 30
0.0
  0
VERTEX
  5
42B4
  8
0
 10
192.3446297547045
 20
117.870755109949
 30
0.0
  0
VERTEX
  5
42B5
  8
0
 10
193.1187287074319
 20
118.01878699397351
 30
0.0
  0
VERTEX
  5
42B6
  8
0
 10
193.74493994327011
 20
118.2339730904708
 30
0.0
  0
VERTEX
  5
42B7
  8
0
 10
194.20687280509981
 20
118.4821324316184
 30
0.0
  0
VERTEX
  5
42B8
  8
0
 10
194.49211912078661
 20
118.7292624007806
 30
0.0
  0
VERTEX
  5
42B9
  8
0
 10
194.6130820765471
 20
118.9693151154917
 30
0.0
  0
VERTEX
  5
42BA
  8
0
 10
194.57659506998809
 20
119.19586750549129
 30
0.0
  0
VERTEX
  5
42BB
  8
0
 10
194.36581242239839
 20
119.39927932932051
 30
0.0
  0
VERTEX
  5
42BC
  8
0
 10
193.99977350257521
 20
119.5697166194463
 30
0.0
  0
SEQEND
  5
42BD
  8
0
  0
ENDSEC
  0
EOF
