  0
SECTION
  2
HEADER
  9
$ACADVER
  1
AC1009
  9
$INSBASE
 10
0.0
 20
0.0
 30
0.0
  9
$EXTMIN
 10
0.0
 20
-2.960436562073669
 30
0.0
  9
$EXTMAX
 10
106.0
 20
131.0
 30
0.0
  9
$LIMMIN
 10
0.0
 20
0.0
  9
$LIMMAX
 10
375.0
 20
270.0
  9
$ORTHOMODE
 70
     1
  9
$REGENMODE
 70
     1
  9
$FILLMODE
 70
     1
  9
$QTEXTMODE
 70
     0
  9
$MIRRTEXT
 70
     0
  9
$DRAGMODE
 70
     2
  9
$LTSCALE
 40
5.0
  9
$OSMODE
 70
    37
  9
$ATTMODE
 70
     1
  9
$TEXTSIZE
 40
0.2
  9
$TRACEWID
 40
0.05
  9
$TEXTSTYLE
  7
STANDARD
  9
$CLAYER
  8
4
  9
$CELTYPE
  6
BYLAYER
  9
$CECOLOR
 62
   256
  9
$DIMSCALE
 40
1.0
  9
$DIMASZ
 40
3.0
  9
$DIMEXO
 40
2.0
  9
$DIMDLI
 40
0.38
  9
$DIMRND
 40
0.0
  9
$DIMDLE
 40
0.0
  9
$DIMEXE
 40
2.0
  9
$DIMTP
 40
0.0
  9
$DIMTM
 40
0.0
  9
$DIMTXT
 40
3.2000000000000002
  9
$DIMCEN
 40
0.09
  9
$DIMTSZ
 40
0.0
  9
$DIMTOL
 70
     0
  9
$DIMLIM
 70
     0
  9
$DIMTIH
 70
     0
  9
$DIMTOH
 70
     0
  9
$DIMSE1
 70
     0
  9
$DIMSE2
 70
     0
  9
$DIMTAD
 70
     1
  9
$DIMZIN
 70
     8
  9
$DIMBLK
  1

  9
$DIMASO
 70
     1
  9
$DIMSHO
 70
     0
  9
$DIMPOST
  1

  9
$DIMAPOST
  1

  9
$DIMALT
 70
     0
  9
$DIMALTD
 70
     2
  9
$DIMALTF
 40
25.399999999999999
  9
$DIMLFAC
 40
1.0
  9
$DIMTOFL
 70
     1
  9
$DIMTVP
 40
1.6000000000000001
  9
$DIMTIX
 70
     1
  9
$DIMSOXD
 70
     0
  9
$DIMSAH
 70
     0
  9
$DIMBLK1
  1

  9
$DIMBLK2
  1

  9
$DIMSTYLE
  2
STANDARD
  9
$DIMCLRD
 70
   256
  9
$DIMCLRE
 70
   256
  9
$DIMCLRT
 70
   256
  9
$DIMTFAC
 40
1.0
  9
$DIMGAP
 40
1.0
  9
$LUNITS
 70
     2
  9
$LUPREC
 70
     1
  9
$SKETCHINC
 40
0.1
  9
$FILLETRAD
 40
0.0
  9
$AUNITS
 70
     0
  9
$AUPREC
 70
     0
  9
$MENU
  1
E:\r13\win\SUPPORT\ACAD
  9
$ELEVATION
 40
0.0
  9
$PELEVATION
 40
0.0
  9
$THICKNESS
 40
0.0
  9
$LIMCHECK
 70
     0
  9
$BLIPMODE
 70
     0
  9
$CHAMFERA
 40
0.0
  9
$CHAMFERB
 40
0.0
  9
$SKPOLY
 70
     0
  9
$TDCREATE
 40
2449839.8447916671
  9
$TDUPDATE
 40
2459207.6378940511
  9
$TDINDWG
 40
0.187456875
  9
$TDUSRTIMER
 40
0.187456875
  9
$USRTIMER
 70
     1
  9
$ANGBASE
 50
0.0
  9
$ANGDIR
 70
     0
  9
$PDMODE
 70
     0
  9
$PDSIZE
 40
0.0
  9
$PLINEWID
 40
0.0
  9
$COORDS
 70
     1
  9
$SPLFRAME
 70
     0
  9
$SPLINETYPE
 70
     6
  9
$SPLINESEGS
 70
     8
  9
$ATTDIA
 70
     0
  9
$ATTREQ
 70
     1
  9
$HANDLING
 70
     1
  9
$HANDSEED
  5
C4D
  9
$SURFTAB1
 70
     6
  9
$SURFTAB2
 70
     6
  9
$SURFTYPE
 70
     6
  9
$SURFU
 70
     6
  9
$SURFV
 70
     6
  9
$UCSNAME
  2

  9
$UCSORG
 10
0.0
 20
0.0
 30
0.0
  9
$UCSXDIR
 10
1.0
 20
0.0
 30
0.0
  9
$UCSYDIR
 10
0.0
 20
1.0
 30
0.0
  9
$PUCSNAME
  2

  9
$PUCSORG
 10
0.0
 20
0.0
 30
0.0
  9
$PUCSXDIR
 10
1.0
 20
0.0
 30
0.0
  9
$PUCSYDIR
 10
0.0
 20
1.0
 30
0.0
  9
$USERI1
 70
     0
  9
$USERI2
 70
     1
  9
$USERI3
 70
     1
  9
$USERI4
 70
     0
  9
$USERI5
 70
     0
  9
$USERR1
 40
0.0
  9
$USERR2
 40
0.0
  9
$USERR3
 40
0.0
  9
$USERR4
 40
0.0
  9
$USERR5
 40
0.0
  9
$WORLDVIEW
 70
     1
  9
$SHADEDGE
 70
     3
  9
$SHADEDIF
 70
    70
  9
$TILEMODE
 70
     1
  9
$MAXACTVP
 70
    16
  9
$PLIMCHECK
 70
     0
  9
$PEXTMIN
 10
1.0000000000000000E+020
 20
1.0000000000000000E+020
 30
1.0000000000000000E+020
  9
$PEXTMAX
 10
-1.0000000000000000E+020
 20
-1.0000000000000000E+020
 30
-1.0000000000000000E+020
  9
$PLIMMIN
 10
0.0
 20
0.0
  9
$PLIMMAX
 10
12.0
 20
9.0
  9
$UNITMODE
 70
     0
  9
$VISRETAIN
 70
     0
  9
$PLINEGEN
 70
     0
  9
$PSLTSCALE
 70
     0
  0
ENDSEC
  0
SECTION
  2
TABLES
  0
TABLE
  2
VPORT
 70
     1
  0
VPORT
  2
*ACTIVE
 70
     0
 10
0.0
 20
0.0
 11
1.0
 21
1.0
 12
264.70588235294122
 22
100.0
 13
0.0
 23
0.0
 14
10.0
 24
10.0
 15
10.0
 25
10.0
 16
0.0
 26
0.0
 36
1.0
 17
0.0
 27
0.0
 37
0.0
 40
200.0
 41
2.6470588235294108
 42
50.0
 43
0.0
 44
0.0
 50
0.0
 51
0.0
 71
     0
 72
   500
 73
     1
 74
     0
 75
     0
 76
     0
 77
     0
 78
     2
  0
ENDTAB
  0
TABLE
  2
LTYPE
 70
     4
  0
LTYPE
  2
CONTINUOUS
 70
     0
  3
Solid Line
 72
    65
 73
     0
 40
0.0
  0
LTYPE
  2
CENTER
 70
     0
  3
____ _ ____ _ ____ _ ____ _ ____ _ ____ _ ____
 72
    65
 73
     4
 40
2.0
 49
1.25
 49
-0.25
 49
0.25
 49
-0.25
  0
LTYPE
  2
HIDDEN
 70
     0
  3
_ _ _ _ _ _ _ _ _ _ _ _ _ _ _ _ _ _ _ _ _ _ _
 72
    65
 73
     2
 40
0.375
 49
0.25
 49
-0.125
  0
LTYPE
  2
PHANTOM2
 70
     0
  3
___ _ _ ___ _ _ ___ _ _ ___ _ _
 72
    65
 73
     6
 40
1.25
 49
0.625
 49
-0.125
 49
0.125
 49
-0.125
 49
0.125
 49
-0.125
  0
ENDTAB
  0
TABLE
  2
LAYER
 70
     5
  0
LAYER
  2
0
 70
     0
 62
     7
  6
CONTINUOUS
  0
LAYER
  2
1
 70
     0
 62
     1
  6
CENTER
  0
LAYER
  2
2
 70
     0
 62
     2
  6
HIDDEN
  0
LAYER
  2
DEFPOINTS
 70
     0
 62
     7
  6
CONTINUOUS
  0
LAYER
  2
4
 70
     0
 62
     4
  6
CONTINUOUS
  0
ENDTAB
  0
TABLE
  2
STYLE
 70
     2
  0
STYLE
  2
STANDARD
 70
     0
 40
0.0
 41
1.0
 50
0.0
 71
     0
 42
0.2
  3
TXT
  4
BIGFONT
  0
STYLE
  2
STANDARD1
 70
     0
 40
0.0
 41
1.0
 50
0.0
 71
     0
 42
3.0
  3
txt
  4

  0
ENDTAB
  0
TABLE
  2
VIEW
 70
     1
  0
VIEW
  2
ALL
 70
     0
 40
270.0
 10
220.99159663865549
 20
135.0
 41
0.0
 11
0.0
 21
0.0
 31
1.0
 12
0.0
 22
0.0
 32
0.0
 42
0.0
 43
0.0
 44
0.0
 50
0.0
 71
     0
  0
ENDTAB
  0
TABLE
  2
UCS
 70
     0
  0
ENDTAB
  0
TABLE
  2
APPID
 70
     8
  0
APPID
  2
ACAD
 70
     0
  0
APPID
  2
ACAD_MLEADERVER
 70
     0
  0
APPID
  2
ACAD_NAV_VCDISPLAY
 70
     0
  0
APPID
  2
ACAD_EXEMPT_FROM_CAD_STANDARDS
 70
     0
  0
APPID
  2
ACAD_DSTYLE_DIMJAG
 70
     0
  0
APPID
  2
ACAD_DSTYLE_DIMTALN
 70
     0
  0
APPID
  2
ACAECLAYERSTANDARD
 70
     0
  0
APPID
  2
ACCMTRANSPARENCY
 70
     0
  0
ENDTAB
  0
TABLE
  2
DIMSTYLE
 70
     1
  0
DIMSTYLE
  2
STANDARD
 70
     0
  3

  4

  5

  6

  7

 40
1.0
 41
0.18
 42
0.0625
 43
0.38
 44
0.18
 45
0.0
 46
0.0
 47
0.0
 48
0.0
140
0.18
141
0.09
142
0.0
143
25.399999999999999
144
1.0
145
0.0
146
1.0
147
0.09
 71
     0
 72
     0
 73
     1
 74
     1
 75
     0
 76
     0
 77
     0
 78
     0
170
     0
171
     2
172
     0
173
     0
174
     0
175
     0
176
     0
177
     0
178
     0
  0
ENDTAB
  0
ENDSEC
  0
SECTION
  2
BLOCKS
  0
BLOCK
  8
0
  2
$MODEL_SPACE
 70
     0
 10
0.0
 20
0.0
 30
0.0
  3
$MODEL_SPACE
  1

  0
ENDBLK
  5
10E
  8
0
  0
BLOCK
 67
     1
  8
0
  2
$PAPER_SPACE
 70
     0
 10
0.0
 20
0.0
 30
0.0
  3
$PAPER_SPACE
  1

  0
ENDBLK
  5
10C
 67
     1
  8
0
  0
ENDSEC
  0
SECTION
  2
ENTITIES
  0
TEXT
  5
4DC
  8
0
 62
     3
 10
0.0
 20
0.0
 30
0.0
 40
10.0
  1
HD-WNN06
  7
STANDARD1
  0
LINE
  5
A67
  8
2
 10
50.0
 20
59.419415636802697
 30
0.0
 11
47.541500000000013
 21
58.0
 31
0.0
  0
LINE
  5
A68
  8
2
 10
52.458499999999987
 20
58.0
 30
0.0
 11
50.0
 21
59.419415636802697
 31
0.0
  0
LINE
  5
A69
  8
2
 10
47.541500000000013
 20
58.0
 30
0.0
 11
47.541500000000013
 21
50.541499999999992
 31
0.0
  0
LINE
  5
A6A
  8
2
 10
52.458499999999987
 20
50.541499999999992
 30
0.0
 11
52.458499999999987
 21
58.0
 31
0.0
  0
LINE
  5
A6B
  8
2
 10
52.458499999999987
 20
58.0
 30
0.0
 11
47.541500000000013
 21
58.0
 31
0.0
  0
POLYLINE
  5
A6C
  8
0
 66
     1
 10
0.0
 20
0.0
 30
0.0
  0
VERTEX
  5
BAD
  8
0
 10
53.028702228691827
 20
71.906976719328753
 30
0.0
  0
VERTEX
  5
BAE
  8
0
 10
53.207564068854737
 20
71.896342766576396
 30
0.0
  0
VERTEX
  5
BAF
  8
0
 10
53.386098392769121
 20
71.875986499279662
 30
0.0
  0
VERTEX
  5
BB0
  8
0
 10
53.564890251113688
 20
71.844933426205174
 30
0.0
  0
VERTEX
  5
BB1
  8
0
 10
53.742065225030501
 20
71.802566587369753
 30
0.0
  0
VERTEX
  5
BB2
  8
0
 10
53.954714952764988
 20
71.734617149688447
 30
0.0
  0
VERTEX
  5
BB3
  8
0
 10
54.162149523132392
 20
71.647634724360415
 30
0.0
  0
VERTEX
  5
BB4
  8
0
 10
54.365687145985163
 20
71.538544189260861
 30
0.0
  0
VERTEX
  5
BB5
  8
0
 10
54.558994420898273
 20
71.407889462947054
 30
0.0
  0
VERTEX
  5
BB6
  8
0
 10
54.687149125602957
 20
71.302857883388782
 30
0.0
  0
VERTEX
  5
BB7
  8
0
 10
54.807278370014558
 20
71.187217592942176
 30
0.0
  0
VERTEX
  5
BB8
  8
0
 10
54.919650289719357
 20
71.059358845464999
 30
0.0
  0
VERTEX
  5
BB9
  8
0
 10
55.02124820884373
 20
70.921186520831483
 30
0.0
  0
VERTEX
  5
BBA
  8
0
 10
55.107310059645471
 20
70.779556001263572
 30
0.0
  0
VERTEX
  5
BBB
  8
0
 10
55.181062434982579
 20
70.629690570855061
 30
0.0
  0
VERTEX
  5
BBC
  8
0
 10
55.242289880445099
 20
70.469708585416754
 30
0.0
  0
VERTEX
  5
BBD
  8
0
 10
55.288518141199972
 20
70.303167316544062
 30
0.0
  0
VERTEX
  5
BBE
  8
0
 10
55.321454250791277
 20
70.108564641632768
 30
0.0
  0
VERTEX
  5
BBF
  8
0
 10
55.332682251925377
 20
69.909043903343644
 30
0.0
  0
SEQEND
  5
BC0
  8
0
  0
ARC
  5
A6D
  8
0
 10
54.0
 20
69.909043903343644
 30
0.0
 40
2.0000000000000062
 50
0.0
 51
87.394748734941828
  0
ARC
  5
A6E
  8
0
 10
50.000000000000462
 20
-18.00000000003002
 30
0.0
 40
89.95797630007803
 50
88.070602930781106
 51
91.929397069218879
  0
ARC
  5
A6F
  8
0
 10
50.0
 20
-17.99999999998667
 30
0.0
 40
89.99999999998667
 50
87.394748734941828
 51
92.605251265058158
  0
POLYLINE
  5
A71
  8
0
 66
     1
 10
0.0
 20
0.0
 30
0.0
  0
VERTEX
  5
BC1
  8
0
 10
44.667317748073707
 20
69.909043903342848
 30
0.0
  0
VERTEX
  5
BC2
  8
0
 10
44.681960376980243
 20
70.136798179673917
 30
0.0
  0
VERTEX
  5
BC3
  8
0
 10
44.726527690768528
 20
70.364552456005015
 30
0.0
  0
VERTEX
  5
BC4
  8
0
 10
44.77019178898427
 20
70.506213198029997
 30
0.0
  0
VERTEX
  5
BC5
  8
0
 10
44.825208291269973
 20
70.643867276045881
 30
0.0
  0
VERTEX
  5
BC6
  8
0
 10
44.893048238419617
 20
70.780184494074476
 30
0.0
  0
VERTEX
  5
BC7
  8
0
 10
44.971700284925191
 20
70.910569698413283
 30
0.0
  0
VERTEX
  5
BC8
  8
0
 10
45.061316993012092
 20
71.035331390759694
 30
0.0
  0
VERTEX
  5
BC9
  8
0
 10
45.160439450948331
 20
71.152692538416446
 30
0.0
  0
VERTEX
  5
BCA
  8
0
 10
45.271047573442303
 20
71.264709845978913
 30
0.0
  0
VERTEX
  5
BCB
  8
0
 10
45.389875830461527
 20
71.36797989598
 30
0.0
  0
VERTEX
  5
BCC
  8
0
 10
45.523667883114683
 20
71.467412501254444
 30
0.0
  0
VERTEX
  5
BCD
  8
0
 10
45.664597664548609
 20
71.556462229887714
 30
0.0
  0
VERTEX
  5
BCE
  8
0
 10
45.815008276902148
 20
71.636640379353125
 30
0.0
  0
VERTEX
  5
BCF
  8
0
 10
45.9707625931837
 20
71.705899311147633
 30
0.0
  0
VERTEX
  5
BD0
  8
0
 10
46.190614113004749
 20
71.783159638585133
 30
0.0
  0
VERTEX
  5
BD1
  8
0
 10
46.416390955623513
 20
71.841023024037085
 30
0.0
  0
VERTEX
  5
BD2
  8
0
 10
46.652682182711168
 20
71.881264000313379
 30
0.0
  0
VERTEX
  5
BD3
  8
0
 10
46.891395432979117
 20
71.903379917308712
 30
0.0
  0
VERTEX
  5
BD4
  8
0
 10
46.97129777130823
 20
71.906976719328725
 30
0.0
  0
SEQEND
  5
BD5
  8
0
  0
ARC
  5
A73
  8
0
 10
46.0
 20
69.909043903343644
 30
0.0
 40
2.0000000000000062
 50
92.605251265058158
 51
180.0
  0
LINE
  5
A74
  8
2
 10
47.541500000000013
 20
50.541499999999992
 30
0.0
 11
47.0
 21
50.0
 31
0.0
  0
LINE
  5
A75
  8
2
 10
53.0
 20
50.0
 30
0.0
 11
52.458499999999987
 21
50.541499999999992
 31
0.0
  0
LINE
  5
A76
  8
2
 10
52.458499999999987
 20
50.541499999999992
 30
0.0
 11
47.541500000000013
 21
50.541499999999992
 31
0.0
  0
LINE
  5
A78
  8
0
 10
55.5
 20
50.0
 30
0.0
 11
56.0
 21
50.5
 31
0.0
  0
LINE
  5
A79
  8
0
 10
44.0
 20
50.5
 30
0.0
 11
44.5
 21
50.0
 31
0.0
  0
LINE
  5
A7A
  8
0
 10
55.5
 20
50.0
 30
0.0
 11
44.5
 21
50.0
 31
0.0
  0
LINE
  5
A7B
  8
0
 10
44.667317748073707
 20
69.909043903342848
 30
0.0
 11
44.667317748074623
 21
62.0
 31
0.0
  0
LINE
  5
A7D
  8
0
 10
55.332682251925377
 20
62.0
 30
0.0
 11
55.332682251925377
 21
69.909043903343644
 31
0.0
  0
POLYLINE
  5
A7E
  8
0
 66
     1
 10
0.0
 20
0.0
 30
0.0
  0
VERTEX
  5
BD6
  8
0
 10
44.667317748074623
 20
62.0
 30
0.0
  0
VERTEX
  5
BD7
  8
0
 10
44.67319263041832
 20
61.49832750170652
 30
0.0
  0
VERTEX
  5
BD8
  8
0
 10
44.691124008617031
 20
60.997653628046073
 30
0.0
  0
VERTEX
  5
BD9
  8
0
 10
44.721571979422151
 20
60.5
 30
0.0
  0
VERTEX
  5
BDA
  8
0
 10
44.766545855788962
 20
59.993655385058233
 30
0.0
  0
VERTEX
  5
BDB
  8
0
 10
44.826830975099341
 20
59.492826108132363
 30
0.0
  0
VERTEX
  5
BDC
  8
0
 10
44.903908927706929
 20
59.0
 30
0.0
  0
VERTEX
  5
BDD
  8
0
 10
44.979010294782711
 20
58.611915994227409
 30
0.0
  0
VERTEX
  5
BDE
  8
0
 10
45.06731919896739
 20
58.230713855092958
 30
0.0
  0
VERTEX
  5
BDF
  8
0
 10
45.16998172218225
 20
57.857991047155593
 30
0.0
  0
VERTEX
  5
BE0
  8
0
 10
45.291630753381298
 20
57.485645019737063
 30
0.0
  0
VERTEX
  5
BE1
  8
0
 10
45.431493486666419
 20
57.124404559346821
 30
0.0
  0
VERTEX
  5
BE2
  8
0
 10
45.590891867422783
 20
56.776458403254082
 30
0.0
  0
VERTEX
  5
BE3
  8
0
 10
45.792533077903187
 20
56.407894322017953
 30
0.0
  0
VERTEX
  5
BE4
  8
0
 10
46.022098501220711
 20
56.059814851850277
 30
0.0
  0
VERTEX
  5
BE5
  8
0
 10
46.19605940317436
 20
55.834944352998789
 30
0.0
  0
VERTEX
  5
BE6
  8
0
 10
46.384327365788771
 20
55.621487732598951
 30
0.0
  0
VERTEX
  5
BE7
  8
0
 10
46.586790868584927
 20
55.420620559257237
 30
0.0
  0
VERTEX
  5
BE8
  8
0
 10
46.856237520380972
 20
55.191352204341356
 30
0.0
  0
VERTEX
  5
BE9
  8
0
 10
47.147170368439383
 20
54.983465015995812
 30
0.0
  0
VERTEX
  5
BEA
  8
0
 10
47.467853771885267
 20
54.793402306306938
 30
0.0
  0
VERTEX
  5
BEB
  8
0
 10
47.808834589962373
 20
54.628271714025232
 30
0.0
  0
VERTEX
  5
BEC
  8
0
 10
48.158630774681257
 20
54.492316941001143
 30
0.0
  0
VERTEX
  5
BED
  8
0
 10
48.523417974884488
 20
54.38138772109064
 30
0.0
  0
VERTEX
  5
BEE
  8
0
 10
48.782328018359237
 20
54.319750806025922
 30
0.0
  0
VERTEX
  5
BEF
  8
0
 10
49.046381509665309
 20
54.270239406163512
 30
0.0
  0
VERTEX
  5
BF0
  8
0
 10
49.314024941495973
 20
54.233009339314947
 30
0.0
  0
VERTEX
  5
BF1
  8
0
 10
49.6748239131432
 20
54.202531697799962
 30
0.0
  0
VERTEX
  5
BF2
  8
0
 10
50.037979670473838
 20
54.1938718435214
 30
0.0
  0
VERTEX
  5
BF3
  8
0
 10
50.411950589518959
 20
54.207851517061201
 30
0.0
  0
VERTEX
  5
BF4
  8
0
 10
50.782753341601762
 20
54.244997323365283
 30
0.0
  0
VERTEX
  5
BF5
  8
0
 10
51.12820528031957
 20
54.301500017845846
 30
0.0
  0
VERTEX
  5
BF6
  8
0
 10
51.466000022141259
 20
54.378601123767368
 30
0.0
  0
VERTEX
  5
BF7
  8
0
 10
51.802901125725953
 20
54.479198672348438
 30
0.0
  0
VERTEX
  5
BF8
  8
0
 10
52.127303935211067
 20
54.60108147346336
 30
0.0
  0
VERTEX
  5
BF9
  8
0
 10
52.436024109880641
 20
54.74327448158013
 30
0.0
  0
VERTEX
  5
BFA
  8
0
 10
52.72894622725326
 20
54.90559813131437
 30
0.0
  0
VERTEX
  5
BFB
  8
0
 10
53.011399441904643
 20
55.092156706141139
 30
0.0
  0
VERTEX
  5
BFC
  8
0
 10
53.275100883076902
 20
55.298175563580358
 30
0.0
  0
VERTEX
  5
BFD
  8
0
 10
53.533262867303712
 20
55.536436885692929
 30
0.0
  0
VERTEX
  5
BFE
  8
0
 10
53.769709895143471
 20
55.793918019265952
 30
0.0
  0
VERTEX
  5
BFF
  8
0
 10
53.988960493111051
 20
56.075179634580657
 30
0.0
  0
VERTEX
  5
C00
  8
0
 10
54.186550977653887
 20
56.373307613147219
 30
0.0
  0
VERTEX
  5
C01
  8
0
 10
54.358068075453652
 20
56.676550490428163
 30
0.0
  0
VERTEX
  5
C02
  8
0
 10
54.511385709509199
 20
56.992945990313352
 30
0.0
  0
VERTEX
  5
C03
  8
0
 10
54.647415305043403
 20
57.32061124894112
 30
0.0
  0
VERTEX
  5
C04
  8
0
 10
54.770624439913142
 20
57.668212844148186
 30
0.0
  0
VERTEX
  5
C05
  8
0
 10
54.878358561695357
 20
58.025628209599361
 30
0.0
  0
VERTEX
  5
C06
  8
0
 10
54.971752545944241
 20
58.391206136585787
 30
0.0
  0
VERTEX
  5
C07
  8
0
 10
55.070767759197601
 20
58.860833537447817
 30
0.0
  0
VERTEX
  5
C08
  8
0
 10
55.151350095818401
 20
59.340440881078393
 30
0.0
  0
VERTEX
  5
C09
  8
0
 10
55.215250872764777
 20
59.82746832712855
 30
0.0
  0
VERTEX
  5
C0A
  8
0
 10
55.265424873412087
 20
60.334809601651713
 30
0.0
  0
VERTEX
  5
C0B
  8
0
 10
55.301065818135783
 20
60.847392459373353
 30
0.0
  0
VERTEX
  5
C0C
  8
0
 10
55.323119526307998
 20
61.362905617917797
 30
0.0
  0
VERTEX
  5
C0D
  8
0
 10
55.330295589931147
 20
61.681113144869073
 30
0.0
  0
VERTEX
  5
C0E
  8
0
 10
55.332682251925377
 20
62.0
 30
0.0
  0
SEQEND
  5
C0F
  8
0
  0
LINE
  5
A7F
  8
0
 10
44.0
 20
69.909043903342848
 30
0.0
 11
44.0
 21
50.5
 31
0.0
  0
LINE
  5
A80
  8
0
 10
56.0
 20
50.5
 30
0.0
 11
56.0
 21
69.909043903342848
 31
0.0
  0
LINE
  5
A81
  8
0
 10
56.0
 20
50.5
 30
0.0
 11
44.0
 21
50.5
 31
0.0
  0
LINE
  5
A83
  8
2
 10
53.0
 20
50.0
 30
0.0
 11
53.0
 21
57.0
 31
0.0
  0
LINE
  5
A85
  8
2
 10
47.0
 20
50.0
 30
0.0
 11
47.0
 21
57.0
 31
0.0
  0
LINE
  5
A86
  8
2
 10
52.999999999999972
 20
57.0
 30
0.0
 11
47.0
 21
57.0
 31
0.0
  0
LINE
  5
A95
  8
0
 10
55.332682251929832
 20
124.7499999999991
 30
0.0
 11
44.667317748078183
 21
124.7499999999991
 31
0.0
  0
LINE
  5
A97
  8
0
 10
44.667317748077288
 20
119.2499999999991
 30
0.0
 11
55.332682251928929
 21
119.2499999999991
 31
0.0
  0
LINE
  5
A9B
  8
2
 10
100.0
 20
59.419415636802697
 30
0.0
 11
97.541499999999985
 21
58.0
 31
0.0
  0
LINE
  5
A9C
  8
2
 10
102.4585
 20
58.0
 30
0.0
 11
100.0
 21
59.419415636802697
 31
0.0
  0
LINE
  5
A9D
  8
2
 10
102.4585
 20
58.0
 30
0.0
 11
97.541499999999985
 21
58.0
 31
0.0
  0
LINE
  5
A9E
  8
2
 10
97.541499999999985
 20
58.0
 30
0.0
 11
97.541499999999985
 21
50.541499999999992
 31
0.0
  0
LINE
  5
A9F
  8
2
 10
102.4585
 20
50.541499999999992
 30
0.0
 11
102.4585
 21
58.0
 31
0.0
  0
LINE
  5
AA0
  8
2
 10
102.4585
 20
50.541499999999992
 30
0.0
 11
97.541499999999985
 21
50.541499999999992
 31
0.0
  0
LINE
  5
AA1
  8
2
 10
97.541499999999985
 20
50.541499999999992
 30
0.0
 11
97.0
 21
50.0
 31
0.0
  0
LINE
  5
AA2
  8
2
 10
103.0
 20
50.0
 30
0.0
 11
102.4585
 21
50.541499999999992
 31
0.0
  0
ARC
  5
AA3
  8
0
 10
100.0
 20
-17.99999999996297
 30
0.0
 40
89.999999999962967
 50
88.249023089621573
 51
91.750976910378412
  0
LINE
  5
AA5
  8
0
 10
105.5
 20
50.0
 30
0.0
 11
94.500000000000014
 21
50.0
 31
0.0
  0
LINE
  5
AA6
  8
0
 10
105.5
 20
50.0
 30
0.0
 11
106.0
 21
50.5
 31
0.0
  0
LINE
  5
AA7
  8
0
 10
94.0
 20
50.5
 30
0.0
 11
94.500000000000014
 21
50.0
 31
0.0
  0
LINE
  5
AA8
  8
0
 10
106.0
 20
50.5
 30
0.0
 11
94.0
 21
50.5
 31
0.0
  0
POLYLINE
  5
AA9
  8
0
 66
     1
 10
0.0
 20
0.0
 30
0.0
  0
VERTEX
  5
C10
  8
0
 10
102.75
 20
62.0
 30
0.0
  0
VERTEX
  5
C11
  8
0
 10
102.76148376974579
 20
61.498327501706513
 30
0.0
  0
VERTEX
  5
C12
  8
0
 10
102.7958014597468
 20
60.997653628046073
 30
0.0
  0
VERTEX
  5
C13
  8
0
 10
102.8527526411483
 20
60.5
 30
0.0
  0
VERTEX
  5
C14
  8
0
 10
102.9345768946007
 20
59.993655385058233
 30
0.0
  0
VERTEX
  5
C15
  8
0
 10
103.0395903991087
 20
59.492826108132363
 30
0.0
  0
VERTEX
  5
C16
  8
0
 10
103.1669947557416
 20
59.0
 30
0.0
  0
VERTEX
  5
C17
  8
0
 10
103.28481278733371
 20
58.611915994227409
 30
0.0
  0
VERTEX
  5
C18
  8
0
 10
103.4159911472062
 20
58.230713855092958
 30
0.0
  0
VERTEX
  5
C19
  8
0
 10
103.5596240582324
 20
57.857991047155593
 30
0.0
  0
VERTEX
  5
C1A
  8
0
 10
103.7190788080767
 20
57.485645019737063
 30
0.0
  0
VERTEX
  5
C1B
  8
0
 10
103.8896067370143
 20
57.124404559346821
 30
0.0
  0
VERTEX
  5
C1C
  8
0
 10
104.06936917411549
 20
56.776458403254082
 30
0.0
  0
VERTEX
  5
C1D
  8
0
 10
104.2775259071331
 20
56.407894322017953
 30
0.0
  0
VERTEX
  5
C1E
  8
0
 10
104.49180360946571
 20
56.059814851850277
 30
0.0
  0
VERTEX
  5
C1F
  8
0
 10
104.64002971981689
 20
55.834944352998789
 30
0.0
  0
VERTEX
  5
C20
  8
0
 10
104.7881887240266
 20
55.621487732598951
 30
0.0
  0
VERTEX
  5
C21
  8
0
 10
104.9345722636543
 20
55.420620559257252
 30
0.0
  0
VERTEX
  5
C22
  8
0
 10
105.1104345009483
 20
55.191352204341356
 30
0.0
  0
VERTEX
  5
C23
  8
0
 10
105.2783864100016
 20
54.983465015995812
 30
0.0
  0
VERTEX
  5
C24
  8
0
 10
105.4394725581794
 20
54.793402306306938
 30
0.0
  0
VERTEX
  5
C25
  8
0
 10
105.5855880752034
 20
54.628271714025232
 30
0.0
  0
VERTEX
  5
C26
  8
0
 10
105.7104229670055
 20
54.492316941001143
 30
0.0
  0
VERTEX
  5
C27
  8
0
 10
105.81547122107099
 20
54.38138772109064
 30
0.0
  0
VERTEX
  5
C28
  8
0
 10
105.8751032776492
 20
54.319750806025922
 30
0.0
  0
VERTEX
  5
C29
  8
0
 10
105.9236960847808
 20
54.270239406163512
 30
0.0
  0
VERTEX
  5
C2A
  8
0
 10
105.9606575324465
 20
54.233009339314947
 30
0.0
  0
VERTEX
  5
C2B
  8
0
 10
105.9911520120225
 20
54.202531697799962
 30
0.0
  0
VERTEX
  5
C2C
  8
0
 10
105.9999999999486
 20
54.193752502052959
 30
0.0
  0
SEQEND
  5
C2D
  8
0
  0
LINE
  5
AAA
  8
0
 10
102.75
 20
71.957976300047989
 30
0.0
 11
102.75
 21
62.0
 31
0.0
  0
LINE
  5
AAC
  8
0
 10
97.250000000000014
 20
62.0
 30
0.0
 11
97.250000000000014
 21
71.957976300047989
 31
0.0
  0
LINE
  5
AAD
  8
0
 10
94.0
 20
54.193752502001999
 30
0.0
 11
94.0
 21
50.5
 31
0.0
  0
LINE
  5
AAE
  8
0
 10
106.0
 20
50.5
 30
0.0
 11
106.0
 21
54.193752502002042
 31
0.0
  0
POLYLINE
  5
AAF
  8
0
 66
     1
 10
0.0
 20
0.0
 30
0.0
  0
VERTEX
  5
C2E
  8
0
 10
94.000000000051344
 20
54.193752502052959
 30
0.0
  0
VERTEX
  5
C2F
  8
0
 10
94.000120205818234
 20
54.1938718435214
 30
0.0
  0
VERTEX
  5
C30
  8
0
 10
94.014192320147643
 20
54.207851517061201
 30
0.0
  0
VERTEX
  5
C31
  8
0
 10
94.051277682879174
 20
54.244997323365283
 30
0.0
  0
VERTEX
  5
C32
  8
0
 10
94.107051438141113
 20
54.301500017845846
 30
0.0
  0
VERTEX
  5
C33
  8
0
 10
94.181852190337395
 20
54.378601123767368
 30
0.0
  0
VERTEX
  5
C34
  8
0
 10
94.277305200155908
 20
54.479198672348438
 30
0.0
  0
VERTEX
  5
C35
  8
0
 10
94.389779151652277
 20
54.60108147346336
 30
0.0
  0
VERTEX
  5
C36
  8
0
 10
94.516795009607634
 20
54.74327448158013
 30
0.0
  0
VERTEX
  5
C37
  8
0
 10
94.656513077702897
 20
54.90559813131437
 30
0.0
  0
VERTEX
  5
C38
  8
0
 10
94.810464247154471
 20
55.092156706141139
 30
0.0
  0
VERTEX
  5
C39
  8
0
 10
94.972703091554166
 20
55.298175563580358
 30
0.0
  0
VERTEX
  5
C3A
  8
0
 10
95.150677974122942
 20
55.536436885692929
 30
0.0
  0
VERTEX
  5
C3B
  8
0
 10
95.332100332434578
 20
55.793918019265952
 30
0.0
  0
VERTEX
  5
C3C
  8
0
 10
95.518018731771207
 20
56.075179634580657
 30
0.0
  0
VERTEX
  5
C3D
  8
0
 10
95.70200152262646
 20
56.373307613147219
 30
0.0
  0
VERTEX
  5
C3E
  8
0
 10
95.875999995417914
 20
56.676550490428163
 30
0.0
  0
VERTEX
  5
C3F
  8
0
 10
96.044304138985638
 20
56.992945990313352
 30
0.0
  0
VERTEX
  5
C40
  8
0
 10
96.205065088509656
 20
57.32061124894112
 30
0.0
  0
VERTEX
  5
C41
  8
0
 10
96.361123134976367
 20
57.668212844148186
 30
0.0
  0
VERTEX
  5
C42
  8
0
 10
96.506878586963424
 20
58.025628209599361
 30
0.0
  0
VERTEX
  5
C43
  8
0
 10
96.641179281072255
 20
58.391206136585787
 30
0.0
  0
VERTEX
  5
C44
  8
0
 10
96.79250038975087
 20
58.860833537447817
 30
0.0
  0
VERTEX
  5
C45
  8
0
 10
96.923585450342387
 20
59.340440881078393
 30
0.0
  0
VERTEX
  5
C46
  8
0
 10
97.033325374408889
 20
59.82746832712855
 30
0.0
  0
VERTEX
  5
C47
  8
0
 10
97.123183101060533
 20
60.334809601651713
 30
0.0
  0
VERTEX
  5
C48
  8
0
 10
97.18939972653078
 20
60.847392459373353
 30
0.0
  0
VERTEX
  5
C49
  8
0
 10
97.231534990533845
 20
61.362905617917797
 30
0.0
  0
VERTEX
  5
C4A
  8
0
 10
97.245376809078664
 20
61.681113144869073
 30
0.0
  0
VERTEX
  5
C4B
  8
0
 10
97.250000000000014
 20
62.0
 30
0.0
  0
SEQEND
  5
C4C
  8
0
  0
LINE
  5
AB0
  8
2
 10
97.0
 20
50.0
 30
0.0
 11
97.0
 21
57.0
 31
0.0
  0
LINE
  5
AB1
  8
2
 10
103.0
 20
57.0
 30
0.0
 11
97.0
 21
57.0
 31
0.0
  0
LINE
  5
AB2
  8
2
 10
103.0
 20
50.0
 30
0.0
 11
103.0
 21
57.0
 31
0.0
  0
LINE
  5
B20
  8
1
 10
100.0
 20
74.999999999999986
 30
0.0
 11
100.0
 21
47.0
 31
0.0
  0
LINE
  5
B2A
  8
1
 10
50.0
 20
47.0
 30
0.0
 11
50.0
 21
75.0
 31
0.0
  0
CIRCLE
  5
B2D
  8
0
 10
50.0
 20
122.0
 30
0.0
 40
6.0
  0
LINE
  5
B2E
  8
1
 10
50.0
 20
131.0
 30
0.0
 11
50.0
 21
113.0
 31
0.0
  0
LINE
  5
B2F
  8
1
 10
59.0
 20
122.0
 30
0.0
 11
41.0
 21
122.0
 31
0.0
  0
ENDSEC
  0
EOF
