  0
SECTION
  2
HEADER
  9
$ACADVER
  1
AC1009
  9
$INSBASE
 10
0.0
 20
0.0
 30
0.0
  9
$EXTMIN
 10
0.0
 20
-2.960436562073669
 30
0.0
  9
$EXTMAX
 10
190.649999999991
 20
170.77457003098931
 30
0.0
  9
$LIMMIN
 10
0.0
 20
0.0
  9
$LIMMAX
 10
187.5
 20
135.0
  9
$ORTHOMODE
 70
     1
  9
$REGENMODE
 70
     1
  9
$FILLMODE
 70
     1
  9
$QTEXTMODE
 70
     0
  9
$MIRRTEXT
 70
     0
  9
$DRAGMODE
 70
     2
  9
$LTSCALE
 40
5.0
  9
$OSMODE
 70
    37
  9
$ATTMODE
 70
     1
  9
$TEXTSIZE
 40
4.000000000000048
  9
$TRACEWID
 40
0.05
  9
$TEXTSTYLE
  7
STANDARD
  9
$CLAYER
  8
0
  9
$CELTYPE
  6
BYLAYER
  9
$CECOLOR
 62
   256
  9
$DIMSCALE
 40
1.0
  9
$DIMASZ
 40
3.0
  9
$DIMEXO
 40
2.0
  9
$DIMDLI
 40
0.38
  9
$DIMRND
 40
0.0
  9
$DIMDLE
 40
0.0
  9
$DIMEXE
 40
2.0
  9
$DIMTP
 40
0.0
  9
$DIMTM
 40
0.0
  9
$DIMTXT
 40
3.2000000000000002
  9
$DIMCEN
 40
0.0
  9
$DIMTSZ
 40
0.0
  9
$DIMTOL
 70
     0
  9
$DIMLIM
 70
     0
  9
$DIMTIH
 70
     0
  9
$DIMTOH
 70
     0
  9
$DIMSE1
 70
     0
  9
$DIMSE2
 70
     0
  9
$DIMTAD
 70
     1
  9
$DIMZIN
 70
     8
  9
$DIMBLK
  1

  9
$DIMASO
 70
     1
  9
$DIMSHO
 70
     0
  9
$DIMPOST
  1

  9
$DIMAPOST
  1

  9
$DIMALT
 70
     0
  9
$DIMALTD
 70
     2
  9
$DIMALTF
 40
25.399999999999999
  9
$DIMLFAC
 40
1.0
  9
$DIMTOFL
 70
     1
  9
$DIMTVP
 40
1.6000000000000001
  9
$DIMTIX
 70
     1
  9
$DIMSOXD
 70
     0
  9
$DIMSAH
 70
     0
  9
$DIMBLK1
  1

  9
$DIMBLK2
  1

  9
$DIMSTYLE
  2
STANDARD
  9
$DIMCLRD
 70
     4
  9
$DIMCLRE
 70
     4
  9
$DIMCLRT
 70
     4
  9
$DIMTFAC
 40
1.0
  9
$DIMGAP
 40
0.09
  9
$LUNITS
 70
     2
  9
$LUPREC
 70
     1
  9
$SKETCHINC
 40
0.1
  9
$FILLETRAD
 40
1.5
  9
$AUNITS
 70
     0
  9
$AUPREC
 70
     1
  9
$MENU
  1
E:\r13\win\SUPPORT\ACAD
  9
$ELEVATION
 40
0.0
  9
$PELEVATION
 40
0.0
  9
$THICKNESS
 40
0.0
  9
$LIMCHECK
 70
     0
  9
$BLIPMODE
 70
     0
  9
$CHAMFERA
 40
0.0
  9
$CHAMFERB
 40
0.0
  9
$SKPOLY
 70
     0
  9
$TDCREATE
 40
2449839.7851967588
  9
$TDUPDATE
 40
2459200.3876228011
  9
$TDINDWG
 40
0.3163947569
  9
$TDUSRTIMER
 40
0.3163947569
  9
$USRTIMER
 70
     1
  9
$ANGBASE
 50
0.0
  9
$ANGDIR
 70
     0
  9
$PDMODE
 70
     0
  9
$PDSIZE
 40
0.0
  9
$PLINEWID
 40
0.0
  9
$COORDS
 70
     1
  9
$SPLFRAME
 70
     0
  9
$SPLINETYPE
 70
     6
  9
$SPLINESEGS
 70
     8
  9
$ATTDIA
 70
     0
  9
$ATTREQ
 70
     1
  9
$HANDLING
 70
     1
  9
$HANDSEED
  5
2991
  9
$SURFTAB1
 70
     6
  9
$SURFTAB2
 70
     6
  9
$SURFTYPE
 70
     6
  9
$SURFU
 70
     6
  9
$SURFV
 70
     6
  9
$UCSNAME
  2

  9
$UCSORG
 10
0.0
 20
0.0
 30
0.0
  9
$UCSXDIR
 10
1.0
 20
0.0
 30
0.0
  9
$UCSYDIR
 10
0.0
 20
1.0
 30
0.0
  9
$PUCSNAME
  2

  9
$PUCSORG
 10
0.0
 20
0.0
 30
0.0
  9
$PUCSXDIR
 10
1.0
 20
0.0
 30
0.0
  9
$PUCSYDIR
 10
0.0
 20
1.0
 30
0.0
  9
$USERI1
 70
     0
  9
$USERI2
 70
     1
  9
$USERI3
 70
     1
  9
$USERI4
 70
     0
  9
$USERI5
 70
     0
  9
$USERR1
 40
0.0
  9
$USERR2
 40
0.0
  9
$USERR3
 40
0.0
  9
$USERR4
 40
0.0
  9
$USERR5
 40
0.0
  9
$WORLDVIEW
 70
     1
  9
$SHADEDGE
 70
     3
  9
$SHADEDIF
 70
    70
  9
$TILEMODE
 70
     1
  9
$MAXACTVP
 70
    16
  9
$PLIMCHECK
 70
     0
  9
$PEXTMIN
 10
1.0000000000000000E+020
 20
1.0000000000000000E+020
 30
1.0000000000000000E+020
  9
$PEXTMAX
 10
-1.0000000000000000E+020
 20
-1.0000000000000000E+020
 30
-1.0000000000000000E+020
  9
$PLIMMIN
 10
0.0
 20
0.0
  9
$PLIMMAX
 10
12.0
 20
9.0
  9
$UNITMODE
 70
     0
  9
$VISRETAIN
 70
     0
  9
$PLINEGEN
 70
     0
  9
$PSLTSCALE
 70
     0
  0
ENDSEC
  0
SECTION
  2
TABLES
  0
TABLE
  2
VPORT
 70
     1
  0
VPORT
  2
*ACTIVE
 70
     0
 10
0.0
 20
0.0
 11
1.0
 21
1.0
 12
194.48921550780369
 22
83.911472990483077
 13
0.0
 23
0.0
 14
5.0
 24
5.0
 15
5.0
 25
5.0
 16
0.0
 26
0.0
 36
1.0
 17
0.0
 27
0.0
 37
0.0
 40
175.25628998843919
 41
2.415644171779141
 42
50.0
 43
0.0
 44
0.0
 50
0.0
 51
0.0
 71
     0
 72
   500
 73
     1
 74
     0
 75
     0
 76
     0
 77
     0
 78
     2
  0
ENDTAB
  0
TABLE
  2
LTYPE
 70
     4
  0
LTYPE
  2
CONTINUOUS
 70
     0
  3
Solid Line
 72
    65
 73
     0
 40
0.0
  0
LTYPE
  2
CENTER
 70
     0
  3
____ _ ____ _ ____ _ ____ _ ____ _ ____ _ ____
 72
    65
 73
     4
 40
2.0
 49
1.25
 49
-0.25
 49
0.25
 49
-0.25
  0
LTYPE
  2
HIDDEN
 70
     0
  3
_ _ _ _ _ _ _ _ _ _ _ _ _ _ _ _ _ _ _ _ _ _ _
 72
    65
 73
     2
 40
0.375
 49
0.25
 49
-0.125
  0
LTYPE
  2
PHANTOM2
 70
     0
  3
___ _ _ ___ _ _ ___ _ _ ___ _ _
 72
    65
 73
     6
 40
1.25
 49
0.625
 49
-0.125
 49
0.125
 49
-0.125
 49
0.125
 49
-0.125
  0
ENDTAB
  0
TABLE
  2
LAYER
 70
     4
  0
LAYER
  2
0
 70
     0
 62
     7
  6
CONTINUOUS
  0
LAYER
  2
1
 70
     0
 62
     1
  6
CENTER
  0
LAYER
  2
2
 70
     0
 62
     2
  6
HIDDEN
  0
LAYER
  2
DEFPOINTS
 70
     0
 62
     7
  6
CONTINUOUS
  0
ENDTAB
  0
TABLE
  2
STYLE
 70
     2
  0
STYLE
  2
STANDARD
 70
     0
 40
0.0
 41
1.0
 50
0.0
 71
     0
 42
4.000000000000048
  3
TXT
  4
BIGFONT
  0
STYLE
  2
STANDARD1
 70
     0
 40
0.0
 41
1.0
 50
0.0
 71
     0
 42
3.0
  3
txt
  4

  0
ENDTAB
  0
TABLE
  2
VIEW
 70
     2
  0
VIEW
  2
ALL
 70
     0
 40
135.0
 10
110.4957983193277
 20
67.5
 41
0.0
 11
0.0
 21
0.0
 31
1.0
 12
0.0
 22
0.0
 32
0.0
 42
0.0
 43
0.0
 44
0.0
 50
0.0
 71
     0
  0
VIEW
  2
OLE1
 70
     0
 40
84.950270764306353
 10
196.3357560483683
 20
60.981983724279409
 41
121.7784228297571
 11
0.0
 21
0.0
 31
1.0
 12
0.0
 22
0.0
 32
0.0
 42
50.0
 43
0.0
 44
0.0
 50
0.0
 71
     0
  0
ENDTAB
  0
TABLE
  2
UCS
 70
     0
  0
ENDTAB
  0
TABLE
  2
APPID
 70
     6
  0
APPID
  2
ACAD
 70
     0
  0
APPID
  2
ACAD_DSTYLE_DIMJAG
 70
     0
  0
APPID
  2
ACAD_DSTYLE_DIMTALN
 70
     0
  0
APPID
  2
ACAD_EXEMPT_FROM_CAD_STANDARDS
 70
     0
  0
APPID
  2
ACAD_MLEADERVER
 70
     0
  0
APPID
  2
ACAD_NAV_VCDISPLAY
 70
     0
  0
ENDTAB
  0
TABLE
  2
DIMSTYLE
 70
     2
  0
DIMSTYLE
  2
STANDARD
 70
     0
  3

  4

  5

  6

  7

 40
1.0
 41
0.18
 42
0.0625
 43
0.38
 44
0.18
 45
0.0
 46
0.0
 47
0.0
 48
0.0
140
0.18
141
0.09
142
0.0
143
25.399999999999999
144
1.0
145
0.0
146
1.0
147
0.09
 71
     0
 72
     0
 73
     1
 74
     1
 75
     0
 76
     0
 77
     0
 78
     0
170
     0
171
     2
172
     0
173
     0
174
     0
175
     0
176
     0
177
     0
178
     0
  0
DIMSTYLE
  2
ISO-25
 70
     0
  3

  4

  5

  6

  7

 40
1.0
 41
2.5
 42
0.625
 43
3.75
 44
1.25
 45
0.0
 46
0.0
 47
0.0
 48
0.0
140
2.5
141
2.5
142
0.0
143
0.03937007874016
144
1.0
145
0.0
146
1.0
147
0.625
 71
     0
 72
     0
 73
     0
 74
     0
 75
     0
 76
     0
 77
     1
 78
     8
170
     0
171
     3
172
     1
173
     0
174
     0
175
     0
176
     0
177
     0
178
     0
  0
ENDTAB
  0
ENDSEC
  0
SECTION
  2
BLOCKS
  0
BLOCK
  8
0
  2
$MODEL_SPACE
 70
     0
 10
0.0
 20
0.0
 30
0.0
  3
$MODEL_SPACE
  1

  0
ENDBLK
  5
120
  8
0
  0
BLOCK
 67
     1
  8
0
  2
$PAPER_SPACE
 70
     0
 10
0.0
 20
0.0
 30
0.0
  3
$PAPER_SPACE
  1

  0
ENDBLK
  5
11E
 67
     1
  8
0
  0
ENDSEC
  0
SECTION
  2
ENTITIES
  0
TEXT
  5
1C6E
  8
0
 62
     3
 10
0.0
 20
0.0
 30
0.0
 40
10.0
  1
HD-TH75-M8
  7
STANDARD1
  0
ARC
  5
2606
  8
0
 10
113.34999999999989
 20
86.299999999999983
 30
0.0
 40
0.9999999999999509
 50
165.99999999999881
 51
216.86989764584339
  0
LINE
  5
2608
  8
2
 10
146.6765
 20
64.0
 30
0.0
 11
146.6765
 21
50.676499999999997
 31
0.0
  0
LINE
  5
2609
  8
2
 10
153.3235
 20
50.676499999999997
 30
0.0
 11
153.3235
 21
64.0
 31
0.0
  0
LINE
  5
260A
  8
2
 10
153.3235
 20
64.0
 30
0.0
 11
146.6765
 21
64.0
 31
0.0
  0
LINE
  5
260B
  8
2
 10
150.0
 20
65.996960267338096
 30
0.0
 11
146.6765
 21
64.0
 31
0.0
  0
LINE
  5
260C
  8
2
 10
153.3235
 20
64.0
 30
0.0
 11
150.0
 21
65.996960267338096
 31
0.0
  0
LINE
  5
260D
  8
2
 10
153.3235
 20
50.676499999999997
 30
0.0
 11
146.6765
 21
50.676499999999997
 31
0.0
  0
LINE
  5
260E
  8
2
 10
146.6765
 20
50.676499999999997
 30
0.0
 11
146.0
 21
50.0
 31
0.0
  0
LINE
  5
260F
  8
2
 10
154.0
 20
50.0
 30
0.0
 11
153.3235
 21
50.676499999999997
 31
0.0
  0
ARC
  5
2612
  8
0
 10
117.6103582275733
 20
72.250404072251911
 30
0.0
 40
18.980626461013621
 50
93.276696095615236
 51
101.1929646387878
  0
LINE
  5
2618
  8
0
 10
118.6565689637022
 20
91.200000000000045
 30
0.0
 11
116.5254642108133
 21
91.200000000000045
 31
0.0
  0
ARC
  5
2620
  8
0
 10
114.0879774188089
 20
90.086578859626457
 30
0.0
 40
0.8000000000000339
 50
101.6848419113163
 51
166.0000000000004
  0
LINE
  5
262D
  8
0
 10
113.31174083778799
 20
90.280116376106207
 30
0.0
 11
112.379704273724
 21
86.541921895599671
 31
0.0
  0
LINE
  5
2632
  8
0
 10
158.20257543353119
 20
50.0
 30
0.0
 11
141.79742456712549
 21
50.0
 31
0.0
  0
ARC
  5
2633
  8
0
 10
141.79742456646869
 20
50.700000000000003
 30
0.0
 40
0.6999999999999977
 50
184.9999999999998
 51
270.0
  0
ARC
  5
2634
  8
0
 10
158.20257543353119
 20
50.700000000000003
 30
0.0
 40
0.699999999999998
 50
270.0
 51
355.00000000000023
  0
ARC
  5
263A
  8
0
 10
122.5118603047401
 20
94.052325380925197
 30
0.0
 40
13.000000000000201
 50
219.97748748217219
 51
242.70289600964821
  0
ARC
  5
263B
  8
0
 10
164.25429516406271
 20
128.66844069112639
 30
0.0
 40
49.999999999984823
 50
287.75299583575901
 51
292.5763425915913
  0
ARC
  5
263E
  8
0
 10
135.74570483593789
 20
128.66844069112801
 30
0.0
 40
49.999999999986599
 50
247.42365740840859
 51
252.24700416423951
  0
ARC
  5
263F
  8
0
 10
167.66888427967021
 20
69.518598775301555
 30
0.0
 40
7.4000000000000137
 50
112.4221811182432
 51
175.92741190529301
  0
LINE
  5
2640
  8
0
 10
164.84631507745959
 20
76.35914722544301
 30
0.0
 11
179.5000000000004
 21
81.049447799067593
 31
0.0
  0
LINE
  5
264F
  8
0
 10
158.89991172219541
 20
50.638990980076642
 30
0.0
 11
160.2875702035212
 21
66.5
 31
0.0
  0
LINE
  5
2650
  8
0
 10
139.7124297964788
 20
66.5
 30
0.0
 11
141.1000882778045
 21
50.638990980076642
 31
0.0
  0
LINE
  5
2653
  8
0
 10
160.2875702035212
 20
66.5
 30
0.0
 11
160.2875702035212
 21
70.044148496302924
 31
0.0
  0
LINE
  5
265E
  8
2
 10
154.0
 20
50.0
 30
0.0
 11
154.0
 21
62.0
 31
0.0
  0
LINE
  5
265F
  8
2
 10
146.0
 20
62.0
 30
0.0
 11
154.0
 21
62.0
 31
0.0
  0
LINE
  5
2660
  8
2
 10
146.0
 20
50.0
 30
0.0
 11
146.0
 21
62.0
 31
0.0
  0
LINE
  5
2662
  8
1
 10
150.0
 20
94.199429623947026
 30
0.0
 11
150.0
 21
47.0
 31
0.0
  0
LINE
  5
2663
  8
2
 10
46.676499999999997
 20
64.0
 30
0.0
 11
46.676499999999997
 21
50.676499999999997
 31
0.0
  0
LINE
  5
2664
  8
2
 10
53.323499999999989
 20
50.676499999999997
 30
0.0
 11
53.323499999999989
 21
64.0
 31
0.0
  0
LINE
  5
2665
  8
2
 10
53.323499999999989
 20
64.0
 30
0.0
 11
46.676499999999997
 21
64.0
 31
0.0
  0
LINE
  5
2666
  8
2
 10
50.0
 20
65.996960267338096
 30
0.0
 11
46.676499999999997
 21
64.0
 31
0.0
  0
LINE
  5
2667
  8
2
 10
53.323499999999989
 20
64.0
 30
0.0
 11
50.0
 21
65.996960267338096
 31
0.0
  0
LINE
  5
2668
  8
2
 10
53.323499999999989
 20
50.676499999999997
 30
0.0
 11
46.676499999999997
 21
50.676499999999997
 31
0.0
  0
LINE
  5
2669
  8
2
 10
46.676499999999997
 20
50.676499999999997
 30
0.0
 11
46.0
 21
50.0
 31
0.0
  0
LINE
  5
266A
  8
2
 10
54.0
 20
50.0
 30
0.0
 11
53.323499999999989
 21
50.676499999999997
 31
0.0
  0
LINE
  5
266B
  8
0
 10
58.202575433531223
 20
50.0
 30
0.0
 11
41.79742456646877
 21
50.0
 31
0.0
  0
ARC
  5
266C
  8
0
 10
41.79742456646877
 20
50.699999999999989
 30
0.0
 40
0.6999999999999977
 50
184.9999999999998
 51
270.0
  0
ARC
  5
266D
  8
0
 10
58.202575433531223
 20
50.699999999999989
 30
0.0
 40
0.699999999999998
 50
270.0
 51
355.00000000000023
  0
LINE
  5
266E
  8
0
 10
58.899911722195441
 20
50.638990980076642
 30
0.0
 11
60.28757020352117
 21
66.5
 31
0.0
  0
LINE
  5
266F
  8
0
 10
39.71242979647883
 20
66.5
 30
0.0
 11
41.100088277804559
 21
50.638990980076642
 31
0.0
  0
LINE
  5
2671
  8
0
 10
39.71242979647883
 20
68.900000000000006
 30
0.0
 11
39.71242979647883
 21
66.5
 31
0.0
  0
LINE
  5
2672
  8
0
 10
60.28757020352117
 20
66.5
 30
0.0
 11
60.28757020352117
 21
68.900000000000006
 31
0.0
  0
LINE
  5
267A
  8
0
 10
40.172479093056523
 20
87.527765588253203
 30
0.0
 11
39.71242979647883
 21
68.899999999999949
 31
0.0
  0
LINE
  5
2681
  8
0
 10
60.28757020352117
 20
68.900000000000006
 30
0.0
 11
59.827520906943278
 21
87.527765588254155
 31
0.0
  0
LINE
  5
269C
  8
2
 10
46.0
 20
50.0
 30
0.0
 11
46.0
 21
62.0
 31
0.0
  0
LINE
  5
269E
  8
2
 10
54.0
 20
50.0
 30
0.0
 11
54.0
 21
62.0
 31
0.0
  0
LINE
  5
269F
  8
2
 10
46.0
 20
62.0
 30
0.0
 11
54.0
 21
62.0
 31
0.0
  0
LINE
  5
26A0
  8
1
 10
50.0
 20
94.199429623947026
 30
0.0
 11
50.0
 21
47.0
 31
0.0
  0
ARC
  5
26A1
  8
0
 10
150.0
 20
157.4869998274857
 30
0.0
 40
10.287570203503609
 50
72.654077039688659
 51
107.3459229603114
  0
ARC
  5
26A2
  8
0
 10
150.00000000001231
 20
157.48699982749031
 30
0.0
 40
10.287570203543281
 50
252.65407703905501
 51
287.34592296094547
  0
LINE
  5
26DA
  8
1
 10
109.350000000009
 20
157.4869998274857
 30
0.0
 11
190.649999999991
 21
157.4869998274857
 31
0.0
  0
LINE
  5
26DB
  8
1
 10
150.0
 20
144.199429623947
 30
0.0
 11
150.0
 21
170.77457003098931
 31
0.0
  0
ARC
  5
2780
  8
0
 10
150.0000000000006
 20
-435.19788968002399
 30
0.0
 40
602.51240988277095
 50
86.759796807175761
 51
93.240203192824325
  0
ARC
  5
2781
  8
0
 10
150.00000000000969
 20
750.17188933531622
 30
0.0
 40
602.51240988309166
 50
266.7597968071766
 51
273.24020319282329
  0
ARC
  5
27DC
  8
0
 10
50.0
 20
99.351801717352515
 30
0.0
 40
16.851801717352512
 50
234.13626999165101
 51
305.86373000834851
  0
ARC
  5
27DF
  8
0
 10
49.99999999999995
 20
57.942517852316328
 30
0.0
 40
33.256911771630691
 50
81.928817920730935
 51
98.071182079263863
  0
ARC
  5
27E1
  8
0
 10
142.75000000000841
 20
157.48699982746811
 30
0.0
 40
30.399999999999441
 50
168.0755933854152
 51
191.92440661458451
  0
ARC
  5
27E3
  8
0
 10
116.25092520037509
 20
163.03973139044859
 30
0.0
 40
3.3257060356072521
 50
95.282343752703753
 51
167.34586621275071
  0
ARC
  5
27E4
  8
0
 10
116.25092520037509
 20
151.9342682645229
 30
0.0
 40
3.325706035607316
 50
192.65413378724969
 51
264.71765624729642
  0
ARC
  5
27E5
  8
0
 10
157.24999999999159
 20
157.48699982746811
 30
0.0
 40
30.399999999999441
 50
348.07559338541569
 51
11.924406614584401
  0
ARC
  5
27E6
  8
0
 10
183.74907479962889
 20
163.0397313904509
 30
0.0
 40
3.3257060356028139
 50
12.65413378722493
 51
84.717656247680594
  0
ARC
  5
27E7
  8
0
 10
183.74907479962479
 20
151.93426826452301
 30
0.0
 40
3.3257060356073702
 50
275.28234375270449
 51
347.34586621274991
  0
LINE
  5
27E8
  8
0
 10
118.6565689637022
 20
91.200000000000045
 30
0.0
 11
125.05923840874679
 21
90.268781088593784
 31
0.0
  0
LINE
  5
27E9
  8
0
 10
135.70184019616411
 20
88.659161828571044
 30
0.0
 11
125.05923840874679
 21
90.268781088593784
 31
0.0
  0
LINE
  5
27EA
  8
0
 10
135.70184019616411
 20
88.659161828571044
 30
0.0
 11
146.5603866126016
 21
87.52776558825434
 31
0.0
  0
ARC
  5
27EB
  8
0
 10
186.65000000000001
 20
86.299999999999983
 30
0.0
 40
0.9999999999999509
 50
323.1301023541568
 51
14.00000000000118
  0
ARC
  5
27EC
  8
0
 10
182.38964177242659
 20
72.250404072251911
 30
0.0
 40
18.980626461013621
 50
78.807035361210794
 51
86.72330390438583
  0
LINE
  5
27ED
  8
0
 10
181.3434310362978
 20
91.200000000000045
 30
0.0
 11
183.4745357891866
 21
91.200000000000045
 31
0.0
  0
ARC
  5
27EE
  8
0
 10
185.91202258119111
 20
90.086578859626457
 30
0.0
 40
0.8000000000000339
 50
13.9999999999997
 51
78.315158088683745
  0
LINE
  5
27EF
  8
0
 10
186.68825916221189
 20
90.280116376106207
 30
0.0
 11
187.620295726276
 21
86.541921895599671
 31
0.0
  0
ARC
  5
27F0
  8
0
 10
177.4881396952598
 20
94.052325380925197
 30
0.0
 40
13.000000000000201
 50
297.29710399035179
 51
320.0225125178286
  0
LINE
  5
27F2
  8
0
 10
181.3434310362978
 20
91.200000000000045
 30
0.0
 11
174.94076159125311
 21
90.268781088593784
 31
0.0
  0
LINE
  5
27F3
  8
0
 10
164.29815980383589
 20
88.659161828571044
 30
0.0
 11
174.94076159125311
 21
90.268781088593784
 31
0.0
  0
LINE
  5
27F4
  8
0
 10
164.29815980383589
 20
88.659161828571044
 30
0.0
 11
153.4396133873984
 21
87.52776558825434
 31
0.0
  0
LINE
  5
27F6
  8
0
 10
43.337487727160941
 20
90.524620370025389
 30
0.0
 11
45.330621026301912
 21
90.869999999999806
 31
0.0
  0
ARC
  5
27F7
  8
0
 10
55.115688538428813
 20
85.721277985571348
 30
0.0
 40
5.0462621540727959
 50
20.97651701315062
 51
72.149847469504934
  0
LINE
  5
27F8
  8
0
 10
56.662512272839052
 20
90.524620370025389
 30
0.0
 11
54.669378973698088
 21
90.869999999999806
 31
0.0
  0
ARC
  5
2800
  8
0
 10
44.884311461571187
 20
85.721277985571348
 30
0.0
 40
5.0462621540727959
 50
107.85015253049539
 51
159.0234829868495
  0
ARC
  5
2854
  8
0
 10
150.0
 20
145.9123071811913
 30
0.0
 40
58.485772947548178
 50
266.62842597235408
 51
273.37157402764592
  0
ARC
  5
28B1
  8
0
 10
132.33111572032979
 20
69.518598775301555
 30
0.0
 40
7.4000000000000137
 50
4.0725880947070658
 51
67.577818881755263
  0
LINE
  5
28B2
  8
0
 10
135.15368492254029
 20
76.359147225443053
 30
0.0
 11
120.4999999999996
 21
81.049447799067593
 31
0.0
  0
LINE
  5
28B3
  8
0
 10
139.7124297964788
 20
66.5
 30
0.0
 11
139.7124297964788
 21
70.044148496303265
 31
0.0
  0
ENDSEC
  0
EOF
