  0
SECTION
  2
HEADER
  9
$ACADVER
  1
AC1009
  9
$INSBASE
 10
0.0
 20
0.0
 30
0.0
  9
$EXTMIN
 10
0.0
 20
-1.4802182810368341
 30
0.0
  9
$EXTMAX
 10
69.9352566439073939
 20
70.9646301520694891
 30
0.0
  9
$LIMMIN
 10
0.0
 20
0.0
  9
$LIMMAX
 10
375.0
 20
270.0
  9
$ORTHOMODE
 70
     1
  9
$REGENMODE
 70
     1
  9
$FILLMODE
 70
     1
  9
$QTEXTMODE
 70
     0
  9
$MIRRTEXT
 70
     0
  9
$DRAGMODE
 70
     2
  9
$LTSCALE
 40
3.0
  9
$OSMODE
 70
    37
  9
$ATTMODE
 70
     1
  9
$TEXTSIZE
 40
0.2
  9
$TRACEWID
 40
0.05
  9
$TEXTSTYLE
  7
STANDARD
  9
$CLAYER
  8
0
  9
$CELTYPE
  6
BYLAYER
  9
$CECOLOR
 62
   256
  9
$DIMSCALE
 40
1.0
  9
$DIMASZ
 40
3.0
  9
$DIMEXO
 40
2.0
  9
$DIMDLI
 40
0.38
  9
$DIMRND
 40
0.0
  9
$DIMDLE
 40
0.0
  9
$DIMEXE
 40
2.0
  9
$DIMTP
 40
0.0
  9
$DIMTM
 40
0.0
  9
$DIMTXT
 40
3.2000000000000002
  9
$DIMCEN
 40
0.09
  9
$DIMTSZ
 40
0.0
  9
$DIMTOL
 70
     0
  9
$DIMLIM
 70
     0
  9
$DIMTIH
 70
     0
  9
$DIMTOH
 70
     0
  9
$DIMSE1
 70
     0
  9
$DIMSE2
 70
     0
  9
$DIMTAD
 70
     1
  9
$DIMZIN
 70
     8
  9
$DIMBLK
  1

  9
$DIMASO
 70
     1
  9
$DIMSHO
 70
     0
  9
$DIMPOST
  1

  9
$DIMAPOST
  1

  9
$DIMALT
 70
     0
  9
$DIMALTD
 70
     2
  9
$DIMALTF
 40
25.3999999999999986
  9
$DIMLFAC
 40
1.0
  9
$DIMTOFL
 70
     1
  9
$DIMTVP
 40
1.6000000000000001
  9
$DIMTIX
 70
     1
  9
$DIMSOXD
 70
     0
  9
$DIMSAH
 70
     0
  9
$DIMBLK1
  1

  9
$DIMBLK2
  1

  9
$DIMSTYLE
  2
STANDARD
  9
$DIMCLRD
 70
   256
  9
$DIMCLRE
 70
   256
  9
$DIMCLRT
 70
   256
  9
$DIMTFAC
 40
1.0
  9
$DIMGAP
 40
1.0
  9
$LUNITS
 70
     2
  9
$LUPREC
 70
     1
  9
$SKETCHINC
 40
0.1
  9
$FILLETRAD
 40
0.0
  9
$AUNITS
 70
     0
  9
$AUPREC
 70
     0
  9
$MENU
  1
E:\r13\win\SUPPORT\ACAD
  9
$ELEVATION
 40
0.0
  9
$PELEVATION
 40
0.0
  9
$THICKNESS
 40
0.0
  9
$LIMCHECK
 70
     0
  9
$BLIPMODE
 70
     0
  9
$CHAMFERA
 40
0.0
  9
$CHAMFERB
 40
0.0
  9
$SKPOLY
 70
     0
  9
$TDCREATE
 40
2449839.7822916670702398
  9
$TDUPDATE
 40
2460864.3918055561371148
  9
$TDINDWG
 40
0.3189159838
  9
$TDUSRTIMER
 40
0.3189159838
  9
$USRTIMER
 70
     1
  9
$ANGBASE
 50
0.0
  9
$ANGDIR
 70
     0
  9
$PDMODE
 70
     0
  9
$PDSIZE
 40
0.0
  9
$PLINEWID
 40
0.0
  9
$COORDS
 70
     1
  9
$SPLFRAME
 70
     0
  9
$SPLINETYPE
 70
     6
  9
$SPLINESEGS
 70
     8
  9
$ATTDIA
 70
     1
  9
$ATTREQ
 70
     1
  9
$HANDLING
 70
     1
  9
$HANDSEED
  5
270C
  9
$SURFTAB1
 70
     6
  9
$SURFTAB2
 70
     6
  9
$SURFTYPE
 70
     6
  9
$SURFU
 70
     6
  9
$SURFV
 70
     6
  9
$UCSNAME
  2

  9
$UCSORG
 10
0.0
 20
0.0
 30
0.0
  9
$UCSXDIR
 10
1.0
 20
0.0
 30
0.0
  9
$UCSYDIR
 10
0.0
 20
1.0
 30
0.0
  9
$PUCSNAME
  2

  9
$PUCSORG
 10
0.0
 20
0.0
 30
0.0
  9
$PUCSXDIR
 10
1.0
 20
0.0
 30
0.0
  9
$PUCSYDIR
 10
0.0
 20
1.0
 30
0.0
  9
$USERI1
 70
     0
  9
$USERI2
 70
     1
  9
$USERI3
 70
     1
  9
$USERI4
 70
     0
  9
$USERI5
 70
     0
  9
$USERR1
 40
0.0
  9
$USERR2
 40
0.0
  9
$USERR3
 40
0.0
  9
$USERR4
 40
0.0
  9
$USERR5
 40
0.0
  9
$WORLDVIEW
 70
     1
  9
$SHADEDGE
 70
     3
  9
$SHADEDIF
 70
    70
  9
$TILEMODE
 70
     1
  9
$MAXACTVP
 70
    16
  9
$PLIMCHECK
 70
     0
  9
$PEXTMIN
 10
1.0000000000000000E+20
 20
1.0000000000000000E+20
 30
1.0000000000000000E+20
  9
$PEXTMAX
 10
-1.0000000000000000E+20
 20
-1.0000000000000000E+20
 30
-1.0000000000000000E+20
  9
$PLIMMIN
 10
0.0
 20
0.0
  9
$PLIMMAX
 10
12.0
 20
9.0
  9
$UNITMODE
 70
     0
  9
$VISRETAIN
 70
     0
  9
$PLINEGEN
 70
     0
  9
$PSLTSCALE
 70
     0
  0
ENDSEC
  0
SECTION
  2
TABLES
  0
TABLE
  2
VPORT
 70
     1
  0
VPORT
  2
*ACTIVE
 70
     0
 10
0.0
 20
0.0
 11
1.0
 21
1.0
 12
134.9884526558890911
 22
57.4780406694189807
 13
0.0
 23
0.0
 14
10.0
 24
10.0
 15
10.0
 25
10.0
 16
0.0
 26
0.0
 36
1.0
 17
0.0
 27
0.0
 37
0.0
 40
114.9560813388379046
 41
2.3485221674876842
 42
50.0
 43
0.0
 44
0.0
 50
0.0
 51
0.0
 71
     0
 72
   500
 73
     1
 74
     0
 75
     0
 76
     0
 77
     0
 78
     2
  0
ENDTAB
  0
TABLE
  2
LTYPE
 70
     4
  0
LTYPE
  2
CONTINUOUS
 70
     0
  3
Solid Line
 72
    65
 73
     0
 40
0.0
  0
LTYPE
  2
CENTER
 70
     0
  3
____ _ ____ _ ____ _ ____ _ ____ _ ____ _ ____
 72
    65
 73
     4
 40
2.0
 49
1.25
 49
-0.25
 49
0.25
 49
-0.25
  0
LTYPE
  2
HIDDEN
 70
     0
  3
_ _ _ _ _ _ _ _ _ _ _ _ _ _ _ _ _ _ _ _ _ _ _
 72
    65
 73
     2
 40
0.375
 49
0.25
 49
-0.125
  0
LTYPE
  2
PHANTOM2
 70
     0
  3
___ _ _ ___ _ _ ___ _ _ ___ _ _
 72
    65
 73
     6
 40
1.25
 49
0.625
 49
-0.125
 49
0.125
 49
-0.125
 49
0.125
 49
-0.125
  0
ENDTAB
  0
TABLE
  2
LAYER
 70
     4
  0
LAYER
  2
0
 70
     0
 62
     7
  6
CONTINUOUS
  0
LAYER
  2
1
 70
     0
 62
     1
  6
CENTER
  0
LAYER
  2
2
 70
     0
 62
     2
  6
HIDDEN
  0
LAYER
  2
DEFPOINTS
 70
     0
 62
     7
  6
CONTINUOUS
  0
ENDTAB
  0
TABLE
  2
STYLE
 70
     2
  0
STYLE
  2
STANDARD
 70
     0
 40
0.0
 41
1.0
 50
0.0
 71
     0
 42
0.2
  3
TXT
  4
BIGFONT
  0
STYLE
  2
STANDARD1
 70
     0
 40
0.0
 41
1.0
 50
0.0
 71
     0
 42
3.0
  3
txt
  4

  0
ENDTAB
  0
TABLE
  2
VIEW
 70
     1
  0
VIEW
  2
ALL
 70
     0
 40
270.0
 10
220.9915966386554942
 20
135.0
 41
0.0
 11
0.0
 21
0.0
 31
1.0
 12
0.0
 22
0.0
 32
0.0
 42
0.0
 43
0.0
 44
0.0
 50
0.0
 71
     0
  0
ENDTAB
  0
TABLE
  2
UCS
 70
     0
  0
ENDTAB
  0
TABLE
  2
APPID
 70
    10
  0
APPID
  2
ACAD
 70
     0
  0
APPID
  2
ACAD_MLEADERVER
 70
     0
  0
APPID
  2
ACAD_NAV_VCDISPLAY
 70
     0
  0
APPID
  2
ACAD_EXEMPT_FROM_CAD_STANDARDS
 70
     0
  0
APPID
  2
ACAD_DSTYLE_DIMJAG
 70
     0
  0
APPID
  2
ACAD_DSTYLE_DIMTALN
 70
     0
  0
APPID
  2
ACAECLAYERSTANDARD
 70
     0
  0
APPID
  2
ACCMTRANSPARENCY
 70
     0
  0
APPID
  2
DCO15
 70
     0
  0
APPID
  2
ACAD_TC
 70
     0
  0
ENDTAB
  0
TABLE
  2
DIMSTYLE
 70
     1
  0
DIMSTYLE
  2
STANDARD
 70
     0
  3

  4

  5

  6

  7

 40
1.0
 41
0.18
 42
0.0625
 43
0.38
 44
0.18
 45
0.0
 46
0.0
 47
0.0
 48
0.0
140
0.18
141
0.09
142
0.0
143
25.3999999999999986
144
1.0
145
0.0
146
1.0
147
0.09
 71
     0
 72
     0
 73
     1
 74
     1
 75
     0
 76
     0
 77
     0
 78
     0
170
     0
171
     2
172
     0
173
     0
174
     0
175
     0
176
     0
177
     0
178
     0
  0
ENDTAB
  0
ENDSEC
  0
SECTION
  2
BLOCKS
  0
BLOCK
  8
0
  2
$MODEL_SPACE
 70
     0
 10
0.0
 20
0.0
 30
0.0
  3
$MODEL_SPACE
  1

  0
ENDBLK
  5
10E
  8
0
  0
BLOCK
 67
     1
  8
0
  2
$PAPER_SPACE
 70
     0
 10
0.0
 20
0.0
 30
0.0
  3
$PAPER_SPACE
  1

  0
ENDBLK
  5
10C
 67
     1
  8
0
  0
ENDSEC
  0
SECTION
  2
ENTITIES
  0
TEXT
  5
4DC
  8
0
 62
     3
 10
0.0
 20
0.0
 30
0.0
 40
5.0
  1
HD-SN-M6
  7
STANDARD1
  0
ARC
  5
2186
  8
0
 10
67.3861902774023349
 20
70.4155559318642901
 30
0.0
 40
0.5490742202052052
 50
359.6935498917287077
 51
145.0340238792128957
  0
ARC
  5
2187
  8
0
 10
67.3868398258916841
 20
57.5076392884475425
 30
0.0
 40
0.5484394275377854
 50
214.7521661778274051
 51
0.5202600512315793
  0
ARC
  5
2188
  8
0
 10
64.4975558825912003
 20
72.453127347743191
 30
0.0
 40
2.9858859902253521
 50
311.4180644848383963
 51
324.7590978999922982
  0
ARC
  5
2189
  8
0
 10
64.5846718592429738
 20
55.5503001567741279
 30
0.0
 40
2.8696513315418581
 50
34.9695139607313266
 51
48.8488341577265501
  0
ARC
  5
218A
  8
0
 10
84.9363308241071024
 20
63.9626191875978733
 30
0.0
 40
30.0010591564965701
 50
170.4062736832460132
 51
189.5937263167539868
  0
LINE
  5
218B
  8
0
 10
67.9352566439073939
 20
70.4126191875978833
 30
0.0
 11
67.9352566439073939
 21
57.5126191875978492
 31
0.0
  0
LINE
  5
218C
  8
0
 10
64.486981294707391
 20
68.9968233685978731
 30
0.0
 11
64.486981294707391
 21
68.3980776573978773
 31
0.0
  0
LINE
  5
218F
  8
0
 10
64.486981294707391
 20
59.5271607177978623
 30
0.0
 11
64.486981294707391
 21
58.9284150065978594
 31
0.0
  0
LINE
  5
2191
  8
0
 10
64.486981294707391
 20
64.5613648987978621
 30
0.0
 11
64.486981294707391
 21
63.3638734763978704
 31
0.0
  0
LINE
  5
2194
  8
0
 10
64.0352566439073883
 20
68.4469326708978514
 30
0.0
 11
64.0352566439073883
 21
64.4783057042978811
 31
0.0
  0
LINE
  5
2197
  8
0
 10
64.0352566439073883
 20
63.4469326708978514
 30
0.0
 11
64.0352566439073883
 21
59.4783057042978811
 31
0.0
  0
LINE
  5
2199
  8
0
 10
64.0352566439073883
 20
63.4469326708978514
 30
0.0
 11
55.4437324378073697
 21
63.4469326708978514
 31
0.0
  0
LINE
  5
219A
  8
0
 10
55.4437324378073697
 20
64.4783057042978811
 30
0.0
 11
55.4437324378073697
 21
63.4469326708978514
 31
0.0
  0
LINE
  5
219B
  8
0
 10
55.4437324378073697
 20
64.4783057042978811
 30
0.0
 11
64.0352566439073883
 21
64.4783057042978811
 31
0.0
  0
ARC
  5
219C
  8
0
 10
77.5545347178195357
 20
61.4626191875978733
 30
0.0
 40
22.1996639043431792
 50
174.871781415254901
 51
185.1282185847450137
  0
LINE
  5
219D
  8
0
 10
55.4437324378073697
 20
59.4783057042978811
 30
0.0
 11
55.4437324378073697
 21
58.9626191875978733
 31
0.0
  0
LINE
  5
219E
  8
0
 10
55.3548577284073815
 20
58.9626191875978733
 30
0.0
 11
55.4437324378073697
 21
58.9626191875978733
 31
0.0
  0
LINE
  5
219F
  8
0
 10
55.4437324378073697
 20
68.9626191875978662
 30
0.0
 11
55.3548577284073815
 21
68.9626191875978662
 31
0.0
  0
LINE
  5
21A0
  8
0
 10
55.4437324378073697
 20
68.9626191875978662
 30
0.0
 11
55.4437324378073697
 21
68.4469326708978514
 31
0.0
  0
ARC
  5
21A1
  8
0
 10
77.553901991797062
 20
66.462619187597852
 30
0.0
 40
22.1990337110915483
 50
174.8716354437310088
 51
185.128364556268906
  0
LINE
  5
21A2
  8
0
 10
55.4437324378073697
 20
59.4783057042978811
 30
0.0
 11
64.0352566439073883
 21
59.4783057042978811
 31
0.0
  0
LINE
  5
21A3
  8
0
 10
64.0352566439073883
 20
68.4469326708978514
 30
0.0
 11
55.4437324378073697
 21
68.4469326708978514
 31
0.0
  0
LINE
  5
21A5
  8
0
 10
64.0352566439073883
 20
58.9626191875978733
 30
0.0
 11
55.4437324378073697
 21
58.9626191875978733
 31
0.0
  0
LINE
  5
21A6
  8
0
 10
55.4437324378073697
 20
68.9626191875978662
 30
0.0
 11
64.0352566439073883
 21
68.9626191875978662
 31
0.0
  0
LINE
  5
21A8
  8
0
 10
66.9362280687073792
 20
70.7302248213978686
 30
0.0
 11
66.9362280687073792
 21
57.195013553797871
 31
0.0
  0
CIRCLE
  5
21A9
  8
0
 10
29.9352545328185613
 20
29.9626191874978893
 30
0.0
 40
7.0000000000000266
  0
LINE
  5
21AA
  8
0
 10
25.4509410495177484
 20
26.778136092317979
 30
0.0
 11
29.4195680161210689
 21
24.4868482448363416
 31
0.0
  0
ARC
  5
21AB
  8
0
 10
29.9352545328185613
 20
29.9626191874978893
 30
0.0
 40
5.5000000000000178
 50
204.6199773287000028
 51
215.3800226713005088
  0
LINE
  5
21AC
  8
0
 10
24.9352545328202702
 20
32.2539070349795622
 30
0.0
 11
24.9352545328202702
 21
27.6713313400162306
 31
0.0
  0
ARC
  5
21AD
  8
0
 10
29.9352545328185613
 20
29.9626191874978893
 30
0.0
 40
5.5000000000000027
 50
144.6199773286994912
 51
155.3800226712999972
  0
LINE
  5
21AE
  8
0
 10
29.4195680161210689
 20
35.4383901301594193
 30
0.0
 11
25.4509410495177484
 21
33.1471022826777997
 31
0.0
  0
ARC
  5
21AF
  8
0
 10
29.9352545330240787
 20
29.9626733043301492
 30
0.0
 40
5.4999461215893142
 50
84.6199244717565335
 51
95.3800755325174237
  0
LINE
  5
21B0
  8
0
 10
34.4195680161185535
 20
33.1471022826978867
 30
0.0
 11
30.4509410495185797
 21
35.4383901301978881
 31
0.0
  0
ARC
  5
21B1
  8
0
 10
29.9352625421894913
 20
29.9626238117778492
 30
0.0
 40
5.4999907922889628
 50
24.6199682946546794
 51
35.3800317043085997
  0
LINE
  5
21B2
  8
0
 10
34.9352545328168915
 20
27.6713313400162306
 30
0.0
 11
34.9352545328168631
 21
32.253907034979548
 31
0.0
  0
ARC
  5
21B3
  8
0
 10
29.9352545328185613
 20
29.9626191874978893
 30
0.0
 40
5.5000000000000231
 50
324.6199773286995196
 51
335.3800226713000256
  0
LINE
  5
21B4
  8
0
 10
30.4509410495160502
 20
24.4868482448363416
 30
0.0
 11
34.4195680161193991
 21
26.7781360923179683
 31
0.0
  0
ARC
  5
21B5
  8
0
 10
29.9352545328185613
 20
29.9626191874978893
 30
0.0
 40
5.5000000000000178
 50
264.6199773286996901
 51
275.3800226713003099
  0
CIRCLE
  5
21C8
  8
0
 10
29.9352545328185613
 20
29.9626191874978893
 30
0.0
 40
6.7676056338028161
  0
ARC
  5
21C9
  8
0
 10
67.3913955669707718
 20
36.431935811418299
 30
0.0
 40
0.5442018988323835
 50
357.9658403176404136
 51
146.761733453300792
  0
ARC
  5
21CA
  8
0
 10
67.3850734751965632
 20
23.5131887043292203
 30
0.0
 40
0.5501813523877331
 50
215.3317356122103092
 51
359.9406906376888742
  0
ARC
  5
21CB
  8
0
 10
64.4870791669697354
 20
38.4624260013062269
 30
0.0
 40
2.9998068154745532
 50
269.9980903356805015
 51
324.7294834360645837
  0
ARC
  5
21CC
  8
0
 10
64.4871309030517921
 20
21.4629123372969701
 30
0.0
 40
2.9997068540377501
 50
35.2695283173539522
 51
90.0028979109017371
  0
ARC
  5
21CD
  8
0
 10
84.935260223444061
 20
29.9626191874978893
 30
0.0
 40
30.0000055941570096
 50
169.4360244034556047
 51
190.5639755965443101
  0
LINE
  5
21CE
  8
0
 10
64.4869791836186153
 20
35.4626191874978929
 30
0.0
 11
55.443730326718601
 21
35.4626191874978929
 31
0.0
  0
LINE
  5
21CF
  8
0
 10
55.443730326718601
 20
24.4626191874978893
 30
0.0
 11
64.4869791836186153
 21
24.4626191874978893
 31
0.0
  0
LINE
  5
21D0
  8
0
 10
67.9352545328186181
 20
36.4126191874978815
 30
0.0
 11
67.9352545328186181
 21
23.5126191876978794
 31
0.0
  0
LINE
  5
21D1
  8
0
 10
64.4869791836186153
 20
27.7474920434978891
 30
0.0
 11
64.4869791836186153
 21
26.7104340507978897
 31
0.0
  0
LINE
  5
21D3
  8
0
 10
64.4869791836186153
 20
33.2148043240978907
 30
0.0
 11
64.4869791836186153
 21
32.1777463313978629
 31
0.0
  0
LINE
  5
21D7
  8
0
 10
64.0352545328186125
 20
27.6713313399978702
 30
0.0
 11
64.0352545328186125
 21
32.2539070348978782
 31
0.0
  0
LINE
  5
21DA
  8
0
 10
64.0352545328186125
 20
33.1471022825978991
 30
0.0
 11
64.0352545328186125
 21
35.4383901300978721
 31
0.0
  0
LINE
  5
21DD
  8
0
 10
64.0352545328186125
 20
26.7781360922978706
 30
0.0
 11
64.035254532818584
 21
24.4868482447955991
 31
0.0
  0
LINE
  5
21DF
  8
0
 10
64.0352545328186125
 20
26.7781360922978706
 30
0.0
 11
55.443730326718601
 21
26.7781360922978706
 31
0.0
  0
LINE
  5
21E0
  8
0
 10
55.443730326718601
 20
27.6713313399978702
 30
0.0
 11
55.443730326718601
 21
26.7781360922978706
 31
0.0
  0
LINE
  5
21E1
  8
0
 10
55.443730326718601
 20
27.6713313399978702
 30
0.0
 11
64.0352545328186125
 21
27.6713313399978702
 31
0.0
  0
LINE
  5
21E2
  8
0
 10
64.0352545328186125
 20
32.2539070348978782
 30
0.0
 11
55.443730326718601
 21
32.2539070348978782
 31
0.0
  0
LINE
  5
21E3
  8
0
 10
55.443730326718601
 20
33.1471022825978991
 30
0.0
 11
55.443730326718601
 21
32.2539070348978925
 31
0.0
  0
LINE
  5
21E4
  8
0
 10
55.443730326718601
 20
33.1471022825978991
 30
0.0
 11
64.0352545328186125
 21
33.1471022825978991
 31
0.0
  0
ARC
  5
21E5
  8
0
 10
84.9364181617721385
 20
29.9626191874478813
 30
0.0
 40
29.5815590484306199
 50
175.5576124438229897
 51
184.4423875561770103
  0
LINE
  5
21E6
  8
0
 10
55.443730326718601
 20
35.4626191874978929
 30
0.0
 11
55.443730326718601
 21
35.4383901300978721
 31
0.0
  0
ARC
  5
21E7
  8
0
 10
62.7890260046039828
 20
34.2927462063478927
 30
0.0
 40
7.4341017342774522
 50
171.1350160358012999
 51
188.864983964198899
  0
ARC
  5
21E8
  8
0
 10
62.7889147585656815
 20
25.6324921685478699
 30
0.0
 40
7.4339918171783133
 50
171.1348839043320993
 51
188.865116095667787
  0
LINE
  5
21E9
  8
0
 10
55.443730326718601
 20
24.4868482447978693
 30
0.0
 11
55.443730326718601
 21
24.4626191874978893
 31
0.0
  0
LINE
  5
21EA
  8
0
 10
64.0352545328186125
 20
35.4383901300978721
 30
0.0
 11
55.443730326718601
 21
35.4383901300978721
 31
0.0
  0
LINE
  5
21EB
  8
0
 10
55.443730326718601
 20
24.4868482447978693
 30
0.0
 11
64.0352545328186125
 21
24.4868482447978693
 31
0.0
  0
LINE
  5
21EC
  8
0
 10
66.9362259576186034
 20
36.7302248212978668
 30
0.0
 11
66.9362259576186034
 21
23.1950135536978586
 31
0.0
  0
LINE
  5
21ED
  8
0
 10
64.4869791836186153
 20
35.4626191874978929
 30
0.0
 11
64.4869791836186153
 21
35.4299314679978679
 31
0.0
  0
LINE
  5
21EE
  8
0
 10
64.4869791836186153
 20
24.4953069068978699
 30
0.0
 11
64.4869791836186153
 21
24.4626191874978893
 31
0.0
  0
LINE
  5
21EF
  8
1
 10
29.9352545328185613
 20
38.9626191874979213
 30
0.0
 11
29.9352545328185613
 21
20.9626191874978716
 31
0.0
  0
LINE
  5
21F0
  8
1
 10
38.9352545328185897
 20
29.9626191874978893
 30
0.0
 11
20.9352545328185293
 21
29.9626191874978893
 31
0.0
  0
LINE
  5
21F8
  8
1
 10
69.9352545328186039
 20
29.9626191875978805
 30
0.0
 11
52.9352546292870372
 21
29.9626191875978698
 31
0.0
  0
LINE
  5
21F9
  8
1
 10
69.9352566439073939
 20
63.9626191875978733
 30
0.0
 11
52.9352716676105501
 21
63.9626191875978733
 31
0.0
  0
POLYLINE
  5
243A
  8
0
 66
     1
 10
0.0
 20
0.0
 30
0.0
  0
VERTEX
  5
2543
  8
0
 10
24.9352545328202702
 20
32.2539070349795622
 30
0.0
  0
VERTEX
  5
2544
  8
0
 10
24.9330385281105897
 20
32.2491143158474713
 30
0.0
  0
VERTEX
  5
2545
  8
0
 10
24.9264507266669
 20
32.2346850303422272
 30
0.0
  0
VERTEX
  5
2546
  8
0
 10
24.9156848492783709
 20
32.210760101892852
 30
0.0
  0
VERTEX
  5
2547
  8
0
 10
24.9010503518010218
 20
32.1777463314589909
 30
0.0
  0
SEQEND
  5
2548
  8
0
  0
POLYLINE
  5
243B
  8
0
 66
     1
 10
0.0
 20
0.0
 30
0.0
  0
VERTEX
  5
2549
  8
0
 10
25.4997960630430214
 20
33.2148043241454829
 30
0.0
  0
VERTEX
  5
254A
  8
0
 10
25.4785225479124087
 20
33.1856235923421323
 30
0.0
  0
VERTEX
  5
254B
  8
0
 10
25.4631858907856703
 20
33.1643376048049134
 30
0.0
  0
VERTEX
  5
254C
  8
0
 10
25.4539836637015107
 20
33.1514177586469714
 30
0.0
  0
VERTEX
  5
254D
  8
0
 10
25.4509410495177484
 20
33.1471022826777997
 30
0.0
  0
SEQEND
  5
254E
  8
0
  0
POLYLINE
  5
243C
  8
0
 66
     1
 10
0.0
 20
0.0
 30
0.0
  0
VERTEX
  5
254F
  8
0
 10
29.4195680161210689
 20
35.4383901301594193
 30
0.0
  0
VERTEX
  5
2550
  8
0
 10
29.4143093972275906
 20
35.4379128869768465
 30
0.0
  0
VERTEX
  5
2551
  8
0
 10
29.3985193686997412
 20
35.4364034476295018
 30
0.0
  0
VERTEX
  5
2552
  8
0
 10
29.37241683418452
 20
35.4337645067172815
 30
0.0
  0
VERTEX
  5
2553
  8
0
 10
29.3365088215780396
 20
35.4299314680890802
 30
0.0
  0
SEQEND
  5
2554
  8
0
  0
POLYLINE
  5
243D
  8
0
 66
     1
 10
0.0
 20
0.0
 30
0.0
  0
VERTEX
  5
2555
  8
0
 10
30.5340002440606213
 20
35.4299314680880997
 30
0.0
  0
VERTEX
  5
2556
  8
0
 10
30.498092231452631
 20
35.4337645067172815
 30
0.0
  0
VERTEX
  5
2557
  8
0
 10
30.4719896969373814
 20
35.4364034476295018
 30
0.0
  0
VERTEX
  5
2558
  8
0
 10
30.4561996684095391
 20
35.4379128869768678
 30
0.0
  0
VERTEX
  5
2559
  8
0
 10
30.4509410495185797
 20
35.4383901301978881
 30
0.0
  0
SEQEND
  5
255A
  8
0
  0
POLYLINE
  5
243E
  8
0
 66
     1
 10
0.0
 20
0.0
 30
0.0
  0
VERTEX
  5
255B
  8
0
 10
34.4195680161185535
 20
33.1471022826978867
 30
0.0
  0
VERTEX
  5
255C
  8
0
 10
34.4165254019355871
 20
33.1514177586469998
 30
0.0
  0
VERTEX
  5
255D
  8
0
 10
34.4073231748514274
 20
33.164337604804949
 30
0.0
  0
VERTEX
  5
255E
  8
0
 10
34.3919865177247175
 20
33.1856235923421323
 30
0.0
  0
VERTEX
  5
255F
  8
0
 10
34.3707130025958065
 20
33.2148043241447013
 30
0.0
  0
SEQEND
  5
2560
  8
0
  0
POLYLINE
  5
243F
  8
0
 66
     1
 10
0.0
 20
0.0
 30
0.0
  0
VERTEX
  5
2561
  8
0
 10
34.9694587138319619
 20
32.1777463314683985
 30
0.0
  0
VERTEX
  5
2562
  8
0
 10
34.9548242163587588
 20
32.2107601018928094
 30
0.0
  0
VERTEX
  5
2563
  8
0
 10
34.944058338970251
 20
32.2346850303422983
 30
0.0
  0
VERTEX
  5
2564
  8
0
 10
34.9374705375266004
 20
32.2491143158475779
 30
0.0
  0
VERTEX
  5
2565
  8
0
 10
34.9352545328168631
 20
32.253907034979548
 30
0.0
  0
SEQEND
  5
2566
  8
0
  0
POLYLINE
  5
2440
  8
0
 66
     1
 10
0.0
 20
0.0
 30
0.0
  0
VERTEX
  5
2567
  8
0
 10
34.3707130025958065
 20
33.2148043241447013
 30
0.0
  0
VERTEX
  5
2568
  8
0
 10
34.3074157076012511
 20
33.3253108195365968
 30
0.0
  0
VERTEX
  5
2569
  8
0
 10
34.2559907269139217
 20
33.4656313277730035
 30
0.0
  0
VERTEX
  5
256A
  8
0
 10
34.2100237902676625
 20
33.6363972228687587
 30
0.0
  0
VERTEX
  5
256B
  8
0
 10
34.1591816550507303
 20
33.8379988614967502
 30
0.0
  0
VERTEX
  5
256C
  8
0
 10
34.0933175426389425
 20
34.0676149807017978
 30
0.0
  0
VERTEX
  5
256D
  8
0
 10
33.9985857677612628
 20
34.319455902266057
 30
0.0
  0
VERTEX
  5
256E
  8
0
 10
33.8652924478714681
 20
34.5823375678013392
 30
0.0
  0
VERTEX
  5
256F
  8
0
 10
33.6879399574844527
 20
34.8414602886792721
 30
0.0
  0
VERTEX
  5
2570
  8
0
 10
33.4653794067073704
 20
35.0809847051835106
 30
0.0
  0
VERTEX
  5
2571
  8
0
 10
33.2036056391328032
 20
35.2876027863863868
 30
0.0
  0
VERTEX
  5
2572
  8
0
 10
32.9128611653730232
 20
35.4554459406851805
 30
0.0
  0
VERTEX
  5
2573
  8
0
 10
32.6030292884315074
 20
35.5788184928468922
 30
0.0
  0
VERTEX
  5
2574
  8
0
 10
32.2843184024653809
 20
35.651900372685887
 30
0.0
  0
VERTEX
  5
2575
  8
0
 10
31.9712081455151385
 20
35.6760516209831877
 30
0.0
  0
VERTEX
  5
2576
  8
0
 10
31.6768837264695016
 20
35.6600663844801602
 30
0.0
  0
VERTEX
  5
2577
  8
0
 10
31.4114344530571792
 20
35.6161437926249533
 30
0.0
  0
VERTEX
  5
2578
  8
0
 10
31.1796173549542495
 20
35.5583780716523208
 30
0.0
  0
VERTEX
  5
2579
  8
0
 10
30.9795546494886196
 20
35.5015826429708667
 30
0.0
  0
VERTEX
  5
257A
  8
0
 10
30.8087134930844115
 20
35.4560192527771676
 30
0.0
  0
VERTEX
  5
257B
  8
0
 10
30.6615405821304101
 20
35.4305614186220481
 30
0.0
  0
VERTEX
  5
257C
  8
0
 10
30.5340002440606213
 20
35.4299314680880997
 30
0.0
  0
SEQEND
  5
257D
  8
0
  0
POLYLINE
  5
2441
  8
0
 66
     1
 10
0.0
 20
0.0
 30
0.0
  0
VERTEX
  5
257E
  8
0
 10
29.3365088215780396
 20
35.4299314680890802
 30
0.0
  0
VERTEX
  5
257F
  8
0
 10
29.2091587417882295
 20
35.4303676503290035
 30
0.0
  0
VERTEX
  5
2580
  8
0
 10
29.0619251266399203
 20
35.4559925647829033
 30
0.0
  0
VERTEX
  5
2581
  8
0
 10
28.8910540550637585
 20
35.5015669774608966
 30
0.0
  0
VERTEX
  5
2582
  8
0
 10
28.6910408469590514
 20
35.5583372160945927
 30
0.0
  0
VERTEX
  5
2583
  8
0
 10
28.4592553984031689
 20
35.6161052811506877
 30
0.0
  0
VERTEX
  5
2584
  8
0
 10
28.1937888751766685
 20
35.659985618342013
 30
0.0
  0
VERTEX
  5
2585
  8
0
 10
27.8994800146888302
 20
35.6759910499300403
 30
0.0
  0
VERTEX
  5
2586
  8
0
 10
27.5863969105175784
 20
35.6519606482708014
 30
0.0
  0
VERTEX
  5
2587
  8
0
 10
27.2676824056096301
 20
35.5789797656705673
 30
0.0
  0
VERTEX
  5
2588
  8
0
 10
26.9578590146197214
 20
35.4555860735074972
 30
0.0
  0
VERTEX
  5
2589
  8
0
 10
26.6671303422659811
 20
35.2877155503704074
 30
0.0
  0
VERTEX
  5
258A
  8
0
 10
26.4053706394934089
 20
35.0810795501178276
 30
0.0
  0
VERTEX
  5
258B
  8
0
 10
26.1827244320134298
 20
34.8416087663279868
 30
0.0
  0
VERTEX
  5
258C
  8
0
 10
26.0052537089798399
 20
34.5825229537722478
 30
0.0
  0
VERTEX
  5
258D
  8
0
 10
25.8719351203542409
 20
34.3196379116731194
 30
0.0
  0
VERTEX
  5
258E
  8
0
 10
25.7772485639943909
 20
34.0677908015542883
 30
0.0
  0
VERTEX
  5
258F
  8
0
 10
25.7113665967725105
 20
33.8381484450791703
 30
0.0
  0
VERTEX
  5
2590
  8
0
 10
25.6605215280971812
 20
33.6364913454554966
 30
0.0
  0
VERTEX
  5
2591
  8
0
 10
25.614560003285991
 20
33.4657568689009111
 30
0.0
  0
VERTEX
  5
2592
  8
0
 10
25.5630206789125012
 20
33.3255724721880782
 30
0.0
  0
VERTEX
  5
2593
  8
0
 10
25.4997960630430214
 20
33.2148043241454829
 30
0.0
  0
SEQEND
  5
2594
  8
0
  0
POLYLINE
  5
2442
  8
0
 66
     1
 10
0.0
 20
0.0
 30
0.0
  0
VERTEX
  5
2595
  8
0
 10
24.9010503518010218
 20
32.1777463314589909
 30
0.0
  0
VERTEX
  5
2596
  8
0
 10
24.8369976574735496
 20
32.0676747050706581
 30
0.0
  0
VERTEX
  5
2597
  8
0
 10
24.7411893027105201
 20
31.9529765692315806
 30
0.0
  0
VERTEX
  5
2598
  8
0
 10
24.6162837080385408
 20
31.8277936066053115
 30
0.0
  0
VERTEX
  5
2599
  8
0
 10
24.4671093979221084
 20
31.6829745059178087
 30
0.0
  0
VERTEX
  5
259A
  8
0
 10
24.3011909755903801
 20
31.5111166944688783
 30
0.0
  0
VERTEX
  5
259B
  8
0
 10
24.130473258273021
 20
31.3031266174366394
 30
0.0
  0
VERTEX
  5
259C
  8
0
 10
23.9694608179224211
 20
31.0562433616109992
 30
0.0
  0
VERTEX
  5
259D
  8
0
 10
23.8337047241569202
 20
30.7731126003021913
 30
0.0
  0
VERTEX
  5
259E
  8
0
 10
23.7375308137146703
 20
30.4606177644440699
 30
0.0
  0
VERTEX
  5
259F
  8
0
 10
23.6894970625104406
 20
30.1306039933061207
 30
0.0
  0
VERTEX
  5
25A0
  8
0
 10
23.6895295062809907
 20
29.794889954904189
 30
0.0
  0
VERTEX
  5
25A1
  8
0
 10
23.7376037283964116
 20
29.4648834085752505
 30
0.0
  0
VERTEX
  5
25A2
  8
0
 10
23.8336638436188402
 20
29.1523299679737811
 30
0.0
  0
VERTEX
  5
25A3
  8
0
 10
23.9693032371665389
 20
28.8690933527024782
 30
0.0
  0
VERTEX
  5
25A4
  8
0
 10
24.1303067069348707
 20
28.6221898495272811
 30
0.0
  0
VERTEX
  5
25A5
  8
0
 10
24.3010667216703418
 20
28.4142635581520508
 30
0.0
  0
VERTEX
  5
25A6
  8
0
 10
24.4670018127017102
 20
28.2423828175730591
 30
0.0
  0
VERTEX
  5
25A7
  8
0
 10
24.6162208300720486
 20
28.0975273271689616
 30
0.0
  0
VERTEX
  5
25A8
  8
0
 10
24.7411029547770092
 20
27.9723650756805888
 30
0.0
  0
VERTEX
  5
25A9
  8
0
 10
24.8367289211739397
 20
27.8576336346111297
 30
0.0
  0
VERTEX
  5
25AA
  8
0
 10
24.9010503518051998
 20
27.7474920435669787
 30
0.0
  0
SEQEND
  5
25AB
  8
0
  0
POLYLINE
  5
2443
  8
0
 66
     1
 10
0.0
 20
0.0
 30
0.0
  0
VERTEX
  5
25AC
  8
0
 10
34.9694587138361115
 20
27.7474920435763899
 30
0.0
  0
VERTEX
  5
25AD
  8
0
 10
35.0335114081636121
 20
27.8575636699647688
 30
0.0
  0
VERTEX
  5
25AE
  8
0
 10
35.129319762926599
 20
27.9722618058038996
 30
0.0
  0
VERTEX
  5
25AF
  8
0
 10
35.2542253575985782
 20
28.0974447684299591
 30
0.0
  0
VERTEX
  5
25B0
  8
0
 10
35.4033996677150427
 20
28.2422638691173304
 30
0.0
  0
VERTEX
  5
25B1
  8
0
 10
35.5693180900468136
 20
28.4141216805663603
 30
0.0
  0
VERTEX
  5
25B2
  8
0
 10
35.7400358073638529
 20
28.6221117575991109
 30
0.0
  0
VERTEX
  5
25B3
  8
0
 10
35.9010482477143
 20
28.8689950134249393
 30
0.0
  0
VERTEX
  5
25B4
  8
0
 10
36.036804341480412
 20
29.1521257747332712
 30
0.0
  0
VERTEX
  5
25B5
  8
0
 10
36.1329782519234186
 20
29.4646206105909982
 30
0.0
  0
VERTEX
  5
25B6
  8
0
 10
36.1810120031270799
 20
29.7946343817290007
 30
0.0
  0
VERTEX
  5
25B7
  8
0
 10
36.1809795593559613
 20
30.1303484201310603
 30
0.0
  0
VERTEX
  5
25B8
  8
0
 10
36.1329053372406577
 20
30.4603549664599917
 30
0.0
  0
VERTEX
  5
25B9
  8
0
 10
36.0368452220183073
 20
30.7729084070614682
 30
0.0
  0
VERTEX
  5
25BA
  8
0
 10
35.9012058284706086
 20
31.0561450223328102
 30
0.0
  0
VERTEX
  5
25BB
  8
0
 10
35.7402023587022768
 20
31.3030485255080499
 30
0.0
  0
VERTEX
  5
25BC
  8
0
 10
35.5694423439668128
 20
31.5109748168831807
 30
0.0
  0
VERTEX
  5
25BD
  8
0
 10
35.4035072529353627
 20
31.6828555574619806
 30
0.0
  0
VERTEX
  5
25BE
  8
0
 10
35.2542882355650704
 20
31.8277110478663516
 30
0.0
  0
VERTEX
  5
25BF
  8
0
 10
35.129406110860117
 20
31.9528732993548594
 30
0.0
  0
VERTEX
  5
25C0
  8
0
 10
35.0337801444632433
 20
32.0676047404242794
 30
0.0
  0
VERTEX
  5
25C1
  8
0
 10
34.9694587138319619
 20
32.1777463314683985
 30
0.0
  0
SEQEND
  5
25C2
  8
0
  0
POLYLINE
  5
2444
  8
0
 66
     1
 10
0.0
 20
0.0
 30
0.0
  0
VERTEX
  5
25C3
  8
0
 10
34.9352545328168915
 20
27.6713313400162306
 30
0.0
  0
VERTEX
  5
25C4
  8
0
 10
34.9374705375265577
 20
27.6761240591877993
 30
0.0
  0
VERTEX
  5
25C5
  8
0
 10
34.944058338970251
 20
27.6905533446930612
 30
0.0
  0
VERTEX
  5
25C6
  8
0
 10
34.9548242163587872
 20
27.7144782731425217
 30
0.0
  0
VERTEX
  5
25C7
  8
0
 10
34.9694587138361115
 20
27.7474920435763899
 30
0.0
  0
SEQEND
  5
25C8
  8
0
  0
POLYLINE
  5
2445
  8
0
 66
     1
 10
0.0
 20
0.0
 30
0.0
  0
VERTEX
  5
25C9
  8
0
 10
34.3707130025941012
 20
26.7104340508898908
 30
0.0
  0
VERTEX
  5
25CA
  8
0
 10
34.3919865177247175
 20
26.7396147826932307
 30
0.0
  0
VERTEX
  5
25CB
  8
0
 10
34.407323174851463
 20
26.7609007702304211
 30
0.0
  0
VERTEX
  5
25CC
  8
0
 10
34.4165254019356226
 20
26.7738206163883916
 30
0.0
  0
VERTEX
  5
25CD
  8
0
 10
34.4195680161193991
 20
26.7781360923179683
 30
0.0
  0
SEQEND
  5
25CE
  8
0
  0
POLYLINE
  5
2446
  8
0
 66
     1
 10
0.0
 20
0.0
 30
0.0
  0
VERTEX
  5
25CF
  8
0
 10
30.5340002440590901
 20
24.4953069069463005
 30
0.0
  0
VERTEX
  5
25D0
  8
0
 10
30.6613503238489784
 20
24.4948707247064199
 30
0.0
  0
VERTEX
  5
25D1
  8
0
 10
30.8085839389973515
 20
24.4692458102525912
 30
0.0
  0
VERTEX
  5
25D2
  8
0
 10
30.9794550105732185
 20
24.4236713975743918
 30
0.0
  0
VERTEX
  5
25D3
  8
0
 10
31.1794682186778687
 20
24.3669011589406104
 30
0.0
  0
VERTEX
  5
25D4
  8
0
 10
31.4112536672340106
 20
24.3091330938847392
 30
0.0
  0
VERTEX
  5
25D5
  8
0
 10
31.6767201904601983
 20
24.265252756692739
 30
0.0
  0
VERTEX
  5
25D6
  8
0
 10
31.971029050947859
 20
24.2492473251044593
 30
0.0
  0
VERTEX
  5
25D7
  8
0
 10
32.2841121551193169
 20
24.2732777267646398
 30
0.0
  0
VERTEX
  5
25D8
  8
0
 10
32.6028266600272332
 20
24.3462586093654885
 30
0.0
  0
VERTEX
  5
25D9
  8
0
 10
32.9126500510173017
 20
24.4696523015282494
 30
0.0
  0
VERTEX
  5
25DA
  8
0
 10
33.2033787233715216
 20
24.6375228246645896
 30
0.0
  0
VERTEX
  5
25DB
  8
0
 10
33.4651384261442786
 20
24.8441588249168497
 30
0.0
  0
VERTEX
  5
25DC
  8
0
 10
33.6877846336236431
 20
25.0836296087071311
 30
0.0
  0
VERTEX
  5
25DD
  8
0
 10
33.8652553566568599
 20
25.3427154212630583
 30
0.0
  0
VERTEX
  5
25DE
  8
0
 10
33.9985739452826579
 20
25.6056004633621512
 30
0.0
  0
VERTEX
  5
25DF
  8
0
 10
34.093260501642618
 20
25.8574475734809006
 30
0.0
  0
VERTEX
  5
25E0
  8
0
 10
34.1591424688642178
 20
26.0870899299560115
 30
0.0
  0
VERTEX
  5
25E1
  8
0
 10
34.2099875375398312
 20
26.2887470295797812
 30
0.0
  0
VERTEX
  5
25E2
  8
0
 10
34.2559490623511635
 20
26.4594815061344697
 30
0.0
  0
VERTEX
  5
25E3
  8
0
 10
34.3074883867246001
 20
26.5996659028472209
 30
0.0
  0
VERTEX
  5
25E4
  8
0
 10
34.3707130025941012
 20
26.7104340508898908
 30
0.0
  0
SEQEND
  5
25E5
  8
0
  0
POLYLINE
  5
2447
  8
0
 66
     1
 10
0.0
 20
0.0
 30
0.0
  0
VERTEX
  5
25E6
  8
0
 10
30.4509410495160502
 20
24.4868482448363416
 30
0.0
  0
VERTEX
  5
25E7
  8
0
 10
30.456199668409571
 20
24.4873254880585307
 30
0.0
  0
VERTEX
  5
25E8
  8
0
 10
30.4719896969374204
 20
24.4888349274058612
 30
0.0
  0
VERTEX
  5
25E9
  8
0
 10
30.4980922314525991
 20
24.4914738683180992
 30
0.0
  0
VERTEX
  5
25EA
  8
0
 10
30.5340002440590901
 20
24.4953069069463005
 30
0.0
  0
SEQEND
  5
25EB
  8
0
  0
POLYLINE
  5
2448
  8
0
 66
     1
 10
0.0
 20
0.0
 30
0.0
  0
VERTEX
  5
25EC
  8
0
 10
29.3365088215765013
 20
24.4953069069472917
 30
0.0
  0
VERTEX
  5
25ED
  8
0
 10
29.3724168341844916
 20
24.4914738683180815
 30
0.0
  0
VERTEX
  5
25EE
  8
0
 10
29.3985193686997412
 20
24.4888349274058115
 30
0.0
  0
VERTEX
  5
25EF
  8
0
 10
29.4143093972276084
 20
24.4873254880584987
 30
0.0
  0
VERTEX
  5
25F0
  8
0
 10
29.4195680161210689
 20
24.4868482448363416
 30
0.0
  0
SEQEND
  5
25F1
  8
0
  0
POLYLINE
  5
2449
  8
0
 66
     1
 10
0.0
 20
0.0
 30
0.0
  0
VERTEX
  5
25F2
  8
0
 10
25.4997960630413409
 20
26.7104340508906901
 30
0.0
  0
VERTEX
  5
25F3
  8
0
 10
25.5630933580358999
 20
26.5999275554987591
 30
0.0
  0
VERTEX
  5
25F4
  8
0
 10
25.6145183387232898
 20
26.4596070472622813
 30
0.0
  0
VERTEX
  5
25F5
  8
0
 10
25.66048527536935
 20
26.2888411521666399
 30
0.0
  0
VERTEX
  5
25F6
  8
0
 10
25.7113274105860796
 20
26.0872395135386697
 30
0.0
  0
VERTEX
  5
25F7
  8
0
 10
25.7771915229980983
 20
25.8576233943335687
 30
0.0
  0
VERTEX
  5
25F8
  8
0
 10
25.8719232978760694
 20
25.6057824727693593
 30
0.0
  0
VERTEX
  5
25F9
  8
0
 10
26.0052166177658215
 20
25.3429008072340807
 30
0.0
  0
VERTEX
  5
25FA
  8
0
 10
26.182569108152709
 20
25.0837780863561086
 30
0.0
  0
VERTEX
  5
25FB
  8
0
 10
26.4051296589299511
 20
24.8442536698519696
 30
0.0
  0
VERTEX
  5
25FC
  8
0
 10
26.66690342650449
 20
24.6376355886490614
 30
0.0
  0
VERTEX
  5
25FD
  8
0
 10
26.9576479002641598
 20
24.4697924343500297
 30
0.0
  0
VERTEX
  5
25FE
  8
0
 10
27.2674797772055797
 20
24.3464198821882611
 30
0.0
  0
VERTEX
  5
25FF
  8
0
 10
27.5861906631717488
 20
24.2733380023495293
 30
0.0
  0
VERTEX
  5
2600
  8
0
 10
27.899300920122041
 20
24.2491867540521397
 30
0.0
  0
VERTEX
  5
2601
  8
0
 10
28.1936253391676814
 20
24.2651719905551211
 30
0.0
  0
VERTEX
  5
2602
  8
0
 10
28.4590746125799114
 20
24.3090945824104487
 30
0.0
  0
VERTEX
  5
2603
  8
0
 10
28.6908917106827701
 20
24.3668603033831097
 30
0.0
  0
VERTEX
  5
2604
  8
0
 10
28.8909544161484497
 20
24.4236557320644891
 30
0.0
  0
VERTEX
  5
2605
  8
0
 10
29.0617955725527395
 20
24.469219122258199
 30
0.0
  0
VERTEX
  5
2606
  8
0
 10
29.2089684835067089
 20
24.4946769564133717
 30
0.0
  0
VERTEX
  5
2607
  8
0
 10
29.3365088215765013
 20
24.4953069069472917
 30
0.0
  0
SEQEND
  5
2608
  8
0
  0
POLYLINE
  5
244A
  8
0
 66
     1
 10
0.0
 20
0.0
 30
0.0
  0
VERTEX
  5
2609
  8
0
 10
25.4509410495177484
 20
26.778136092317979
 30
0.0
  0
VERTEX
  5
260A
  8
0
 10
25.4539836637015391
 20
26.773820616388381
 30
0.0
  0
VERTEX
  5
260B
  8
0
 10
25.46318589078572
 20
26.7609007702304282
 30
0.0
  0
VERTEX
  5
260C
  8
0
 10
25.4785225479124087
 20
26.7396147826932484
 30
0.0
  0
VERTEX
  5
260D
  8
0
 10
25.4997960630413409
 20
26.7104340508906901
 30
0.0
  0
SEQEND
  5
260E
  8
0
  0
POLYLINE
  5
244B
  8
0
 66
     1
 10
0.0
 20
0.0
 30
0.0
  0
VERTEX
  5
260F
  8
0
 10
24.9010503518051998
 20
27.7474920435669787
 30
0.0
  0
VERTEX
  5
2610
  8
0
 10
24.9156848492783887
 20
27.7144782731425394
 30
0.0
  0
VERTEX
  5
2611
  8
0
 10
24.9264507266669
 20
27.6905533446930789
 30
0.0
  0
VERTEX
  5
2612
  8
0
 10
24.9330385281105897
 20
27.6761240591877993
 30
0.0
  0
VERTEX
  5
2613
  8
0
 10
24.9352545328202702
 20
27.6713313400162306
 30
0.0
  0
SEQEND
  5
2614
  8
0
  0
POLYLINE
  5
2475
  8
0
 66
     1
 10
0.0
 20
0.0
 30
0.0
  0
VERTEX
  5
2615
  8
0
 10
64.486981294707391
 20
68.9968233685978731
 30
0.0
  0
VERTEX
  5
2616
  8
0
 10
64.6430954301465306
 20
69.024821972159117
 30
0.0
  0
VERTEX
  5
2617
  8
0
 10
64.7972151470314657
 20
69.061012011140491
 30
0.0
  0
VERTEX
  5
2618
  8
0
 10
64.9488446102832029
 20
69.1051053175114873
 30
0.0
  0
VERTEX
  5
2619
  8
0
 10
65.0973987436193795
 20
69.1569370086814814
 30
0.0
  0
VERTEX
  5
261A
  8
0
 10
65.2421654413998056
 20
69.2160993635838366
 30
0.0
  0
VERTEX
  5
261B
  8
0
 10
65.3822039020587908
 20
69.281997809599801
 30
0.0
  0
VERTEX
  5
261C
  8
0
 10
65.5168220857437973
 20
69.3539875949812057
 30
0.0
  0
VERTEX
  5
261D
  8
0
 10
65.6453360456792154
 20
69.431287027027011
 30
0.0
  0
VERTEX
  5
261E
  8
0
 10
65.7669420005136658
 20
69.5128725889971548
 30
0.0
  0
VERTEX
  5
261F
  8
0
 10
65.8805960271230902
 20
69.5973025477831158
 30
0.0
  0
VERTEX
  5
2620
  8
0
 10
65.9852703566525918
 20
69.6828297681958446
 30
0.0
  0
VERTEX
  5
2621
  8
0
 10
66.0804539409295444
 20
69.7678150474251737
 30
0.0
  0
VERTEX
  5
2622
  8
0
 10
66.1657673746226465
 20
69.8505303109726157
 30
0.0
  0
VERTEX
  5
2623
  8
0
 10
66.2406921847924934
 20
69.9288904729993135
 30
0.0
  0
VERTEX
  5
2624
  8
0
 10
66.3049137486742666
 20
70.0008201997799233
 30
0.0
  0
VERTEX
  5
2625
  8
0
 10
66.3583539814481753
 20
70.0644023312229507
 30
0.0
  0
VERTEX
  5
2626
  8
0
 10
66.401193455273301
 20
70.118074805428023
 30
0.0
  0
VERTEX
  5
2627
  8
0
 10
66.4336973971294356
 20
70.1605450542211599
 30
0.0
  0
VERTEX
  5
2628
  8
0
 10
66.4557079678703815
 20
70.1902047247991874
 30
0.0
  0
VERTEX
  5
2629
  8
0
 10
66.4696290246496062
 20
70.2093829202141535
 30
0.0
  0
VERTEX
  5
262A
  8
0
 10
66.4728637760503318
 20
70.214003886952753
 30
0.0
  0
SEQEND
  5
262B
  8
0
  0
POLYLINE
  5
2476
  8
0
 66
     1
 10
0.0
 20
0.0
 30
0.0
  0
VERTEX
  5
262C
  8
0
 10
64.0352566439073883
 20
68.9626191875978662
 30
0.0
  0
VERTEX
  5
262D
  8
0
 10
64.1505741716218552
 20
68.964835192305884
 30
0.0
  0
VERTEX
  5
262E
  8
0
 10
64.2649187779559838
 20
68.971422993749556
 30
0.0
  0
VERTEX
  5
262F
  8
0
 10
64.3773347461486196
 20
68.982188871138078
 30
0.0
  0
VERTEX
  5
2630
  8
0
 10
64.486981294707391
 20
68.9968233685978731
 30
0.0
  0
SEQEND
  5
2631
  8
0
  0
POLYLINE
  5
2477
  8
0
 66
     1
 10
0.0
 20
0.0
 30
0.0
  0
VERTEX
  5
2632
  8
0
 10
64.486981294707391
 20
68.3980776573978773
 30
0.0
  0
VERTEX
  5
2633
  8
0
 10
64.377334746148648
 20
68.4193511725040224
 30
0.0
  0
VERTEX
  5
2634
  8
0
 10
64.2649187779560407
 20
68.434687829630704
 30
0.0
  0
VERTEX
  5
2635
  8
0
 10
64.1505741716219404
 20
68.4438900567149346
 30
0.0
  0
VERTEX
  5
2636
  8
0
 10
64.0352566439073883
 20
68.4469326708978514
 30
0.0
  0
SEQEND
  5
2637
  8
0
  0
POLYLINE
  5
2478
  8
0
 66
     1
 10
0.0
 20
0.0
 30
0.0
  0
VERTEX
  5
2638
  8
0
 10
64.486981294707391
 20
64.5613648987978621
 30
0.0
  0
VERTEX
  5
2639
  8
0
 10
64.8918554175501754
 20
64.7325320019437243
 30
0.0
  0
VERTEX
  5
263A
  8
0
 10
65.2768007226448645
 20
64.9395123827363108
 30
0.0
  0
VERTEX
  5
263B
  8
0
 10
65.628804771747042
 20
65.1934274097573905
 30
0.0
  0
VERTEX
  5
263C
  8
0
 10
65.788030286613747
 20
65.3404549012013405
 30
0.0
  0
VERTEX
  5
263D
  8
0
 10
65.9333778677673479
 20
65.5018433303103933
 30
0.0
  0
VERTEX
  5
263E
  8
0
 10
66.0628586528218733
 20
65.67784393035042
 30
0.0
  0
VERTEX
  5
263F
  8
0
 10
66.175273264211171
 20
65.866629985474006
 30
0.0
  0
VERTEX
  5
2640
  8
0
 10
66.2697181671285023
 20
66.0657000102362701
 30
0.0
  0
VERTEX
  5
2641
  8
0
 10
66.3457832192672186
 20
66.2717371212831665
 30
0.0
  0
VERTEX
  5
2642
  8
0
 10
66.4033792206342071
 20
66.4810413538584442
 30
0.0
  0
VERTEX
  5
2643
  8
0
 10
66.4431014675552376
 20
66.6893500394702556
 30
0.0
  0
VERTEX
  5
2644
  8
0
 10
66.4730963771569066
 20
67.088307036136527
 30
0.0
  0
VERTEX
  5
2645
  8
0
 10
66.4658428742005185
 20
67.2738400930660987
 30
0.0
  0
VERTEX
  5
2646
  8
0
 10
66.4430713855284978
 20
67.4461502143783633
 30
0.0
  0
VERTEX
  5
2647
  8
0
 10
66.4033755192748458
 20
67.6022044999511991
 30
0.0
  0
VERTEX
  5
2648
  8
0
 10
66.3458354523276626
 20
67.7398630095600538
 30
0.0
  0
VERTEX
  5
2649
  8
0
 10
66.269831868310149
 20
67.8576946881407252
 30
0.0
  0
VERTEX
  5
264A
  8
0
 10
66.1754295897500242
 20
67.9561444139239654
 30
0.0
  0
VERTEX
  5
264B
  8
0
 10
66.0630233572986469
 20
68.0363462596656063
 30
0.0
  0
VERTEX
  5
264C
  8
0
 10
65.9335326840224241
 20
68.1001725924652277
 30
0.0
  0
VERTEX
  5
264D
  8
0
 10
65.628987328462955
 20
68.1900039319279898
 30
0.0
  0
VERTEX
  5
264E
  8
0
 10
65.2769981343363952
 20
68.2546461296259679
 30
0.0
  0
VERTEX
  5
264F
  8
0
 10
64.8920614563567426
 20
68.3174481634098214
 30
0.0
  0
VERTEX
  5
2650
  8
0
 10
64.486981294707391
 20
68.3980776573978773
 30
0.0
  0
SEQEND
  5
2651
  8
0
  0
POLYLINE
  5
2479
  8
0
 66
     1
 10
0.0
 20
0.0
 30
0.0
  0
VERTEX
  5
2652
  8
0
 10
64.0352566439073883
 20
64.4783057042978811
 30
0.0
  0
VERTEX
  5
2653
  8
0
 10
64.1505741716218552
 20
64.4835643231888866
 30
0.0
  0
VERTEX
  5
2654
  8
0
 10
64.2649187779560123
 20
64.4993543517167183
 30
0.0
  0
VERTEX
  5
2655
  8
0
 10
64.3773347461486196
 20
64.5254568862319076
 30
0.0
  0
VERTEX
  5
2656
  8
0
 10
64.486981294707391
 20
64.5613648987978621
 30
0.0
  0
SEQEND
  5
2657
  8
0
  0
POLYLINE
  5
247A
  8
0
 66
     1
 10
0.0
 20
0.0
 30
0.0
  0
VERTEX
  5
2658
  8
0
 10
64.486981294707391
 20
59.5271607177978623
 30
0.0
  0
VERTEX
  5
2659
  8
0
 10
64.891855417550147
 20
59.6076132840256605
 30
0.0
  0
VERTEX
  5
265A
  8
0
 10
65.2768007226448645
 20
59.6705500257373771
 30
0.0
  0
VERTEX
  5
265B
  8
0
 10
65.6288047717469283
 20
59.7351970081795898
 30
0.0
  0
VERTEX
  5
265C
  8
0
 10
65.933377867767291
 20
59.8250170069799196
 30
0.0
  0
VERTEX
  5
265D
  8
0
 10
66.0628586528219728
 20
59.8888766577617986
 30
0.0
  0
VERTEX
  5
265E
  8
0
 10
66.1752732642113131
 20
59.9690861660259529
 30
0.0
  0
VERTEX
  5
265F
  8
0
 10
66.269718167128616
 20
60.0674825370747172
 30
0.0
  0
VERTEX
  5
2660
  8
0
 10
66.3457832192671901
 20
60.1852338431391729
 30
0.0
  0
VERTEX
  5
2661
  8
0
 10
66.4033792206339513
 20
60.3228234271657371
 30
0.0
  0
VERTEX
  5
2662
  8
0
 10
66.4431014675548539
 20
60.4788434111456681
 30
0.0
  0
VERTEX
  5
2663
  8
0
 10
66.4658592378462458
 20
60.6511660929731917
 30
0.0
  0
VERTEX
  5
2664
  8
0
 10
66.4730963771569066
 20
60.8367170300212905
 30
0.0
  0
VERTEX
  5
2665
  8
0
 10
66.4430713855280999
 20
61.2356834234675915
 30
0.0
  0
VERTEX
  5
2666
  8
0
 10
66.4033755192745048
 20
61.4439933958504128
 30
0.0
  0
VERTEX
  5
2667
  8
0
 10
66.3458354523276057
 20
61.6532956450520402
 30
0.0
  0
VERTEX
  5
2668
  8
0
 10
66.2698318683104333
 20
61.8593510557627724
 30
0.0
  0
VERTEX
  5
2669
  8
0
 10
66.1754295897504221
 20
62.0584408217072721
 30
0.0
  0
VERTEX
  5
266A
  8
0
 10
66.0630233572988743
 20
62.2472306291049975
 30
0.0
  0
VERTEX
  5
266B
  8
0
 10
65.9335326840224241
 20
62.4232196680019413
 30
0.0
  0
VERTEX
  5
266C
  8
0
 10
65.7881833966942224
 20
62.5846052478212727
 30
0.0
  0
VERTEX
  5
266D
  8
0
 10
65.6289873284627561
 20
62.7316665379017024
 30
0.0
  0
VERTEX
  5
266E
  8
0
 10
65.2769981343363952
 20
62.9855935799418276
 30
0.0
  0
VERTEX
  5
266F
  8
0
 10
64.892061456356771
 20
63.1928434288102068
 30
0.0
  0
VERTEX
  5
2670
  8
0
 10
64.486981294707391
 20
63.3638734763978704
 30
0.0
  0
SEQEND
  5
2671
  8
0
  0
POLYLINE
  5
247B
  8
0
 66
     1
 10
0.0
 20
0.0
 30
0.0
  0
VERTEX
  5
2672
  8
0
 10
64.486981294707391
 20
63.3638734763978704
 30
0.0
  0
VERTEX
  5
2673
  8
0
 10
64.377334746148648
 20
63.3997814889638107
 30
0.0
  0
VERTEX
  5
2674
  8
0
 10
64.2649187779560691
 20
63.4258840234790426
 30
0.0
  0
VERTEX
  5
2675
  8
0
 10
64.150574171621912
 20
63.4416740520069027
 30
0.0
  0
VERTEX
  5
2676
  8
0
 10
64.0352566439073883
 20
63.4469326708978514
 30
0.0
  0
SEQEND
  5
2677
  8
0
  0
POLYLINE
  5
247C
  8
0
 66
     1
 10
0.0
 20
0.0
 30
0.0
  0
VERTEX
  5
2678
  8
0
 10
64.0352566439073883
 20
59.4783057042978811
 30
0.0
  0
VERTEX
  5
2679
  8
0
 10
64.1505741716218552
 20
59.4813483184808405
 30
0.0
  0
VERTEX
  5
267A
  8
0
 10
64.2649187779559838
 20
59.4905505455650072
 30
0.0
  0
VERTEX
  5
267B
  8
0
 10
64.3773347461486196
 20
59.505887202691703
 30
0.0
  0
VERTEX
  5
267C
  8
0
 10
64.486981294707391
 20
59.5271607177978623
 30
0.0
  0
SEQEND
  5
267D
  8
0
  0
POLYLINE
  5
247D
  8
0
 66
     1
 10
0.0
 20
0.0
 30
0.0
  0
VERTEX
  5
267E
  8
0
 10
64.486981294707391
 20
58.9284150065978594
 30
0.0
  0
VERTEX
  5
267F
  8
0
 10
64.377334746148648
 20
58.943049504057683
 30
0.0
  0
VERTEX
  5
2680
  8
0
 10
64.2649187779560407
 20
58.9538153814461978
 30
0.0
  0
VERTEX
  5
2681
  8
0
 10
64.1505741716219404
 20
58.9604031828898911
 30
0.0
  0
VERTEX
  5
2682
  8
0
 10
64.0352566439073883
 20
58.9626191875978733
 30
0.0
  0
SEQEND
  5
2683
  8
0
  0
POLYLINE
  5
247E
  8
0
 66
     1
 10
0.0
 20
0.0
 30
0.0
  0
VERTEX
  5
2684
  8
0
 10
66.4730399635767526
 20
57.7110788745411298
 30
0.0
  0
VERTEX
  5
2685
  8
0
 10
66.4681916737943936
 20
57.7178531241302579
 30
0.0
  0
VERTEX
  5
2686
  8
0
 10
66.4543109265935925
 20
57.7369271607017893
 30
0.0
  0
VERTEX
  5
2687
  8
0
 10
66.429272504062709
 20
57.7705767994242692
 30
0.0
  0
VERTEX
  5
2688
  8
0
 10
66.3934144643994557
 20
57.8170969097257625
 30
0.0
  0
VERTEX
  5
2689
  8
0
 10
66.3460042914438759
 20
57.8758482396943208
 30
0.0
  0
VERTEX
  5
268A
  8
0
 10
66.2868534833889385
 20
57.9451218096158414
 30
0.0
  0
VERTEX
  5
268B
  8
0
 10
66.2157673659472721
 20
58.0230472940920734
 30
0.0
  0
VERTEX
  5
268C
  8
0
 10
66.1329788758624204
 20
58.1072780361762327
 30
0.0
  0
VERTEX
  5
268D
  8
0
 10
66.0389349023370045
 20
58.1953914207200427
 30
0.0
  0
VERTEX
  5
268E
  8
0
 10
65.9342623997208932
 20
58.2850698573009112
 30
0.0
  0
VERTEX
  5
268F
  8
0
 10
65.8193112086426311
 20
58.3744955321708971
 30
0.0
  0
VERTEX
  5
2690
  8
0
 10
65.6950418032517405
 20
58.4616415571562769
 30
0.0
  0
VERTEX
  5
2691
  8
0
 10
65.562743030319325
 20
58.5446315328405973
 30
0.0
  0
VERTEX
  5
2692
  8
0
 10
65.4234110738051413
 20
58.622133242808431
 30
0.0
  0
VERTEX
  5
2693
  8
0
 10
65.2778936478434559
 20
58.6931592475589881
 30
0.0
  0
VERTEX
  5
2694
  8
0
 10
65.1268911659767014
 20
58.7568991211852989
 30
0.0
  0
VERTEX
  5
2695
  8
0
 10
64.9715742666550398
 20
58.8130715113068803
 30
0.0
  0
VERTEX
  5
2696
  8
0
 10
64.8126261911963866
 20
58.8600849082139987
 30
0.0
  0
VERTEX
  5
2697
  8
0
 10
64.6506163514968364
 20
58.8970510344372826
 30
0.0
  0
VERTEX
  5
2698
  8
0
 10
64.486981294707391
 20
58.9284150065978594
 30
0.0
  0
SEQEND
  5
2699
  8
0
  0
POLYLINE
  5
24A8
  8
0
 66
     1
 10
0.0
 20
0.0
 30
0.0
  0
VERTEX
  5
269A
  8
0
 10
64.4869791836186153
 20
35.4299314679978679
 30
0.0
  0
VERTEX
  5
269B
  8
0
 10
64.3773326350598438
 20
35.4337645066609426
 30
0.0
  0
VERTEX
  5
269C
  8
0
 10
64.2649166668672365
 20
35.4364034475731913
 30
0.0
  0
VERTEX
  5
269D
  8
0
 10
64.1505720605331078
 20
35.4379128869205218
 30
0.0
  0
VERTEX
  5
269E
  8
0
 10
64.0352545328186125
 20
35.4383901300978721
 30
0.0
  0
SEQEND
  5
269F
  8
0
  0
POLYLINE
  5
24A9
  8
0
 66
     1
 10
0.0
 20
0.0
 30
0.0
  0
VERTEX
  5
26A0
  8
0
 10
64.4869791836186153
 20
33.2148043240978907
 30
0.0
  0
VERTEX
  5
26A1
  8
0
 10
64.8918533064614564
 20
33.3660017594413532
 30
0.0
  0
VERTEX
  5
26A2
  8
0
 10
65.2767986115560745
 20
33.568665571807351
 30
0.0
  0
VERTEX
  5
26A3
  8
0
 10
65.6288026606580246
 20
33.8245374374960903
 30
0.0
  0
VERTEX
  5
26A4
  8
0
 10
65.7880281755248006
 20
33.9712543828727505
 30
0.0
  0
VERTEX
  5
26A5
  8
0
 10
65.9333757566785437
 20
34.1288078665172065
 30
0.0
  0
VERTEX
  5
26A6
  8
0
 10
66.0628565417333107
 20
34.2951664675690893
 30
0.0
  0
VERTEX
  5
26A7
  8
0
 10
66.1752711531226794
 20
34.4668488458708566
 30
0.0
  0
VERTEX
  5
26A8
  8
0
 10
66.269716056039897
 20
34.6399059393267521
 30
0.0
  0
VERTEX
  5
26A9
  8
0
 10
66.3457811081783859
 20
34.8098333541249971
 30
0.0
  0
VERTEX
  5
26AA
  8
0
 10
66.4033771095452323
 20
34.9720796807892995
 30
0.0
  0
VERTEX
  5
26AB
  8
0
 10
66.4430993564662629
 20
35.1225356524646628
 30
0.0
  0
VERTEX
  5
26AC
  8
0
 10
66.4658571267576121
 20
35.2577950808241667
 30
0.0
  0
VERTEX
  5
26AD
  8
0
 10
66.4730942660681308
 20
35.3765930811116434
 30
0.0
  0
VERTEX
  5
26AE
  8
0
 10
66.4658407631114301
 20
35.4778630821546486
 30
0.0
  0
VERTEX
  5
26AF
  8
0
 10
66.4430692744391251
 20
35.5594514370283221
 30
0.0
  0
VERTEX
  5
26B0
  8
0
 10
66.4033734081856153
 20
35.619379585965838
 30
0.0
  0
VERTEX
  5
26B1
  8
0
 10
66.3458333412388299
 20
35.6574932312056134
 30
0.0
  0
VERTEX
  5
26B2
  8
0
 10
66.2698297572216006
 20
35.6745873870594394
 30
0.0
  0
VERTEX
  5
26B3
  8
0
 10
66.1754274786615326
 20
35.6733228084637801
 30
0.0
  0
VERTEX
  5
26B4
  8
0
 10
66.0630212462100417
 20
35.6569340767991321
 30
0.0
  0
VERTEX
  5
26B5
  8
0
 10
65.9335305729336483
 20
35.6290270586637021
 30
0.0
  0
VERTEX
  5
26B6
  8
0
 10
65.6289852173740087
 20
35.5546734713368195
 30
0.0
  0
VERTEX
  5
26B7
  8
0
 10
65.276996023247591
 20
35.4827110057448181
 30
0.0
  0
VERTEX
  5
26B8
  8
0
 10
64.8920593452680237
 20
35.4355727919329269
 30
0.0
  0
VERTEX
  5
26B9
  8
0
 10
64.4869791836186153
 20
35.4299314679978679
 30
0.0
  0
SEQEND
  5
26BA
  8
0
  0
POLYLINE
  5
24AA
  8
0
 66
     1
 10
0.0
 20
0.0
 30
0.0
  0
VERTEX
  5
26BB
  8
0
 10
64.0352545328186125
 20
33.1471022825978991
 30
0.0
  0
VERTEX
  5
26BC
  8
0
 10
64.1505720605330794
 20
33.1514177585906396
 30
0.0
  0
VERTEX
  5
26BD
  8
0
 10
64.2649166668672081
 20
33.1643376047485816
 30
0.0
  0
VERTEX
  5
26BE
  8
0
 10
64.3773326350598438
 20
33.1856235922858218
 30
0.0
  0
VERTEX
  5
26BF
  8
0
 10
64.4869791836186153
 20
33.2148043240978907
 30
0.0
  0
SEQEND
  5
26C0
  8
0
  0
POLYLINE
  5
24AB
  8
0
 66
     1
 10
0.0
 20
0.0
 30
0.0
  0
VERTEX
  5
26C1
  8
0
 10
64.4869791836186153
 20
32.1777463313978629
 30
0.0
  0
VERTEX
  5
26C2
  8
0
 10
64.3773326350598438
 20
32.2107601018364917
 30
0.0
  0
VERTEX
  5
26C3
  8
0
 10
64.2649166668672649
 20
32.2346850302859806
 30
0.0
  0
VERTEX
  5
26C4
  8
0
 10
64.1505720605331078
 20
32.2491143157912532
 30
0.0
  0
VERTEX
  5
26C5
  8
0
 10
64.0352545328186125
 20
32.2539070348978782
 30
0.0
  0
SEQEND
  5
26C6
  8
0
  0
POLYLINE
  5
24AC
  8
0
 66
     1
 10
0.0
 20
0.0
 30
0.0
  0
VERTEX
  5
26C7
  8
0
 10
64.4869791836186153
 20
27.7474920434978891
 30
0.0
  0
VERTEX
  5
26C8
  8
0
 10
64.8918527852357272
 20
27.8927668969685989
 30
0.0
  0
VERTEX
  5
26C9
  8
0
 10
65.2767988872891749
 20
28.0486021178823393
 30
0.0
  0
VERTEX
  5
26CA
  8
0
 10
65.628809361607793
 20
28.2325066407055587
 30
0.0
  0
VERTEX
  5
26CB
  8
0
 10
65.9333737539410549
 20
28.4624442470786683
 30
0.0
  0
VERTEX
  5
26CC
  8
0
 10
66.0628420304942949
 20
28.6009479772114794
 30
0.0
  0
VERTEX
  5
26CD
  8
0
 10
66.1752497437762202
 20
28.7562649718699106
 30
0.0
  0
VERTEX
  5
26CE
  8
0
 10
66.2697024156162229
 20
28.92800053827537
 30
0.0
  0
VERTEX
  5
26CF
  8
0
 10
66.3457835158779119
 20
29.1149241821849216
 30
0.0
  0
VERTEX
  5
26D0
  8
0
 10
66.4033931614899444
 20
29.3151930978822293
 30
0.0
  0
VERTEX
  5
26D1
  8
0
 10
66.4431190123536908
 20
29.5255353318928613
 30
0.0
  0
VERTEX
  5
26D2
  8
0
 10
66.4730941146065959
 20
29.962495145431749
 30
0.0
  0
VERTEX
  5
26D3
  8
0
 10
66.4430633059258469
 20
30.3994364374601993
 30
0.0
  0
VERTEX
  5
26D4
  8
0
 10
66.4033691146293847
 20
30.6098029754887406
 30
0.0
  0
VERTEX
  5
26D5
  8
0
 10
66.345830483062656
 20
30.8101206690988114
 30
0.0
  0
VERTEX
  5
26D6
  8
0
 10
66.2698268541574578
 20
30.9971165072436783
 30
0.0
  0
VERTEX
  5
26D7
  8
0
 10
66.1754249530535503
 20
31.1689022160051898
 30
0.0
  0
VERTEX
  5
26D8
  8
0
 10
66.0630210973890826
 20
31.3242079663620601
 30
0.0
  0
VERTEX
  5
26D9
  8
0
 10
65.9335323652864247
 20
31.4626668715864994
 30
0.0
  0
VERTEX
  5
26DA
  8
0
 10
65.6289886008693486
 20
31.6926169334917489
 30
0.0
  0
VERTEX
  5
26DB
  8
0
 10
65.2769957513564805
 20
31.8765313923127316
 30
0.0
  0
VERTEX
  5
26DC
  8
0
 10
64.8920587079766733
 20
32.0324458741175135
 30
0.0
  0
VERTEX
  5
26DD
  8
0
 10
64.4869791836186153
 20
32.1777463313978629
 30
0.0
  0
SEQEND
  5
26DE
  8
0
  0
POLYLINE
  5
24AD
  8
0
 66
     1
 10
0.0
 20
0.0
 30
0.0
  0
VERTEX
  5
26DF
  8
0
 10
64.0352545328186125
 20
27.6713313399978702
 30
0.0
  0
VERTEX
  5
26E0
  8
0
 10
64.1505720605330794
 20
27.6761240591314994
 30
0.0
  0
VERTEX
  5
26E1
  8
0
 10
64.2649166668672081
 20
27.6905533446367293
 30
0.0
  0
VERTEX
  5
26E2
  8
0
 10
64.3773326350598438
 20
27.7144782730862111
 30
0.0
  0
VERTEX
  5
26E3
  8
0
 10
64.4869791836186153
 20
27.7474920434978891
 30
0.0
  0
SEQEND
  5
26E4
  8
0
  0
POLYLINE
  5
24AE
  8
0
 66
     1
 10
0.0
 20
0.0
 30
0.0
  0
VERTEX
  5
26E5
  8
0
 10
64.4869791836186153
 20
26.7104340507978897
 30
0.0
  0
VERTEX
  5
26E6
  8
0
 10
64.3773326350598722
 20
26.7396147826368384
 30
0.0
  0
VERTEX
  5
26E7
  8
0
 10
64.2649166668672649
 20
26.7609007701740786
 30
0.0
  0
VERTEX
  5
26E8
  8
0
 10
64.1505720605331646
 20
26.7738206163320598
 30
0.0
  0
VERTEX
  5
26E9
  8
0
 10
64.0352545328186125
 20
26.7781360922978706
 30
0.0
  0
SEQEND
  5
26EA
  8
0
  0
POLYLINE
  5
24AF
  8
0
 66
     1
 10
0.0
 20
0.0
 30
0.0
  0
VERTEX
  5
26EB
  8
0
 10
64.4869791836186153
 20
24.4953069068978699
 30
0.0
  0
VERTEX
  5
26EC
  8
0
 10
64.8918533064613996
 20
24.4893821553465507
 30
0.0
  0
VERTEX
  5
26ED
  8
0
 10
65.276798611556103
 20
24.4425550663173183
 30
0.0
  0
VERTEX
  5
26EE
  8
0
 10
65.6288026606582662
 20
24.3706050625458488
 30
0.0
  0
VERTEX
  5
26EF
  8
0
 10
65.9333757566785721
 20
24.2962562487643616
 30
0.0
  0
VERTEX
  5
26F0
  8
0
 10
66.0628565417331117
 20
24.2683810280925094
 30
0.0
  0
VERTEX
  5
26F1
  8
0
 10
66.1752711531223952
 20
24.2520033107235697
 30
0.0
  0
VERTEX
  5
26F2
  8
0
 10
66.2697160560397265
 20
24.2506885209640011
 30
0.0
  0
VERTEX
  5
26F3
  8
0
 10
66.3457811081784428
 20
24.2677004359452511
 30
0.0
  0
VERTEX
  5
26F4
  8
0
 10
66.4033771095454313
 20
24.3057333476759716
 30
0.0
  0
VERTEX
  5
26F5
  8
0
 10
66.4430993564664618
 20
24.3656226314628483
 30
0.0
  0
VERTEX
  5
26F6
  8
0
 10
66.4658571267576406
 20
24.4472287373942088
 30
0.0
  0
VERTEX
  5
26F7
  8
0
 10
66.4730942660681308
 20
24.5485215624302811
 30
0.0
  0
VERTEX
  5
26F8
  8
0
 10
66.4658407631117427
 20
24.6673342414289785
 30
0.0
  0
VERTEX
  5
26F9
  8
0
 10
66.443069274439722
 20
24.8026074164521404
 30
0.0
  0
VERTEX
  5
26FA
  8
0
 10
66.40337340818607
 20
24.953045069928681
 30
0.0
  0
VERTEX
  5
26FB
  8
0
 10
66.3458333412388868
 20
25.1152493121869291
 30
0.0
  0
VERTEX
  5
26FC
  8
0
 10
66.2698297572213733
 20
25.2851514545228788
 30
0.0
  0
VERTEX
  5
26FD
  8
0
 10
66.1754274786612342
 20
25.4582005387621493
 30
0.0
  0
VERTEX
  5
26FE
  8
0
 10
66.0630212462098712
 20
25.6298916737764415
 30
0.0
  0
VERTEX
  5
26FF
  8
0
 10
65.9335305729336483
 20
25.7962561613165491
 30
0.0
  0
VERTEX
  5
2700
  8
0
 10
65.7881812856056172
 20
25.953810789900551
 30
0.0
  0
VERTEX
  5
2701
  8
0
 10
65.6289852173741792
 20
26.1005557800311507
 30
0.0
  0
VERTEX
  5
2702
  8
0
 10
65.2769960232476194
 20
26.3564442819415383
 30
0.0
  0
VERTEX
  5
2703
  8
0
 10
64.8920593452679668
 20
26.5594970228978902
 30
0.0
  0
VERTEX
  5
2704
  8
0
 10
64.4869791836186153
 20
26.7104340507978897
 30
0.0
  0
SEQEND
  5
2705
  8
0
  0
POLYLINE
  5
24B0
  8
0
 66
     1
 10
0.0
 20
0.0
 30
0.0
  0
VERTEX
  5
2706
  8
0
 10
64.0352545328186125
 20
24.4868482447978693
 30
0.0
  0
VERTEX
  5
2707
  8
0
 10
64.1505720605330794
 20
24.4873254880021918
 30
0.0
  0
VERTEX
  5
2708
  8
0
 10
64.2649166668672365
 20
24.4888349273494796
 30
0.0
  0
VERTEX
  5
2709
  8
0
 10
64.3773326350598438
 20
24.4914738682617106
 30
0.0
  0
VERTEX
  5
270A
  8
0
 10
64.4869791836186153
 20
24.4953069068978699
 30
0.0
  0
SEQEND
  5
270B
  8
0
  0
LINE
  5
24C5
  8
2
 10
59.7352566439073414
 20
61.5041191875978512
 30
0.0
 11
67.3937566439073521
 21
61.5041191875978512
 31
0.0
  0
LINE
  5
24C6
  8
2
 10
67.3937566439073521
 20
66.4211191875978813
 30
0.0
 11
59.7352566439073414
 21
66.4211191875978813
 31
0.0
  0
LINE
  5
24C7
  8
2
 10
58.3724878409107006
 20
63.9626191875978733
 30
0.0
 11
59.7352566439073414
 21
61.5041191875978512
 31
0.0
  0
LINE
  5
24C8
  8
2
 10
59.7352566439073414
 20
66.4211191875978813
 30
0.0
 11
58.3724878409107006
 21
63.9626191875978733
 31
0.0
  0
LINE
  5
24C9
  8
2
 10
59.7352566439073414
 20
66.4211191875978813
 30
0.0
 11
59.7352566439073414
 21
61.5041191875978512
 31
0.0
  0
LINE
  5
24CA
  8
2
 10
67.3937566439073521
 20
61.5041191875978512
 30
0.0
 11
67.9352566439073939
 21
60.9626191875978591
 31
0.0
  0
LINE
  5
24CB
  8
2
 10
67.9352566439073939
 20
66.9626191875978662
 30
0.0
 11
67.3937566439073521
 21
66.4211191875978813
 31
0.0
  0
LINE
  5
24CC
  8
2
 10
67.3937566439073521
 20
66.4211191875978813
 30
0.0
 11
67.3937566439073521
 21
61.5041191875978512
 31
0.0
  0
LINE
  5
24CD
  8
2
 10
67.9352566439073939
 20
66.9626191875978662
 30
0.0
 11
60.7352566439073485
 21
66.9626191875978662
 31
0.0
  0
LINE
  5
24CE
  8
2
 10
60.7352566439074266
 20
60.9626191875978591
 30
0.0
 11
60.7352566439073485
 21
66.9626191875978662
 31
0.0
  0
LINE
  5
24CF
  8
2
 10
67.9352566439073939
 20
60.9626191875978591
 30
0.0
 11
60.7352566439073485
 21
60.9626191875978591
 31
0.0
  0
LINE
  5
24D0
  8
2
 10
59.7352545328185727
 20
27.504119187597869
 30
0.0
 11
67.3937545328185763
 21
27.504119187597869
 31
0.0
  0
LINE
  5
24D1
  8
2
 10
67.3937545328185763
 20
32.4211191875978884
 30
0.0
 11
59.7352545328185727
 21
32.4211191875978884
 31
0.0
  0
LINE
  5
24D2
  8
2
 10
58.372485729821932
 20
29.9626191875978805
 30
0.0
 11
59.7352545328185727
 21
27.504119187597869
 31
0.0
  0
LINE
  5
24D3
  8
2
 10
59.7352545328185727
 20
32.4211191875978884
 30
0.0
 11
58.372485729821932
 21
29.9626191875978805
 31
0.0
  0
LINE
  5
24D4
  8
2
 10
59.7352545328185727
 20
32.4211191875978884
 30
0.0
 11
59.7352545328185727
 21
27.504119187597869
 31
0.0
  0
LINE
  5
24D5
  8
2
 10
67.3937545328185763
 20
27.504119187597869
 30
0.0
 11
67.9352545328186181
 21
26.9626191875978805
 31
0.0
  0
LINE
  5
24D6
  8
2
 10
67.9352545328186181
 20
32.9626191875978805
 30
0.0
 11
67.3937545328185763
 21
32.4211191875978884
 31
0.0
  0
LINE
  5
24D7
  8
2
 10
67.3937545328185763
 20
32.4211191875978884
 30
0.0
 11
67.3937545328185763
 21
27.504119187597869
 31
0.0
  0
LINE
  5
24D8
  8
2
 10
67.9352545328186181
 20
32.9626191875978805
 30
0.0
 11
60.7352545328185727
 21
32.9626191875978805
 31
0.0
  0
LINE
  5
24D9
  8
2
 10
60.7352545328186579
 20
26.9626191875978805
 30
0.0
 11
60.7352545328185727
 21
32.9626191875978805
 31
0.0
  0
LINE
  5
24DA
  8
2
 10
67.9352545328186181
 20
26.9626191875978805
 30
0.0
 11
60.7352545328185727
 21
26.9626191875978805
 31
0.0
  0
ENDSEC
  0
EOF
