  0
SECTION
  2
HEADER
  9
$ACADVER
  1
AC1009
  9
$INSBASE
 10
0.0
 20
0.0
 30
0.0
  9
$EXTMIN
 10
0.0
 20
-1.4802182810368341
 30
0.0
  9
$EXTMAX
 10
66.8352545328186238
 20
67.6649936353440467
 30
0.0
  9
$LIMMIN
 10
0.0
 20
0.0
  9
$LIMMAX
 10
375.0
 20
270.0
  9
$ORTHOMODE
 70
     1
  9
$REGENMODE
 70
     1
  9
$FILLMODE
 70
     1
  9
$QTEXTMODE
 70
     0
  9
$MIRRTEXT
 70
     0
  9
$DRAGMODE
 70
     2
  9
$LTSCALE
 40
3.0
  9
$OSMODE
 70
    37
  9
$ATTMODE
 70
     1
  9
$TEXTSIZE
 40
0.2
  9
$TRACEWID
 40
0.05
  9
$TEXTSTYLE
  7
STANDARD
  9
$CLAYER
  8
0
  9
$CELTYPE
  6
BYLAYER
  9
$CECOLOR
 62
   256
  9
$DIMSCALE
 40
1.0
  9
$DIMASZ
 40
3.0
  9
$DIMEXO
 40
2.0
  9
$DIMDLI
 40
0.38
  9
$DIMRND
 40
0.0
  9
$DIMDLE
 40
0.0
  9
$DIMEXE
 40
2.0
  9
$DIMTP
 40
0.0
  9
$DIMTM
 40
0.0
  9
$DIMTXT
 40
3.2000000000000002
  9
$DIMCEN
 40
0.09
  9
$DIMTSZ
 40
0.0
  9
$DIMTOL
 70
     0
  9
$DIMLIM
 70
     0
  9
$DIMTIH
 70
     0
  9
$DIMTOH
 70
     0
  9
$DIMSE1
 70
     0
  9
$DIMSE2
 70
     0
  9
$DIMTAD
 70
     1
  9
$DIMZIN
 70
     8
  9
$DIMBLK
  1

  9
$DIMASO
 70
     1
  9
$DIMSHO
 70
     0
  9
$DIMPOST
  1

  9
$DIMAPOST
  1

  9
$DIMALT
 70
     0
  9
$DIMALTD
 70
     2
  9
$DIMALTF
 40
25.3999999999999986
  9
$DIMLFAC
 40
1.0
  9
$DIMTOFL
 70
     1
  9
$DIMTVP
 40
1.6000000000000001
  9
$DIMTIX
 70
     1
  9
$DIMSOXD
 70
     0
  9
$DIMSAH
 70
     0
  9
$DIMBLK1
  1

  9
$DIMBLK2
  1

  9
$DIMSTYLE
  2
STANDARD
  9
$DIMCLRD
 70
   256
  9
$DIMCLRE
 70
   256
  9
$DIMCLRT
 70
   256
  9
$DIMTFAC
 40
1.0
  9
$DIMGAP
 40
1.0
  9
$LUNITS
 70
     2
  9
$LUPREC
 70
     1
  9
$SKETCHINC
 40
0.1
  9
$FILLETRAD
 40
0.0
  9
$AUNITS
 70
     0
  9
$AUPREC
 70
     0
  9
$MENU
  1
E:\r13\win\SUPPORT\ACAD
  9
$ELEVATION
 40
0.0
  9
$PELEVATION
 40
0.0
  9
$THICKNESS
 40
0.0
  9
$LIMCHECK
 70
     0
  9
$BLIPMODE
 70
     0
  9
$CHAMFERA
 40
0.0
  9
$CHAMFERB
 40
0.0
  9
$SKPOLY
 70
     0
  9
$TDCREATE
 40
2449839.7822916670702398
  9
$TDUPDATE
 40
2460864.3917939821258187
  9
$TDINDWG
 40
0.2993210764
  9
$TDUSRTIMER
 40
0.2993210764
  9
$USRTIMER
 70
     1
  9
$ANGBASE
 50
0.0
  9
$ANGDIR
 70
     0
  9
$PDMODE
 70
     0
  9
$PDSIZE
 40
0.0
  9
$PLINEWID
 40
0.0
  9
$COORDS
 70
     1
  9
$SPLFRAME
 70
     0
  9
$SPLINETYPE
 70
     6
  9
$SPLINESEGS
 70
     8
  9
$ATTDIA
 70
     1
  9
$ATTREQ
 70
     1
  9
$HANDLING
 70
     1
  9
$HANDSEED
  5
2100
  9
$SURFTAB1
 70
     6
  9
$SURFTAB2
 70
     6
  9
$SURFTYPE
 70
     6
  9
$SURFU
 70
     6
  9
$SURFV
 70
     6
  9
$UCSNAME
  2

  9
$UCSORG
 10
0.0
 20
0.0
 30
0.0
  9
$UCSXDIR
 10
1.0
 20
0.0
 30
0.0
  9
$UCSYDIR
 10
0.0
 20
1.0
 30
0.0
  9
$PUCSNAME
  2

  9
$PUCSORG
 10
0.0
 20
0.0
 30
0.0
  9
$PUCSXDIR
 10
1.0
 20
0.0
 30
0.0
  9
$PUCSYDIR
 10
0.0
 20
1.0
 30
0.0
  9
$USERI1
 70
     0
  9
$USERI2
 70
     1
  9
$USERI3
 70
     1
  9
$USERI4
 70
     0
  9
$USERI5
 70
     0
  9
$USERR1
 40
0.0
  9
$USERR2
 40
0.0
  9
$USERR3
 40
0.0
  9
$USERR4
 40
0.0
  9
$USERR5
 40
0.0
  9
$WORLDVIEW
 70
     1
  9
$SHADEDGE
 70
     3
  9
$SHADEDIF
 70
    70
  9
$TILEMODE
 70
     1
  9
$MAXACTVP
 70
    16
  9
$PLIMCHECK
 70
     0
  9
$PEXTMIN
 10
1.0000000000000000E+20
 20
1.0000000000000000E+20
 30
1.0000000000000000E+20
  9
$PEXTMAX
 10
-1.0000000000000000E+20
 20
-1.0000000000000000E+20
 30
-1.0000000000000000E+20
  9
$PLIMMIN
 10
0.0
 20
0.0
  9
$PLIMMAX
 10
12.0
 20
9.0
  9
$UNITMODE
 70
     0
  9
$VISRETAIN
 70
     0
  9
$PLINEGEN
 70
     0
  9
$PSLTSCALE
 70
     0
  0
ENDSEC
  0
SECTION
  2
TABLES
  0
TABLE
  2
VPORT
 70
     1
  0
VPORT
  2
*ACTIVE
 70
     0
 10
0.0
 20
0.0
 11
1.0
 21
1.0
 12
143.9655172413793025
 22
61.3004719454640679
 13
0.0
 23
0.0
 14
10.0
 24
10.0
 15
10.0
 25
10.0
 16
0.0
 26
0.0
 36
1.0
 17
0.0
 27
0.0
 37
0.0
 40
122.6009438909280931
 41
2.3485221674876842
 42
50.0
 43
0.0
 44
0.0
 50
0.0
 51
0.0
 71
     0
 72
   500
 73
     1
 74
     0
 75
     0
 76
     0
 77
     0
 78
     2
  0
ENDTAB
  0
TABLE
  2
LTYPE
 70
     4
  0
LTYPE
  2
CONTINUOUS
 70
     0
  3
Solid Line
 72
    65
 73
     0
 40
0.0
  0
LTYPE
  2
CENTER
 70
     0
  3
____ _ ____ _ ____ _ ____ _ ____ _ ____ _ ____
 72
    65
 73
     4
 40
2.0
 49
1.25
 49
-0.25
 49
0.25
 49
-0.25
  0
LTYPE
  2
HIDDEN
 70
     0
  3
_ _ _ _ _ _ _ _ _ _ _ _ _ _ _ _ _ _ _ _ _ _ _
 72
    65
 73
     2
 40
0.375
 49
0.25
 49
-0.125
  0
LTYPE
  2
PHANTOM2
 70
     0
  3
___ _ _ ___ _ _ ___ _ _ ___ _ _
 72
    65
 73
     6
 40
1.25
 49
0.625
 49
-0.125
 49
0.125
 49
-0.125
 49
0.125
 49
-0.125
  0
ENDTAB
  0
TABLE
  2
LAYER
 70
     4
  0
LAYER
  2
0
 70
     0
 62
     7
  6
CONTINUOUS
  0
LAYER
  2
1
 70
     0
 62
     1
  6
CENTER
  0
LAYER
  2
2
 70
     0
 62
     2
  6
HIDDEN
  0
LAYER
  2
DEFPOINTS
 70
     0
 62
     7
  6
CONTINUOUS
  0
ENDTAB
  0
TABLE
  2
STYLE
 70
     2
  0
STYLE
  2
STANDARD
 70
     0
 40
0.0
 41
1.0
 50
0.0
 71
     0
 42
0.2
  3
TXT
  4
BIGFONT
  0
STYLE
  2
STANDARD1
 70
     0
 40
0.0
 41
1.0
 50
0.0
 71
     0
 42
3.0
  3
txt
  4

  0
ENDTAB
  0
TABLE
  2
VIEW
 70
     1
  0
VIEW
  2
ALL
 70
     0
 40
270.0
 10
220.9915966386554942
 20
135.0
 41
0.0
 11
0.0
 21
0.0
 31
1.0
 12
0.0
 22
0.0
 32
0.0
 42
0.0
 43
0.0
 44
0.0
 50
0.0
 71
     0
  0
ENDTAB
  0
TABLE
  2
UCS
 70
     0
  0
ENDTAB
  0
TABLE
  2
APPID
 70
    10
  0
APPID
  2
ACAD
 70
     0
  0
APPID
  2
ACAD_MLEADERVER
 70
     0
  0
APPID
  2
ACAD_NAV_VCDISPLAY
 70
     0
  0
APPID
  2
ACAD_EXEMPT_FROM_CAD_STANDARDS
 70
     0
  0
APPID
  2
ACAD_DSTYLE_DIMJAG
 70
     0
  0
APPID
  2
ACAD_DSTYLE_DIMTALN
 70
     0
  0
APPID
  2
ACAECLAYERSTANDARD
 70
     0
  0
APPID
  2
ACCMTRANSPARENCY
 70
     0
  0
APPID
  2
DCO15
 70
     0
  0
APPID
  2
ACAD_TC
 70
     0
  0
ENDTAB
  0
TABLE
  2
DIMSTYLE
 70
     1
  0
DIMSTYLE
  2
STANDARD
 70
     0
  3

  4

  5

  6

  7

 40
1.0
 41
0.18
 42
0.0625
 43
0.38
 44
0.18
 45
0.0
 46
0.0
 47
0.0
 48
0.0
140
0.18
141
0.09
142
0.0
143
25.3999999999999986
144
1.0
145
0.0
146
1.0
147
0.09
 71
     0
 72
     0
 73
     1
 74
     1
 75
     0
 76
     0
 77
     0
 78
     0
170
     0
171
     2
172
     0
173
     0
174
     0
175
     0
176
     0
177
     0
178
     0
  0
ENDTAB
  0
ENDSEC
  0
SECTION
  2
BLOCKS
  0
BLOCK
  8
0
  2
$MODEL_SPACE
 70
     0
 10
0.0
 20
0.0
 30
0.0
  3
$MODEL_SPACE
  1

  0
ENDBLK
  5
10E
  8
0
  0
BLOCK
 67
     1
  8
0
  2
$PAPER_SPACE
 70
     0
 10
0.0
 20
0.0
 30
0.0
  3
$PAPER_SPACE
  1

  0
ENDBLK
  5
10C
 67
     1
  8
0
  0
ENDSEC
  0
SECTION
  2
ENTITIES
  0
TEXT
  5
4DC
  8
0
 62
     3
 10
0.0
 20
0.0
 30
0.0
 40
5.0
  1
HD-SN-M5
  7
STANDARD1
  0
ARC
  5
193C
  8
0
 10
64.3362884541006395
 20
67.1660159945530211
 30
0.0
 40
0.4989776407910196
 50
359.6099540431890773
 51
146.5316092952423901
  0
ARC
  5
193D
  8
0
 10
64.336067980279978
 20
56.3599467170578166
 30
0.0
 40
0.4991937062240916
 50
213.5516979980293115
 51
0.3067386599954403
  0
ARC
  5
193E
  8
0
 10
61.4335032232920426
 20
69.1087928387196371
 30
0.0
 40
2.9939594437105379
 50
315.6322713387937142
 51
326.1521841248037958
  0
ARC
  5
193F
  8
0
 10
61.4292420172613518
 20
54.4129815750644923
 30
0.0
 40
2.9994278904783198
 50
33.8574327868297118
 51
44.3560846382724705
  0
ARC
  5
1940
  8
0
 10
73.8420265234550754
 20
61.7626191875824588
 30
0.0
 40
20.0066352145024915
 50
168.4669197454419987
 51
191.5330802550365945
  0
LINE
  5
1941
  8
0
 10
64.8352545328186238
 20
67.1626191874978531
 30
0.0
 11
64.8352545328186238
 21
56.3626191874978488
 31
0.0
  0
LINE
  5
1942
  8
0
 10
61.4287962069186335
 20
65.7770148456978774
 30
0.0
 11
61.4287962069186335
 21
65.2207979345978544
 31
0.0
  0
LINE
  5
1945
  8
0
 10
61.4287962069186335
 20
58.3044404403978618
 30
0.0
 11
61.4287962069186335
 21
57.7482235292978672
 31
0.0
  0
LINE
  5
1947
  8
0
 10
61.4287962069186335
 20
62.3188360985978491
 30
0.0
 11
61.4287962069186335
 21
61.2064022763978599
 31
0.0
  0
LINE
  5
194A
  8
0
 10
61.1352545328186281
 20
65.2431174143978723
 30
0.0
 11
61.1352545328186281
 21
62.2821209605978794
 31
0.0
  0
LINE
  5
194D
  8
0
 10
61.1352545328186281
 20
61.2431174143978723
 30
0.0
 11
61.1352545328186281
 21
58.2821209605978794
 31
0.0
  0
LINE
  5
194F
  8
0
 10
61.1352545328186281
 20
61.2431174143978723
 30
0.0
 11
54.3140481152186396
 21
61.2431174143978723
 31
0.0
  0
LINE
  5
1950
  8
0
 10
54.3140481152186396
 20
62.2821209605978794
 30
0.0
 11
54.3140481152186396
 21
61.2431174143978723
 31
0.0
  0
LINE
  5
1951
  8
0
 10
54.3140481152186396
 20
62.2821209605978794
 30
0.0
 11
61.1352545328186281
 21
62.2821209605978794
 31
0.0
  0
ARC
  5
1952
  8
0
 10
68.9531411002915604
 20
59.7626191874978829
 30
0.0
 40
14.7137662896168493
 50
174.225129726804397
 51
185.7748702731952903
  0
LINE
  5
1953
  8
0
 10
54.3140481152186396
 20
58.2821209605978794
 30
0.0
 11
54.3140481152186396
 21
57.76261918749789
 31
0.0
  0
LINE
  5
1954
  8
0
 10
54.2393365905186329
 20
57.76261918749789
 30
0.0
 11
61.1352545328186281
 21
57.76261918749789
 31
0.0
  0
LINE
  5
1955
  8
0
 10
61.1352545328186281
 20
65.76261918749789
 30
0.0
 11
54.2393365905186329
 21
65.76261918749789
 31
0.0
  0
LINE
  5
1956
  8
0
 10
54.3140481152186396
 20
65.76261918749789
 30
0.0
 11
54.3140481152186396
 21
65.2431174143978723
 31
0.0
  0
ARC
  5
1957
  8
0
 10
68.9535877565716078
 20
63.7626191874978616
 30
0.0
 40
14.7142106791563592
 50
174.2253047288579921
 51
185.7746952711418942
  0
LINE
  5
1958
  8
0
 10
61.1352545328186281
 20
65.2431174143978723
 30
0.0
 11
54.3140481152186396
 21
65.2431174143978723
 31
0.0
  0
LINE
  5
1959
  8
0
 10
54.3140481152186396
 20
58.2821209605978794
 30
0.0
 11
61.1352545328186281
 21
58.2821209605978794
 31
0.0
  0
LINE
  5
195E
  8
0
 10
63.9200462005173904
 20
67.4411906160673453
 30
0.0
 11
63.9200462005521715
 21
56.0840477589260971
 31
0.0
  0
CIRCLE
  5
195F
  8
0
 10
29.9352545328185613
 20
29.9626191874978893
 30
0.0
 40
5.900000000000019
  0
LINE
  5
1960
  8
0
 10
26.4547563059185507
 20
27.3532836221979103
 30
0.0
 11
29.4157527597185506
 21
25.6437515224979009
 31
0.0
  0
ARC
  5
1961
  8
0
 10
30.7122420933872888
 20
30.4112131650664814
 30
0.0
 40
5.2418621042189431
 50
204.3122880520083982
 51
215.6877119552333113
  0
LINE
  5
1962
  8
0
 10
25.9352545328185613
 20
31.6721512871979094
 30
0.0
 11
25.9352545328185613
 21
28.2530870876978888
 31
0.0
  0
ARC
  5
1963
  8
0
 10
29.9667790441316697
 20
29.9444185020507803
 30
0.0
 40
4.3861430052143451
 50
143.1978288731527016
 51
156.8021711196059016
  0
LINE
  5
1964
  8
0
 10
29.4157527597185506
 20
34.281486852497892
 30
0.0
 11
26.4547563059185507
 21
32.5719547526979127
 31
0.0
  0
ARC
  5
1965
  8
0
 10
29.9352545328186217
 20
29.9589642650917014
 30
0.0
 40
4.3536287865286223
 50
83.1467854591583233
 51
96.8532145408433109
  0
LINE
  5
1966
  8
0
 10
33.4157527597185435
 20
32.5719547526979127
 30
0.0
 11
30.4547563059185507
 21
34.281486852497892
 31
0.0
  0
ARC
  5
1967
  8
0
 10
29.9926123959796804
 20
29.9957347648871284
 30
0.0
 40
4.284250153230321
 50
23.0352599091142807
 51
36.9647400981285728
  0
LINE
  5
1968
  8
0
 10
33.9352545328185613
 20
28.2530870876978888
 30
0.0
 11
33.9352545328185613
 21
31.6721512871979094
 31
0.0
  0
ARC
  5
1969
  8
0
 10
29.9255511969819601
 20
29.9682214113078089
 30
0.0
 40
4.3611244638790003
 50
323.1586207600884109
 51
336.8413792326689986
  0
LINE
  5
196A
  8
0
 10
30.4547563059185507
 20
25.6437515224979009
 30
0.0
 11
33.4157527597185435
 21
27.3532836221979103
 31
0.0
  0
ARC
  5
196B
  8
0
 10
29.9352545328185613
 20
29.9660394757203115
 30
0.0
 40
4.3533958288703394
 50
263.1464169728126876
 51
276.8535830271871987
  0
CIRCLE
  5
1972
  8
0
 10
29.9352545328185613
 20
29.9626191874978893
 30
0.0
 40
5.6785714285714164
  0
ARC
  5
1973
  8
0
 10
64.338096393959944
 20
35.3719557334640697
 30
0.0
 40
0.4972458005138069
 50
358.9241213681459044
 51
147.2174419702865862
  0
ARC
  5
1974
  8
0
 10
64.3363618312981771
 20
24.5589813094515286
 30
0.0
 40
0.4989059648760822
 50
213.440648729675388
 51
0.4177879891824923
  0
ARC
  5
1975
  8
0
 10
61.4287977854095786
 20
37.3126162273290305
 30
0.0
 40
2.999997040081555
 50
269.9999698530119758
 51
326.1415934885559977
  0
ARC
  5
1976
  8
0
 10
61.4292219237806307
 20
22.6134174636183616
 30
0.0
 40
2.999201753843419
 50
33.8503039012672602
 51
90.0081327571628691
  0
ARC
  5
1977
  8
0
 10
73.8353427161115405
 20
29.9626191871644387
 30
0.0
 40
20.0000860722042795
 50
167.4378166758912982
 51
192.5621833236340024
  0
LINE
  5
1978
  8
0
 10
61.4287962069185483
 20
34.3126191872478898
 30
0.0
 11
54.3140481152185473
 21
34.3126191872478898
 31
0.0
  0
LINE
  5
1979
  8
0
 10
54.3140481152185473
 20
25.6126191872479012
 30
0.0
 11
61.4287962069185483
 21
25.6126191872479012
 31
0.0
  0
LINE
  5
197A
  8
0
 10
64.835254532818567
 20
35.3626191872479012
 30
0.0
 11
64.835254532818567
 21
24.5626191877478917
 31
0.0
  0
LINE
  5
197B
  8
0
 10
61.4287962069185483
 20
28.2871707400478911
 30
0.0
 11
61.4287962069185483
 21
27.3237747899478904
 31
0.0
  0
LINE
  5
197D
  8
0
 10
61.4287962069185483
 20
32.6014635845479006
 30
0.0
 11
61.4287962069185483
 21
31.6380676344478786
 31
0.0
  0
LINE
  5
1981
  8
0
 10
61.1352545328185499
 20
28.2530870875479003
 30
0.0
 11
61.1352545328185499
 21
31.6721512869479014
 31
0.0
  0
LINE
  5
1984
  8
0
 10
61.1352545328185499
 20
32.571954752547903
 30
0.0
 11
61.1352545328185499
 21
34.2814868522478875
 31
0.0
  0
LINE
  5
1987
  8
0
 10
61.1352545328185499
 20
27.3532836219478703
 30
0.0
 11
61.1352545328185499
 21
25.6437515222479
 31
0.0
  0
LINE
  5
1989
  8
0
 10
61.1352545328185499
 20
27.3532836219478703
 30
0.0
 11
54.3140481152185473
 21
27.3532836219478703
 31
0.0
  0
LINE
  5
198A
  8
0
 10
54.3140481152185473
 20
28.2530870875479003
 30
0.0
 11
54.3140481152185473
 21
27.3532836219478703
 31
0.0
  0
LINE
  5
198B
  8
0
 10
54.3140481152185473
 20
28.2530870875479003
 30
0.0
 11
61.1352545328185499
 21
28.2530870875479003
 31
0.0
  0
LINE
  5
198C
  8
0
 10
61.1352545328185499
 20
31.6721512869479014
 30
0.0
 11
54.3140481152185473
 21
31.6721512869479014
 31
0.0
  0
LINE
  5
198D
  8
0
 10
54.3140481152185473
 20
32.571954752547903
 30
0.0
 11
54.3140481152185473
 21
31.6721512869479014
 31
0.0
  0
LINE
  5
198E
  8
0
 10
54.3140481152185473
 20
32.571954752547903
 30
0.0
 11
61.1352545328185499
 21
32.571954752547903
 31
0.0
  0
LINE
  5
198F
  8
0
 10
54.3140481152185473
 20
34.3126191872478898
 30
0.0
 11
54.3140481152185473
 21
34.2814868522478875
 31
0.0
  0
ARC
  5
1990
  8
0
 10
59.173538025426609
 20
33.4267208023979023
 30
0.0
 40
4.9340923367312497
 50
170.0239366749445082
 51
189.9760633250556907
  0
ARC
  5
1991
  8
0
 10
73.8352551612890409
 20
29.9626191872478991
 30
0.0
 40
19.5959185683002985
 50
174.9952004366070071
 51
185.0047995633929929
  0
ARC
  5
1992
  8
0
 10
59.1710045926716575
 20
26.4985175720978816
 30
0.0
 40
4.931597228469685
 50
170.0188376820586029
 51
189.9811623179413118
  0
LINE
  5
1993
  8
0
 10
54.3140481152185473
 20
25.6437515222479
 30
0.0
 11
54.3140481152185473
 21
25.6126191872479012
 31
0.0
  0
LINE
  5
1994
  8
0
 10
61.1352545328185499
 20
34.2814868522478875
 30
0.0
 11
54.3140481152185473
 21
34.2814868522478875
 31
0.0
  0
LINE
  5
1995
  8
0
 10
54.3140481152185473
 20
25.6437515222479
 30
0.0
 11
61.1352545328185499
 21
25.6437515222479
 31
0.0
  0
LINE
  5
1996
  8
0
 10
63.9200462005185628
 20
35.641190615847897
 30
0.0
 11
63.9200462005185628
 21
24.2840477586478904
 31
0.0
  0
LINE
  5
1997
  8
0
 10
61.4287962069185483
 20
34.3126191872478898
 30
0.0
 11
61.4287962069185483
 21
34.2769120316479032
 31
0.0
  0
LINE
  5
1998
  8
0
 10
61.4287962069185483
 20
25.6483263427478789
 30
0.0
 11
61.4287962069185483
 21
25.6126191872479012
 31
0.0
  0
LINE
  5
1999
  8
1
 10
29.9352545328185613
 20
37.8626191874979128
 30
0.0
 11
29.9352545328185613
 21
22.0626191874978694
 31
0.0
  0
LINE
  5
199A
  8
1
 10
37.835254532818567
 20
29.9626191874978893
 30
0.0
 11
22.0352545328185592
 21
29.9626191874978893
 31
0.0
  0
LINE
  5
19A2
  8
1
 10
66.835254532818567
 20
29.9626191874978893
 30
0.0
 11
51.8352566439072504
 21
29.9626191874978893
 31
0.0
  0
LINE
  5
19A3
  8
1
 10
66.8352545328186238
 20
61.7626191874978616
 30
0.0
 11
51.8353913089525804
 21
61.7626191874978616
 31
0.0
  0
POLYLINE
  5
1B33
  8
0
 66
     1
 10
0.0
 20
0.0
 30
0.0
  0
VERTEX
  5
1F83
  8
0
 10
29.3790376216809399
 20
34.2769120319159128
 30
0.0
  0
VERTEX
  5
1F84
  8
0
 10
29.264010080855801
 20
34.2867838965900731
 30
0.0
  0
VERTEX
  5
1F85
  8
0
 10
29.1210125415595087
 20
34.3407465234795808
 30
0.0
  0
VERTEX
  5
1F86
  8
0
 10
28.9398782926644493
 20
34.4284729058080003
 30
0.0
  0
VERTEX
  5
1F87
  8
0
 10
28.7124111020017985
 20
34.5360596114545331
 30
0.0
  0
VERTEX
  5
1F88
  8
0
 10
28.5777274806899584
 20
34.5900099594657533
 30
0.0
  0
VERTEX
  5
1F89
  8
0
 10
28.4277502604587085
 20
34.6388319506946729
 30
0.0
  0
VERTEX
  5
1F8A
  8
0
 10
28.2621442528758813
 20
34.6769340315403127
 30
0.0
  0
VERTEX
  5
1F8B
  8
0
 10
28.0814354313893091
 20
34.6965861689854407
 30
0.0
  0
VERTEX
  5
1F8C
  8
0
 10
27.8898816601555701
 20
34.6921157169403926
 30
0.0
  0
VERTEX
  5
1F8D
  8
0
 10
27.6927582670654395
 20
34.6606182684566093
 30
0.0
  0
VERTEX
  5
1F8E
  8
0
 10
27.4963667514313386
 20
34.6008176738506208
 30
0.0
  0
VERTEX
  5
1F8F
  8
0
 10
27.3090436219049195
 20
34.5117675662610424
 30
0.0
  0
VERTEX
  5
1F90
  8
0
 10
27.1383763835195886
 20
34.3940406141833179
 30
0.0
  0
VERTEX
  5
1F91
  8
0
 10
26.9885005906487301
 20
34.2540416462878881
 30
0.0
  0
VERTEX
  5
1F92
  8
0
 10
26.8625932476374487
 20
34.0993778892897623
 30
0.0
  0
VERTEX
  5
1F93
  8
0
 10
26.7626772107909687
 20
33.9357643983222701
 30
0.0
  0
VERTEX
  5
1F94
  8
0
 10
26.689325134949911
 20
33.7694741005789112
 30
0.0
  0
VERTEX
  5
1F95
  8
0
 10
26.6394416878105211
 20
33.6068576880077998
 30
0.0
  0
VERTEX
  5
1F96
  8
0
 10
26.606604942546511
 20
33.4525061556754366
 30
0.0
  0
VERTEX
  5
1F97
  8
0
 10
26.5860140098499507
 20
33.3088252957236293
 30
0.0
  0
VERTEX
  5
1F98
  8
0
 10
26.5654215611207896
 20
33.0579923619652973
 30
0.0
  0
VERTEX
  5
1F99
  8
0
 10
26.5508446523275801
 20
32.8571430876767465
 30
0.0
  0
VERTEX
  5
1F9A
  8
0
 10
26.5412462333094084
 20
32.7754378500054671
 30
0.0
  0
VERTEX
  5
1F9B
  8
0
 10
26.5252605822647389
 20
32.7078434036036967
 30
0.0
  0
VERTEX
  5
1F9C
  8
0
 10
26.4770757857205901
 20
32.6014635847461065
 30
0.0
  0
SEQEND
  5
1F9D
  8
0
  0
POLYLINE
  5
1B34
  8
0
 66
     1
 10
0.0
 20
0.0
 30
0.0
  0
VERTEX
  5
1F9E
  8
0
 10
33.3934332799191793
 20
32.6014635847446925
 30
0.0
  0
VERTEX
  5
1F9F
  8
0
 10
33.3444687950971286
 20
32.7060162895711528
 30
0.0
  0
VERTEX
  5
1FA0
  8
0
 10
33.3197030311903006
 20
32.8568371047252015
 30
0.0
  0
VERTEX
  5
1FA1
  8
0
 10
33.3051091824211767
 20
33.0575671569279876
 30
0.0
  0
VERTEX
  5
1FA2
  8
0
 10
33.2845484072893214
 20
33.3083528753925506
 30
0.0
  0
VERTEX
  5
1FA3
  8
0
 10
33.2639289685542394
 20
33.4519674869278489
 30
0.0
  0
VERTEX
  5
1FA4
  8
0
 10
33.2312214431062216
 20
33.6062625652515479
 30
0.0
  0
VERTEX
  5
1FA5
  8
0
 10
33.1814158092640525
 20
33.768732615260447
 30
0.0
  0
VERTEX
  5
1FA6
  8
0
 10
33.1080806487865402
 20
33.9350571140782264
 30
0.0
  0
VERTEX
  5
1FA7
  8
0
 10
33.0084322381323503
 20
34.0987123201349078
 30
0.0
  0
VERTEX
  5
1FA8
  8
0
 10
32.88259295104627
 20
34.253677461989362
 30
0.0
  0
VERTEX
  5
1FA9
  8
0
 10
32.7326083591389718
 20
34.3938572063132
 30
0.0
  0
VERTEX
  5
1FAA
  8
0
 10
32.5618271389933795
 20
34.5115587414046132
 30
0.0
  0
VERTEX
  5
1FAB
  8
0
 10
32.3745389885912687
 20
34.6004974294011305
 30
0.0
  0
VERTEX
  5
1FAC
  8
0
 10
32.1783584294548533
 20
34.6602941894919567
 30
0.0
  0
VERTEX
  5
1FAD
  8
0
 10
31.9814620153440217
 20
34.6920012685638497
 30
0.0
  0
VERTEX
  5
1FAE
  8
0
 10
31.7898105573411307
 20
34.6967243492345503
 30
0.0
  0
VERTEX
  5
1FAF
  8
0
 10
31.6091228971719715
 20
34.677103961461377
 30
0.0
  0
VERTEX
  5
1FB0
  8
0
 10
31.4433512292433512
 20
34.6389960876269782
 30
0.0
  0
VERTEX
  5
1FB1
  8
0
 10
31.2932605084984914
 20
34.5902577770370527
 30
0.0
  0
VERTEX
  5
1FB2
  8
0
 10
31.1585337673943705
 20
34.5362496178639304
 30
0.0
  0
VERTEX
  5
1FB3
  8
0
 10
30.9310098502895094
 20
34.428666734710248
 30
0.0
  0
VERTEX
  5
1FB4
  8
0
 10
30.7497808220271409
 20
34.3408660708896818
 30
0.0
  0
VERTEX
  5
1FB5
  8
0
 10
30.6742228010724887
 20
34.3083259267599487
 30
0.0
  0
VERTEX
  5
1FB6
  8
0
 10
30.6076914678115202
 20
34.2883726834598335
 30
0.0
  0
VERTEX
  5
1FB7
  8
0
 10
30.4914714439587691
 20
34.2769120319582328
 30
0.0
  0
SEQEND
  5
1FB8
  8
0
  0
POLYLINE
  5
1B35
  8
0
 66
     1
 10
0.0
 20
0.0
 30
0.0
  0
VERTEX
  5
1FB9
  8
0
 10
33.9496501910567474
 20
28.2871707402857986
 30
0.0
  0
VERTEX
  5
1FBA
  8
0
 10
34.0157134209619301
 20
28.3818522720399606
 30
0.0
  0
VERTEX
  5
1FBB
  8
0
 10
34.1339451751692309
 20
28.4787118202469891
 30
0.0
  0
VERTEX
  5
1FBC
  8
0
 10
34.3004841017111417
 20
28.5917274105568708
 30
0.0
  0
VERTEX
  5
1FBD
  8
0
 10
34.5073939580156335
 20
28.7349135243947593
 30
0.0
  0
VERTEX
  5
1FBE
  8
0
 10
34.6214638792480116
 20
28.8245607542569005
 30
0.0
  0
VERTEX
  5
1FBF
  8
0
 10
34.7387366640218218
 20
28.9300263301564407
 30
0.0
  0
VERTEX
  5
1FC0
  8
0
 10
34.8545370819146001
 20
29.0543985160215001
 30
0.0
  0
VERTEX
  5
1FC1
  8
0
 10
34.9619016486057603
 20
29.2010831114714584
 30
0.0
  0
VERTEX
  5
1FC2
  8
0
 10
35.0537915163886282
 20
29.3692233887131913
 30
0.0
  0
VERTEX
  5
1FC3
  8
0
 10
35.1250634923747498
 20
29.5556893623834291
 30
0.0
  0
VERTEX
  5
1FC4
  8
0
 10
35.1714756892902827
 20
29.7556670786260611
 30
0.0
  0
VERTEX
  5
1FC5
  8
0
 10
35.1880384323287672
 20
29.9624164255908987
 30
0.0
  0
VERTEX
  5
1FC6
  8
0
 10
35.1714361072175734
 20
30.1690832169495415
 30
0.0
  0
VERTEX
  5
1FC7
  8
0
 10
35.1251336014481979
 20
30.368880447807701
 30
0.0
  0
VERTEX
  5
1FC8
  8
0
 10
35.0541338938335798
 20
30.5552475389043003
 30
0.0
  0
VERTEX
  5
1FC9
  8
0
 10
34.9623879846178909
 20
30.7235741423097508
 30
0.0
  0
VERTEX
  5
1FCA
  8
0
 10
34.8550474306355298
 20
30.8702374498535583
 30
0.0
  0
VERTEX
  5
1FCB
  8
0
 10
34.739159251911417
 20
30.9947437614701791
 30
0.0
  0
VERTEX
  5
1FCC
  8
0
 10
34.6219074153444524
 20
31.1003615841853893
 30
0.0
  0
VERTEX
  5
1FCD
  8
0
 10
34.5077745422970281
 20
31.1900432528487492
 30
0.0
  0
VERTEX
  5
1FCE
  8
0
 10
34.3008455543052335
 20
31.3333048217826615
 30
0.0
  0
VERTEX
  5
1FCF
  8
0
 10
34.1341886004940989
 20
31.4463388290321717
 30
0.0
  0
VERTEX
  5
1FD0
  8
0
 10
34.0682310385314011
 20
31.4955017910543305
 30
0.0
  0
VERTEX
  5
1FD1
  8
0
 10
34.017692279891321
 20
31.5431460133010688
 30
0.0
  0
VERTEX
  5
1FD2
  8
0
 10
33.9496501910551629
 20
31.6380676346259015
 30
0.0
  0
SEQEND
  5
1FD3
  8
0
  0
POLYLINE
  5
1B36
  8
0
 66
     1
 10
0.0
 20
0.0
 30
0.0
  0
VERTEX
  5
1FD4
  8
0
 10
30.4914714439561614
 20
25.6483263429921102
 30
0.0
  0
VERTEX
  5
1FD5
  8
0
 10
30.6064989847813003
 20
25.63845447831795
 30
0.0
  0
VERTEX
  5
1FD6
  8
0
 10
30.749496524077589
 20
25.584491851428421
 30
0.0
  0
VERTEX
  5
1FD7
  8
0
 10
30.9306307729723109
 20
25.4967654690997492
 30
0.0
  0
VERTEX
  5
1FD8
  8
0
 10
31.1580979636352993
 20
25.38917876345349
 30
0.0
  0
VERTEX
  5
1FD9
  8
0
 10
31.2927815849472211
 20
25.335228415442419
 30
0.0
  0
VERTEX
  5
1FDA
  8
0
 10
31.442758805178439
 20
25.286406424213471
 30
0.0
  0
VERTEX
  5
1FDB
  8
0
 10
31.6083648127612413
 20
25.2483043433677814
 30
0.0
  0
VERTEX
  5
1FDC
  8
0
 10
31.7890736342478704
 20
25.2286522059228915
 30
0.0
  0
VERTEX
  5
1FDD
  8
0
 10
31.9806274054816413
 20
25.2331226579678685
 30
0.0
  0
VERTEX
  5
1FDE
  8
0
 10
32.1777507985717079
 20
25.2646201064513711
 30
0.0
  0
VERTEX
  5
1FDF
  8
0
 10
32.3741423142058196
 20
25.3244207010573916
 30
0.0
  0
VERTEX
  5
1FE0
  8
0
 10
32.5614654437322315
 20
25.4134708086470802
 30
0.0
  0
VERTEX
  5
1FE1
  8
0
 10
32.7321326821175091
 20
25.5311977607248188
 30
0.0
  0
VERTEX
  5
1FE2
  8
0
 10
32.8820084749883677
 20
25.671196728620199
 30
0.0
  0
VERTEX
  5
1FE3
  8
0
 10
33.0079158179997876
 20
25.8258604856182998
 30
0.0
  0
VERTEX
  5
1FE4
  8
0
 10
33.1078318548462107
 20
25.9894739765857814
 30
0.0
  0
VERTEX
  5
1FE5
  8
0
 10
33.1811839306872685
 20
26.1557642743291616
 30
0.0
  0
VERTEX
  5
1FE6
  8
0
 10
33.2310673778268608
 20
26.3183806869002801
 30
0.0
  0
VERTEX
  5
1FE7
  8
0
 10
33.2639041230907822
 20
26.4727322192326504
 30
0.0
  0
VERTEX
  5
1FE8
  8
0
 10
33.2844950557871684
 20
26.6164130791844187
 30
0.0
  0
VERTEX
  5
1FE9
  8
0
 10
33.3050875045160311
 20
26.8672460129426192
 30
0.0
  0
VERTEX
  5
1FEA
  8
0
 10
33.3196644133095106
 20
27.0680952872313192
 30
0.0
  0
VERTEX
  5
1FEB
  8
0
 10
33.3292628323277498
 20
27.1498005249025915
 30
0.0
  0
VERTEX
  5
1FEC
  8
0
 10
33.3452484833724228
 20
27.2173949713043193
 30
0.0
  0
VERTEX
  5
1FED
  8
0
 10
33.3934332799165077
 20
27.3237747901619095
 30
0.0
  0
SEQEND
  5
1FEE
  8
0
  0
POLYLINE
  5
1B37
  8
0
 66
     1
 10
0.0
 20
0.0
 30
0.0
  0
VERTEX
  5
1FEF
  8
0
 10
26.4770757857179184
 20
27.3237747901634016
 30
0.0
  0
VERTEX
  5
1FF0
  8
0
 10
26.5260402705399692
 20
27.2192220853369307
 30
0.0
  0
VERTEX
  5
1FF1
  8
0
 10
26.5508060344468184
 20
27.0684012701828784
 30
0.0
  0
VERTEX
  5
1FF2
  8
0
 10
26.5653998832155196
 20
26.8676712179802308
 30
0.0
  0
VERTEX
  5
1FF3
  8
0
 10
26.5859606583477515
 20
26.6168854995155115
 30
0.0
  0
VERTEX
  5
1FF4
  8
0
 10
26.606580097083139
 20
26.4732708879801102
 30
0.0
  0
VERTEX
  5
1FF5
  8
0
 10
26.6392876225311603
 20
26.3189758096564397
 30
0.0
  0
VERTEX
  5
1FF6
  8
0
 10
26.6890932563730985
 20
26.1565057596476009
 30
0.0
  0
VERTEX
  5
1FF7
  8
0
 10
26.7624284168505788
 20
25.9901812608298393
 30
0.0
  0
VERTEX
  5
1FF8
  8
0
 10
26.8620768275048682
 20
25.8265260547731401
 30
0.0
  0
VERTEX
  5
1FF9
  8
0
 10
26.9879161145908597
 20
25.6715609129186717
 30
0.0
  0
VERTEX
  5
1FFA
  8
0
 10
27.1379007064981899
 20
25.5313811685948089
 30
0.0
  0
VERTEX
  5
1FFB
  8
0
 10
27.3086819266437999
 20
25.4136796335033885
 30
0.0
  0
VERTEX
  5
1FFC
  8
0
 10
27.4959700770459108
 20
25.3247409455068606
 30
0.0
  0
VERTEX
  5
1FFD
  8
0
 10
27.6921506361823297
 20
25.2649441854160592
 30
0.0
  0
VERTEX
  5
1FFE
  8
0
 10
27.8890470502931294
 20
25.2332371063443084
 30
0.0
  0
VERTEX
  5
1FFF
  8
0
 10
28.0806985082960487
 20
25.2285140256736184
 30
0.0
  0
VERTEX
  5
2000
  8
0
 10
28.2613861684653003
 20
25.2481344134465218
 30
0.0
  0
VERTEX
  5
2001
  8
0
 10
28.4271578363940591
 20
25.2862422872806789
 30
0.0
  0
VERTEX
  5
2002
  8
0
 10
28.5772485571388017
 20
25.3349805978707288
 30
0.0
  0
VERTEX
  5
2003
  8
0
 10
28.7119752982427201
 20
25.3889887570440713
 30
0.0
  0
VERTEX
  5
2004
  8
0
 10
28.9394992153477304
 20
25.4965716401977183
 30
0.0
  0
VERTEX
  5
2005
  8
0
 10
29.1207282436099284
 20
25.5843723040184514
 30
0.0
  0
VERTEX
  5
2006
  8
0
 10
29.1962862645646091
 20
25.6169124481481703
 30
0.0
  0
VERTEX
  5
2007
  8
0
 10
29.2628175978255989
 20
25.6368656914483495
 30
0.0
  0
VERTEX
  5
2008
  8
0
 10
29.37903762167835
 20
25.6483263429936912
 30
0.0
  0
SEQEND
  5
2009
  8
0
  0
POLYLINE
  5
1B38
  8
0
 66
     1
 10
0.0
 20
0.0
 30
0.0
  0
VERTEX
  5
200A
  8
0
 10
25.9208588745803787
 20
31.6380676346223204
 30
0.0
  0
VERTEX
  5
200B
  8
0
 10
25.8547956446751392
 20
31.5433861028681584
 30
0.0
  0
VERTEX
  5
200C
  8
0
 10
25.7365638904678597
 20
31.4465265546610802
 30
0.0
  0
VERTEX
  5
200D
  8
0
 10
25.5700249639259916
 20
31.3335109643511807
 30
0.0
  0
VERTEX
  5
200E
  8
0
 10
25.3631151076214998
 20
31.1903248505132993
 30
0.0
  0
VERTEX
  5
200F
  8
0
 10
25.249045186389111
 20
31.1006776206512292
 30
0.0
  0
VERTEX
  5
2010
  8
0
 10
25.1317724016152795
 20
30.9952120447517707
 30
0.0
  0
VERTEX
  5
2011
  8
0
 10
25.015971983722519
 20
30.8708398588866793
 30
0.0
  0
VERTEX
  5
2012
  8
0
 10
24.9086074170315399
 20
30.7241552634364794
 30
0.0
  0
VERTEX
  5
2013
  8
0
 10
24.8167175492486116
 20
30.5560149861947608
 30
0.0
  0
VERTEX
  5
2014
  8
0
 10
24.7454455732622911
 20
30.3695490125247005
 30
0.0
  0
VERTEX
  5
2015
  8
0
 10
24.6990333763467618
 20
30.1695712962820615
 30
0.0
  0
VERTEX
  5
2016
  8
0
 10
24.6824706333083306
 20
29.9628219493171493
 30
0.0
  0
VERTEX
  5
2017
  8
0
 10
24.6990729584196309
 20
29.7561551579584993
 30
0.0
  0
VERTEX
  5
2018
  8
0
 10
24.7453754641889816
 20
29.5563579271003292
 30
0.0
  0
VERTEX
  5
2019
  8
0
 10
24.8163751718034611
 20
29.3699908360036801
 30
0.0
  0
VERTEX
  5
201A
  8
0
 10
24.9081210810190896
 20
29.2016642325982687
 30
0.0
  0
VERTEX
  5
201B
  8
0
 10
25.0154616350016603
 20
29.0550009250546388
 30
0.0
  0
VERTEX
  5
201C
  8
0
 10
25.1313498137258797
 20
28.9304946134382099
 30
0.0
  0
VERTEX
  5
201D
  8
0
 10
25.248601650292759
 20
28.8248767907228789
 30
0.0
  0
VERTEX
  5
201E
  8
0
 10
25.3627345233401194
 20
28.7351951220592703
 30
0.0
  0
VERTEX
  5
201F
  8
0
 10
25.5696635113318713
 20
28.5919335531252692
 30
0.0
  0
VERTEX
  5
2020
  8
0
 10
25.7363204651430202
 20
28.4788995458758407
 30
0.0
  0
VERTEX
  5
2021
  8
0
 10
25.8022780271057286
 20
28.4297365838537104
 30
0.0
  0
VERTEX
  5
2022
  8
0
 10
25.8528167857458016
 20
28.3820923616069898
 30
0.0
  0
VERTEX
  5
2023
  8
0
 10
25.9208588745819384
 20
28.2871707402821109
 30
0.0
  0
SEQEND
  5
2024
  8
0
  0
LINE
  5
1B99
  8
0
 10
25.9352545328185613
 20
31.6721512871979094
 30
0.0
 11
25.9208588745803787
 21
31.6380676346223204
 31
0.0
  0
LINE
  5
1B9A
  8
0
 10
25.9208588745819384
 20
28.2871707402821109
 30
0.0
 11
25.9352545328185613
 21
28.2530870876978994
 31
0.0
  0
LINE
  5
1B9B
  8
0
 10
30.4547563059185507
 20
25.6437515224979009
 30
0.0
 11
30.4914714439561614
 21
25.6483263429921102
 31
0.0
  0
LINE
  5
1B9C
  8
0
 10
33.3934332799165077
 20
27.3237747901619095
 30
0.0
 11
33.4157527597185435
 21
27.3532836221979103
 31
0.0
  0
LINE
  5
1B9D
  8
0
 10
29.37903762167835
 20
25.6483263429936912
 30
0.0
 11
29.4157527597185506
 21
25.6437515224979009
 31
0.0
  0
LINE
  5
1B9E
  8
0
 10
26.4547563059185507
 20
27.3532836221979103
 30
0.0
 11
26.4770757857179184
 21
27.3237747901634016
 31
0.0
  0
LINE
  5
1B9F
  8
0
 10
26.4770757857205901
 20
32.6014635847461065
 30
0.0
 11
26.4547563059185507
 21
32.5719547526979127
 31
0.0
  0
LINE
  5
1BA0
  8
0
 10
29.4157527597185506
 20
34.281486852497892
 30
0.0
 11
29.3790376216809399
 21
34.2769120319159128
 31
0.0
  0
LINE
  5
1BA1
  8
0
 10
33.9352545328185613
 20
28.2530870876978888
 30
0.0
 11
33.9496501910567474
 21
28.2871707402857986
 31
0.0
  0
LINE
  5
1BA2
  8
0
 10
33.9496501910551629
 20
31.6380676346259015
 30
0.0
 11
33.9352545328185613
 21
31.6721512871979094
 31
0.0
  0
LINE
  5
1BA3
  8
0
 10
30.4914714439587691
 20
34.2769120319582328
 30
0.0
 11
30.4547563059185507
 21
34.281486852497892
 31
0.0
  0
LINE
  5
1BA4
  8
0
 10
33.4157527597185435
 20
32.5719547526979127
 30
0.0
 11
33.3934332799191793
 21
32.6014635847446925
 31
0.0
  0
POLYLINE
  5
1DAE
  8
0
 66
     1
 10
0.0
 20
0.0
 30
0.0
  0
VERTEX
  5
2025
  8
0
 10
61.4287962069186335
 20
62.3188360985978491
 30
0.0
  0
VERTEX
  5
2026
  8
0
 10
61.8252864880316508
 20
62.4338636394606397
 30
0.0
  0
VERTEX
  5
2027
  8
0
 10
62.2088766831447799
 20
62.5768611787569213
 30
0.0
  0
VERTEX
  5
2028
  8
0
 10
62.5698245793791372
 20
62.7579954276516219
 30
0.0
  0
VERTEX
  5
2029
  8
0
 10
62.7385828110373325
 20
62.8653094603117921
 30
0.0
  0
VERTEX
  5
202A
  8
0
 10
62.8974925191229488
 20
62.9854626183145996
 30
0.0
  0
VERTEX
  5
202B
  8
0
 10
63.0447817466860627
 20
63.1201462396265498
 30
0.0
  0
VERTEX
  5
202C
  8
0
 10
63.1785784312725127
 20
63.2701234598577784
 30
0.0
  0
VERTEX
  5
202D
  8
0
 10
63.2963905792843988
 20
63.4357294674405807
 30
0.0
  0
VERTEX
  5
202E
  8
0
 10
63.3948754992487125
 20
63.6164382889271991
 30
0.0
  0
VERTEX
  5
202F
  8
0
 10
63.4719389082209204
 20
63.8079920601609771
 30
0.0
  0
VERTEX
  5
2030
  8
0
 10
63.5276540158398788
 20
64.0051154532510367
 30
0.0
  0
VERTEX
  5
2031
  8
0
 10
63.5621450432971287
 20
64.2015069688851412
 30
0.0
  0
VERTEX
  5
2032
  8
0
 10
63.5739496468040599
 20
64.3888300984115602
 30
0.0
  0
VERTEX
  5
2033
  8
0
 10
63.5620577150451709
 20
64.5594973367968237
 30
0.0
  0
VERTEX
  5
2034
  8
0
 10
63.5276440798569411
 20
64.7093731296676822
 30
0.0
  0
VERTEX
  5
2035
  8
0
 10
63.4721998015002598
 20
64.8352804726791021
 30
0.0
  0
VERTEX
  5
2036
  8
0
 10
63.395308480064223
 20
64.9351965095255537
 30
0.0
  0
VERTEX
  5
2037
  8
0
 10
63.2968721461843131
 20
65.008548585366583
 30
0.0
  0
VERTEX
  5
2038
  8
0
 10
63.1790610931425718
 20
65.0584320325061896
 30
0.0
  0
VERTEX
  5
2039
  8
0
 10
63.0453057034667026
 20
65.0912687777701251
 30
0.0
  0
VERTEX
  5
203A
  8
0
 10
62.8980189489058432
 20
65.11185971046649
 30
0.0
  0
VERTEX
  5
203B
  8
0
 10
62.5704121495520269
 20
65.1324521591953669
 30
0.0
  0
VERTEX
  5
203C
  8
0
 10
62.2095139723403534
 20
65.1470290679888535
 30
0.0
  0
VERTEX
  5
203D
  8
0
 10
61.8255762858138382
 20
65.172613138051716
 30
0.0
  0
VERTEX
  5
203E
  8
0
 10
61.4287962069186335
 20
65.2207979345978544
 30
0.0
  0
SEQEND
  5
203F
  8
0
  0
POLYLINE
  5
1DAF
  8
0
 66
     1
 10
0.0
 20
0.0
 30
0.0
  0
VERTEX
  5
2040
  8
0
 10
61.4287962069519082
 20
65.7770148457360762
 30
0.0
  0
VERTEX
  5
2041
  8
0
 10
61.5970028677391497
 20
65.7995456034051358
 30
0.0
  0
VERTEX
  5
2042
  8
0
 10
61.763944137123012
 20
65.8290404107579548
 30
0.0
  0
VERTEX
  5
2043
  8
0
 10
61.9286563018760106
 20
65.8693959511259237
 30
0.0
  0
VERTEX
  5
2044
  8
0
 10
62.0907303034104174
 20
65.9188427774026025
 30
0.0
  0
VERTEX
  5
2045
  8
0
 10
62.2493854370848894
 20
65.9771748481085325
 30
0.0
  0
VERTEX
  5
2046
  8
0
 10
62.4036424914327483
 20
66.0439446893627746
 30
0.0
  0
VERTEX
  5
2047
  8
0
 10
62.5529247195485425
 20
66.1187187021585601
 30
0.0
  0
VERTEX
  5
2048
  8
0
 10
62.696462044294492
 20
66.200856741011961
 30
0.0
  0
VERTEX
  5
2049
  8
0
 10
62.8333460655109874
 20
66.2894662008976923
 30
0.0
  0
VERTEX
  5
204A
  8
0
 10
62.9624826829096094
 20
66.3832865666542773
 30
0.0
  0
VERTEX
  5
204B
  8
0
 10
63.08282038532559
 20
66.4807390512867187
 30
0.0
  0
VERTEX
  5
204C
  8
0
 10
63.193152425563909
 20
66.5797181809221001
 30
0.0
  0
VERTEX
  5
204D
  8
0
 10
63.2918466351251823
 20
66.6771678817684545
 30
0.0
  0
VERTEX
  5
204E
  8
0
 10
63.3769519138526505
 20
66.7689327067500926
 30
0.0
  0
VERTEX
  5
204F
  8
0
 10
63.4469303509559666
 20
66.8505057665798432
 30
0.0
  0
VERTEX
  5
2050
  8
0
 10
63.5018002938036474
 20
66.9188644654719837
 30
0.0
  0
VERTEX
  5
2051
  8
0
 10
63.5410485475465521
 20
66.9703559309444643
 30
0.0
  0
VERTEX
  5
2052
  8
0
 10
63.5663152415783301
 20
67.0047947582476411
 30
0.0
  0
VERTEX
  5
2053
  8
0
 10
63.5737849674092672
 20
67.0152343355050704
 30
0.0
  0
SEQEND
  5
2054
  8
0
  0
POLYLINE
  5
1DB0
  8
0
 66
     1
 10
0.0
 20
0.0
 30
0.0
  0
VERTEX
  5
2055
  8
0
 10
61.1352545328186281
 20
65.76261918749789
 30
0.0
  0
VERTEX
  5
2056
  8
0
 10
61.4287962069519082
 20
65.7770148457360762
 30
0.0
  0
SEQEND
  5
2057
  8
0
  0
POLYLINE
  5
1DB1
  8
0
 66
     1
 10
0.0
 20
0.0
 30
0.0
  0
VERTEX
  5
2058
  8
0
 10
61.4287962069186335
 20
65.2207979345978544
 30
0.0
  0
VERTEX
  5
2059
  8
0
 10
61.1352545328186281
 20
65.2431174143978723
 30
0.0
  0
SEQEND
  5
205A
  8
0
  0
POLYLINE
  5
1DB2
  8
0
 66
     1
 10
0.0
 20
0.0
 30
0.0
  0
VERTEX
  5
205B
  8
0
 10
61.1352545328186281
 20
62.2821209605978794
 30
0.0
  0
VERTEX
  5
205C
  8
0
 10
61.4287962069186335
 20
62.3188360985978491
 30
0.0
  0
SEQEND
  5
205D
  8
0
  0
POLYLINE
  5
1DB3
  8
0
 66
     1
 10
0.0
 20
0.0
 30
0.0
  0
VERTEX
  5
205E
  8
0
 10
61.4287962069186335
 20
61.2064022763978599
 30
0.0
  0
VERTEX
  5
205F
  8
0
 10
61.1352545328186281
 20
61.2431174143978723
 30
0.0
  0
SEQEND
  5
2060
  8
0
  0
POLYLINE
  5
1DB4
  8
0
 66
     1
 10
0.0
 20
0.0
 30
0.0
  0
VERTEX
  5
2061
  8
0
 10
61.4287962069186335
 20
58.3044404403978618
 30
0.0
  0
VERTEX
  5
2062
  8
0
 10
61.8252864880316508
 20
58.3534049252192872
 30
0.0
  0
VERTEX
  5
2063
  8
0
 10
62.2088766831448368
 20
58.3781706891261294
 30
0.0
  0
VERTEX
  5
2064
  8
0
 10
62.5698245793791372
 20
58.3927645378948483
 30
0.0
  0
VERTEX
  5
2065
  8
0
 10
62.8974925191229701
 20
58.4133253130270802
 30
0.0
  0
VERTEX
  5
2066
  8
0
 10
63.0447817466860627
 20
58.4339447517625032
 30
0.0
  0
VERTEX
  5
2067
  8
0
 10
63.1785784312725127
 20
58.4666522772105068
 30
0.0
  0
VERTEX
  5
2068
  8
0
 10
63.2963905792844912
 20
58.5164579110524272
 30
0.0
  0
VERTEX
  5
2069
  8
0
 10
63.3948754992486769
 20
58.5897930715299182
 30
0.0
  0
VERTEX
  5
206A
  8
0
 10
63.4719389082209204
 20
58.6894414821841721
 30
0.0
  0
VERTEX
  5
206B
  8
0
 10
63.5276540158399072
 20
58.8152807692702169
 30
0.0
  0
VERTEX
  5
206C
  8
0
 10
63.5621450432971926
 20
58.9652653611774866
 30
0.0
  0
VERTEX
  5
206D
  8
0
 10
63.5739496468040599
 20
59.1360465813231286
 30
0.0
  0
VERTEX
  5
206E
  8
0
 10
63.5620577150451425
 20
59.3233347317252395
 30
0.0
  0
VERTEX
  5
206F
  8
0
 10
63.5276440798569126
 20
59.519515290861662
 30
0.0
  0
VERTEX
  5
2070
  8
0
 10
63.47219980150021
 20
59.7164117049724226
 30
0.0
  0
VERTEX
  5
2071
  8
0
 10
63.3953084800641307
 20
59.9080631629753597
 30
0.0
  0
VERTEX
  5
2072
  8
0
 10
63.2968721461842776
 20
60.0887508231446006
 30
0.0
  0
VERTEX
  5
2073
  8
0
 10
63.1790610931426428
 20
60.2545224910733808
 30
0.0
  0
VERTEX
  5
2074
  8
0
 10
63.0453057034667665
 20
60.4046132118181518
 30
0.0
  0
VERTEX
  5
2075
  8
0
 10
62.8980189489057935
 20
60.5393399529220275
 30
0.0
  0
VERTEX
  5
2076
  8
0
 10
62.7391356921754735
 20
60.6595596916016717
 30
0.0
  0
VERTEX
  5
2077
  8
0
 10
62.5704121495520269
 20
60.7668638700270805
 30
0.0
  0
VERTEX
  5
2078
  8
0
 10
62.2095139723402895
 20
60.9480928982892678
 30
0.0
  0
VERTEX
  5
2079
  8
0
 10
61.8255762858138382
 20
61.0901822525049383
 30
0.0
  0
VERTEX
  5
207A
  8
0
 10
61.4287962069186335
 20
61.2064022763978599
 30
0.0
  0
SEQEND
  5
207B
  8
0
  0
POLYLINE
  5
1DB5
  8
0
 66
     1
 10
0.0
 20
0.0
 30
0.0
  0
VERTEX
  5
207C
  8
0
 10
61.1352545328186281
 20
58.2821209605978794
 30
0.0
  0
VERTEX
  5
207D
  8
0
 10
61.4287962069186335
 20
58.3044404403978618
 30
0.0
  0
SEQEND
  5
207E
  8
0
  0
POLYLINE
  5
1DB6
  8
0
 66
     1
 10
0.0
 20
0.0
 30
0.0
  0
VERTEX
  5
207F
  8
0
 10
61.4287962069186335
 20
57.7482235292978672
 30
0.0
  0
VERTEX
  5
2080
  8
0
 10
61.1352545328186281
 20
57.76261918749789
 30
0.0
  0
SEQEND
  5
2081
  8
0
  0
POLYLINE
  5
1DB7
  8
0
 66
     1
 10
0.0
 20
0.0
 30
0.0
  0
VERTEX
  5
2082
  8
0
 10
63.5738591710531509
 20
56.5099281489764707
 30
0.0
  0
VERTEX
  5
2083
  8
0
 10
63.5676820560185618
 20
56.5185695847142426
 30
0.0
  0
VERTEX
  5
2084
  8
0
 10
63.5518502435882908
 20
56.5402622696577879
 30
0.0
  0
VERTEX
  5
2085
  8
0
 10
63.5240811140866413
 20
56.5774265421189568
 30
0.0
  0
VERTEX
  5
2086
  8
0
 10
63.4865937511256888
 20
56.6257436762470832
 30
0.0
  0
VERTEX
  5
2087
  8
0
 10
63.4388104298388669
 20
56.6844983042205186
 30
0.0
  0
VERTEX
  5
2088
  8
0
 10
63.3803784894766409
 20
56.7524470219931914
 30
0.0
  0
VERTEX
  5
2089
  8
0
 10
63.3115874774488319
 20
56.8274621759235075
 30
0.0
  0
VERTEX
  5
208A
  8
0
 10
63.2332166098113575
 20
56.907037712355887
 30
0.0
  0
VERTEX
  5
208B
  8
0
 10
63.1464586354354296
 20
56.9886152232663719
 30
0.0
  0
VERTEX
  5
208C
  8
0
 10
63.0523238561331425
 20
57.0701818394047322
 30
0.0
  0
VERTEX
  5
208D
  8
0
 10
62.9516102473860713
 20
57.1502650862710198
 30
0.0
  0
VERTEX
  5
208E
  8
0
 10
62.8449530888740568
 20
57.227759927085998
 30
0.0
  0
VERTEX
  5
208F
  8
0
 10
62.7328833579652212
 20
57.3018281520336004
 30
0.0
  0
VERTEX
  5
2090
  8
0
 10
62.6160935711615991
 20
57.3716627297272623
 30
0.0
  0
VERTEX
  5
2091
  8
0
 10
62.4951643119454232
 20
57.4366882090219093
 30
0.0
  0
VERTEX
  5
2092
  8
0
 10
62.3705361656876676
 20
57.496495390823867
 30
0.0
  0
VERTEX
  5
2093
  8
0
 10
62.2426081778017419
 20
57.5507663367693709
 30
0.0
  0
VERTEX
  5
2094
  8
0
 10
62.1116726683141565
 20
57.5992730398856665
 30
0.0
  0
VERTEX
  5
2095
  8
0
 10
61.9783070629743165
 20
57.6416971187383993
 30
0.0
  0
VERTEX
  5
2096
  8
0
 10
61.8430399647427578
 20
57.6781661083380186
 30
0.0
  0
VERTEX
  5
2097
  8
0
 10
61.7061101837180672
 20
57.7076604845893968
 30
0.0
  0
VERTEX
  5
2098
  8
0
 10
61.5678106252695372
 20
57.729903885194048
 30
0.0
  0
VERTEX
  5
2099
  8
0
 10
61.4287962069186335
 20
57.7482235292978672
 30
0.0
  0
SEQEND
  5
209A
  8
0
  0
POLYLINE
  5
1DDA
  8
0
 66
     1
 10
0.0
 20
0.0
 30
0.0
  0
VERTEX
  5
209B
  8
0
 10
61.4287962069185483
 20
34.2769120316479032
 30
0.0
  0
VERTEX
  5
209C
  8
0
 10
61.1352545328185499
 20
34.2814868522478875
 30
0.0
  0
SEQEND
  5
209D
  8
0
  0
POLYLINE
  5
1DDB
  8
0
 66
     1
 10
0.0
 20
0.0
 30
0.0
  0
VERTEX
  5
209E
  8
0
 10
61.4287962069185483
 20
32.6014635845479006
 30
0.0
  0
VERTEX
  5
209F
  8
0
 10
61.8252864880316011
 20
32.7060162893519575
 30
0.0
  0
VERTEX
  5
20A0
  8
0
 10
62.2088766831447231
 20
32.8568371045059777
 30
0.0
  0
VERTEX
  5
20A1
  8
0
 10
62.3928264592290986
 20
32.950820565633542
 30
0.0
  0
VERTEX
  5
20A2
  8
0
 10
62.5698245793789098
 20
33.057567156708771
 30
0.0
  0
VERTEX
  5
20A3
  8
0
 10
62.7385828110371904
 20
33.1767825542578265
 30
0.0
  0
VERTEX
  5
20A4
  8
0
 10
62.8974925191229204
 20
33.3083528751733269
 30
0.0
  0
VERTEX
  5
20A5
  8
0
 10
63.0447817466861125
 20
33.4519674867086891
 30
0.0
  0
VERTEX
  5
20A6
  8
0
 10
63.1785784312725625
 20
33.606262565032381
 30
0.0
  0
VERTEX
  5
20A7
  8
0
 10
63.2963905792843775
 20
33.7687326150412304
 30
0.0
  0
VERTEX
  5
20A8
  8
0
 10
63.3948754992485988
 20
33.9350571138589885
 30
0.0
  0
VERTEX
  5
20A9
  8
0
 10
63.4719389082208707
 20
34.098712319915677
 30
0.0
  0
VERTEX
  5
20AA
  8
0
 10
63.5276540158398291
 20
34.2536774617701383
 30
0.0
  0
VERTEX
  5
20AB
  8
0
 10
63.5621450432970505
 20
34.3938572060940331
 30
0.0
  0
VERTEX
  5
20AC
  8
0
 10
63.5739496468039818
 20
34.5115587411854534
 30
0.0
  0
VERTEX
  5
20AD
  8
0
 10
63.5620577150450501
 20
34.6004974291819423
 30
0.0
  0
VERTEX
  5
20AE
  8
0
 10
63.5276440798568274
 20
34.6602941892727614
 30
0.0
  0
VERTEX
  5
20AF
  8
0
 10
63.4721998015001816
 20
34.6920012683446899
 30
0.0
  0
VERTEX
  5
20B0
  8
0
 10
63.3953084800641591
 20
34.6967243490154189
 30
0.0
  0
VERTEX
  5
20B1
  8
0
 10
63.2968721461842279
 20
34.6771039612422527
 30
0.0
  0
VERTEX
  5
20B2
  8
0
 10
63.179061093142451
 20
34.6389960874078469
 30
0.0
  0
VERTEX
  5
20B3
  8
0
 10
63.0453057034666173
 20
34.5902577768179071
 30
0.0
  0
VERTEX
  5
20B4
  8
0
 10
62.898018948905758
 20
34.536249617644792
 30
0.0
  0
VERTEX
  5
20B5
  8
0
 10
62.5704121495519701
 20
34.4286667344910384
 30
0.0
  0
VERTEX
  5
20B6
  8
0
 10
62.209513972340261
 20
34.3408660706704794
 30
0.0
  0
VERTEX
  5
20B7
  8
0
 10
62.0198735876646765
 20
34.3083259265407889
 30
0.0
  0
VERTEX
  5
20B8
  8
0
 10
61.8255762858138098
 20
34.2883726832406808
 30
0.0
  0
VERTEX
  5
20B9
  8
0
 10
61.4287962069185483
 20
34.2769120316479032
 30
0.0
  0
SEQEND
  5
20BA
  8
0
  0
POLYLINE
  5
1DDC
  8
0
 66
     1
 10
0.0
 20
0.0
 30
0.0
  0
VERTEX
  5
20BB
  8
0
 10
61.1352545328185499
 20
32.571954752547903
 30
0.0
  0
VERTEX
  5
20BC
  8
0
 10
61.4287962069185483
 20
32.6014635845479006
 30
0.0
  0
SEQEND
  5
20BD
  8
0
  0
POLYLINE
  5
1DDD
  8
0
 66
     1
 10
0.0
 20
0.0
 30
0.0
  0
VERTEX
  5
20BE
  8
0
 10
61.4287962069185483
 20
28.2871707400478911
 30
0.0
  0
VERTEX
  5
20BF
  8
0
 10
61.7056369814291301
 20
28.3529429839673917
 30
0.0
  0
VERTEX
  5
20C0
  8
0
 10
61.9773725863465188
 20
28.41922283760195
 30
0.0
  0
VERTEX
  5
20C1
  8
0
 10
62.2413131998805014
 20
28.4876303207256001
 30
0.0
  0
VERTEX
  5
20C2
  8
0
 10
62.493800757624058
 20
28.5650604920754105
 30
0.0
  0
VERTEX
  5
20C3
  8
0
 10
62.7314360657392101
 20
28.6553058271485988
 30
0.0
  0
VERTEX
  5
20C4
  8
0
 10
62.95014034606438
 20
28.7644616741599997
 30
0.0
  0
VERTEX
  5
20C5
  8
0
 10
63.1450979597451934
 20
28.9008413317516712
 30
0.0
  0
VERTEX
  5
20C6
  8
0
 10
63.3104069370038189
 20
29.0722216145322783
 30
0.0
  0
VERTEX
  5
20C7
  8
0
 10
63.4378131815169013
 20
29.2863151275897806
 30
0.0
  0
VERTEX
  5
20C8
  8
0
 10
63.52361454484506
 20
29.5388459156799108
 30
0.0
  0
VERTEX
  5
20C9
  8
0
 10
63.568200875432332
 20
29.8181902068096285
 30
0.0
  0
VERTEX
  5
20CA
  8
0
 10
63.5681501122457675
 20
30.1066002192396986
 30
0.0
  0
VERTEX
  5
20CB
  8
0
 10
63.5236593220339216
 20
30.3857068847987613
 30
0.0
  0
VERTEX
  5
20CC
  8
0
 10
63.4381719876761281
 20
30.6382240927009306
 30
0.0
  0
VERTEX
  5
20CD
  8
0
 10
63.310879025484212
 20
30.8524240458691388
 30
0.0
  0
VERTEX
  5
20CE
  8
0
 10
63.1455791913229234
 20
31.0239860227585211
 30
0.0
  0
VERTEX
  5
20CF
  8
0
 10
62.9506593953979277
 20
31.1604859999791017
 30
0.0
  0
VERTEX
  5
20D0
  8
0
 10
62.7319953382197681
 20
31.2697027269421213
 30
0.0
  0
VERTEX
  5
20D1
  8
0
 10
62.4944042726498026
 20
31.3599592237111402
 30
0.0
  0
VERTEX
  5
20D2
  8
0
 10
62.2419452474036632
 20
31.437398682395699
 30
0.0
  0
VERTEX
  5
20D3
  8
0
 10
61.9779936620015519
 20
31.5058907970550983
 30
0.0
  0
VERTEX
  5
20D4
  8
0
 10
61.7056013794872626
 20
31.5720657166541905
 30
0.0
  0
VERTEX
  5
20D5
  8
0
 10
61.4287962069185483
 20
31.6380676344478786
 30
0.0
  0
SEQEND
  5
20D6
  8
0
  0
POLYLINE
  5
1DDE
  8
0
 66
     1
 10
0.0
 20
0.0
 30
0.0
  0
VERTEX
  5
20D7
  8
0
 10
61.4287962069185483
 20
31.6380676344478786
 30
0.0
  0
VERTEX
  5
20D8
  8
0
 10
61.1352545328185499
 20
31.6721512869479014
 30
0.0
  0
SEQEND
  5
20D9
  8
0
  0
POLYLINE
  5
1DDF
  8
0
 66
     1
 10
0.0
 20
0.0
 30
0.0
  0
VERTEX
  5
20DA
  8
0
 10
61.1352545328185499
 20
28.2530870875479003
 30
0.0
  0
VERTEX
  5
20DB
  8
0
 10
61.4287962069185483
 20
28.2871707400478911
 30
0.0
  0
SEQEND
  5
20DC
  8
0
  0
POLYLINE
  5
1DE0
  8
0
 66
     1
 10
0.0
 20
0.0
 30
0.0
  0
VERTEX
  5
20DD
  8
0
 10
61.4287962069185483
 20
27.3237747899478904
 30
0.0
  0
VERTEX
  5
20DE
  8
0
 10
61.1352545328185499
 20
27.3532836219478703
 30
0.0
  0
SEQEND
  5
20DF
  8
0
  0
POLYLINE
  5
1DE1
  8
0
 66
     1
 10
0.0
 20
0.0
 30
0.0
  0
VERTEX
  5
20E0
  8
0
 10
61.4287962069185483
 20
25.6483263427478789
 30
0.0
  0
VERTEX
  5
20E1
  8
0
 10
61.8252864880315585
 20
25.6384544780988293
 30
0.0
  0
VERTEX
  5
20E2
  8
0
 10
62.2088766831447231
 20
25.5844918512093109
 30
0.0
  0
VERTEX
  5
20E3
  8
0
 10
62.5698245793790804
 20
25.4967654688805787
 30
0.0
  0
VERTEX
  5
20E4
  8
0
 10
62.897492519122892
 20
25.3891787632343409
 30
0.0
  0
VERTEX
  5
20E5
  8
0
 10
63.0447817466859988
 20
25.3352284152232414
 30
0.0
  0
VERTEX
  5
20E6
  8
0
 10
63.178578431272463
 20
25.2864064239942792
 30
0.0
  0
VERTEX
  5
20E7
  8
0
 10
63.2963905792843207
 20
25.2483043431485612
 30
0.0
  0
VERTEX
  5
20E8
  8
0
 10
63.3948754992486272
 20
25.2286522057036713
 30
0.0
  0
VERTEX
  5
20E9
  8
0
 10
63.4719389082208281
 20
25.2331226577486909
 30
0.0
  0
VERTEX
  5
20EA
  8
0
 10
63.5276540158398006
 20
25.2646201062322291
 30
0.0
  0
VERTEX
  5
20EB
  8
0
 10
63.5621450432970505
 20
25.3244207008382212
 30
0.0
  0
VERTEX
  5
20EC
  8
0
 10
63.5739496468040102
 20
25.4134708084278884
 30
0.0
  0
VERTEX
  5
20ED
  8
0
 10
63.5620577150450927
 20
25.5311977605056093
 30
0.0
  0
VERTEX
  5
20EE
  8
0
 10
63.5276440798568487
 20
25.6711967284009894
 30
0.0
  0
VERTEX
  5
20EF
  8
0
 10
63.4721998015001816
 20
25.8258604853990903
 30
0.0
  0
VERTEX
  5
20F0
  8
0
 10
63.3953084800641591
 20
25.9894739763665505
 30
0.0
  0
VERTEX
  5
20F1
  8
0
 10
63.2968721461841994
 20
26.1557642741099592
 30
0.0
  0
VERTEX
  5
20F2
  8
0
 10
63.179061093142451
 20
26.3183806866811096
 30
0.0
  0
VERTEX
  5
20F3
  8
0
 10
63.0453057034666173
 20
26.4727322190134693
 30
0.0
  0
VERTEX
  5
20F4
  8
0
 10
62.898018948905758
 20
26.6164130789652411
 30
0.0
  0
VERTEX
  5
20F5
  8
0
 10
62.7391356921753811
 20
26.7480697951631008
 30
0.0
  0
VERTEX
  5
20F6
  8
0
 10
62.5704121495519416
 20
26.8672460127234594
 30
0.0
  0
VERTEX
  5
20F7
  8
0
 10
62.3934350333485384
 20
26.9738498660150512
 30
0.0
  0
VERTEX
  5
20F8
  8
0
 10
62.2095139723402895
 20
27.0680952870121203
 30
0.0
  0
VERTEX
  5
20F9
  8
0
 10
62.0198735876646978
 20
27.1498005246833998
 30
0.0
  0
VERTEX
  5
20FA
  8
0
 10
61.8255762858137814
 20
27.2173949710851417
 30
0.0
  0
VERTEX
  5
20FB
  8
0
 10
61.4287962069185483
 20
27.3237747899478904
 30
0.0
  0
SEQEND
  5
20FC
  8
0
  0
POLYLINE
  5
1DE2
  8
0
 66
     1
 10
0.0
 20
0.0
 30
0.0
  0
VERTEX
  5
20FD
  8
0
 10
61.1352545328185499
 20
25.6437515222479
 30
0.0
  0
VERTEX
  5
20FE
  8
0
 10
61.4287962069185483
 20
25.6483263427478789
 30
0.0
  0
SEQEND
  5
20FF
  8
0
  0
LINE
  5
1DFB
  8
2
 10
57.835254532818567
 20
27.8956191874979389
 30
0.0
 11
64.4022545328185743
 21
27.8956191874979389
 31
0.0
  0
LINE
  5
1DFC
  8
2
 10
64.4022545328185743
 20
32.0296191874979002
 30
0.0
 11
57.835254532818567
 21
32.0296191874979002
 31
0.0
  0
LINE
  5
1DFD
  8
2
 10
57.835254532818567
 20
32.0296191874979002
 30
0.0
 11
57.835254532818567
 21
27.8956191874979389
 31
0.0
  0
LINE
  5
1DFE
  8
2
 10
56.6894977234657134
 20
29.9626191874978893
 30
0.0
 11
57.835254532818567
 21
27.8956191874979389
 31
0.0
  0
LINE
  5
1DFF
  8
2
 10
57.835254532818567
 20
32.0296191874979002
 30
0.0
 11
56.689497723327122
 21
29.9626191877478902
 31
0.0
  0
LINE
  5
1E00
  8
2
 10
64.4022545328185743
 20
32.0296191874979002
 30
0.0
 11
64.4022545328185743
 21
27.8956191874979389
 31
0.0
  0
LINE
  5
1E01
  8
2
 10
64.4022545328185743
 20
27.8956191874979389
 30
0.0
 11
64.835254532818567
 21
27.4626191874979
 31
0.0
  0
LINE
  5
1E02
  8
2
 10
64.835254532818567
 20
32.4626191874979
 30
0.0
 11
64.4022545328185743
 21
32.0296191874979002
 31
0.0
  0
LINE
  5
1E03
  8
2
 10
64.835254532818567
 20
27.4626191874979
 30
0.0
 11
58.835254532818567
 21
27.4626191874979
 31
0.0
  0
LINE
  5
1E04
  8
2
 10
64.835254532818567
 20
32.4626191874979
 30
0.0
 11
58.835254532818567
 21
32.4626191874979
 31
0.0
  0
LINE
  5
1E05
  8
2
 10
58.8352545328188512
 20
27.4626191874979
 30
0.0
 11
58.835254532818567
 21
32.4626191874979
 31
0.0
  0
LINE
  5
1E06
  8
2
 10
57.8352545328186167
 20
59.6956191874979112
 30
0.0
 11
64.4022545328186311
 21
59.6956191874979112
 31
0.0
  0
LINE
  5
1E07
  8
2
 10
64.4022545328186311
 20
63.8296191874978689
 30
0.0
 11
57.8352545328186167
 21
63.8296191874978689
 31
0.0
  0
LINE
  5
1E08
  8
2
 10
57.8352545328186167
 20
63.8296191874978689
 30
0.0
 11
57.8352545328186167
 21
59.6956191874979112
 31
0.0
  0
LINE
  5
1E09
  8
2
 10
56.6894977234657631
 20
61.7626191874978616
 30
0.0
 11
57.8352545328186167
 21
59.6956191874979112
 31
0.0
  0
LINE
  5
1E0A
  8
2
 10
57.8352545328186167
 20
63.8296191874978689
 30
0.0
 11
56.6894977233271788
 21
61.762619187747859
 31
0.0
  0
LINE
  5
1E0B
  8
2
 10
64.4022545328186311
 20
63.8296191874978689
 30
0.0
 11
64.4022545328186311
 21
59.6956191874979112
 31
0.0
  0
LINE
  5
1E0C
  8
2
 10
64.4022545328186311
 20
59.6956191874979112
 30
0.0
 11
64.8352545328186238
 21
59.2626191874978616
 31
0.0
  0
LINE
  5
1E0D
  8
2
 10
64.8352545328186238
 20
64.2626191874978616
 30
0.0
 11
64.4022545328186311
 21
63.8296191874978689
 31
0.0
  0
LINE
  5
1E0E
  8
2
 10
64.8352545328186238
 20
59.2626191874978616
 30
0.0
 11
58.8352545328186167
 21
59.2626191874978616
 31
0.0
  0
LINE
  5
1E0F
  8
2
 10
64.8352545328186238
 20
64.2626191874978616
 30
0.0
 11
58.8352545328186167
 21
64.2626191874978616
 31
0.0
  0
LINE
  5
1E10
  8
2
 10
58.8352545328189009
 20
59.2626191874978687
 30
0.0
 11
58.8352545328186167
 21
64.2626191874978616
 31
0.0
  0
ENDSEC
  0
EOF
