  0
SECTION
  2
HEADER
  9
$ACADVER
  1
AC1009
  9
$INSBASE
 10
0.0
 20
0.0
 30
0.0
  9
$EXTMIN
 10
0.0
 20
-1.4802182810368341
 30
0.0
  9
$EXTMAX
 10
92.934884876209054
 20
92.9978938557298136
 30
0.0
  9
$LIMMIN
 10
0.0
 20
0.0
  9
$LIMMAX
 10
375.0
 20
270.0
  9
$ORTHOMODE
 70
     1
  9
$REGENMODE
 70
     1
  9
$FILLMODE
 70
     1
  9
$QTEXTMODE
 70
     0
  9
$MIRRTEXT
 70
     0
  9
$DRAGMODE
 70
     2
  9
$LTSCALE
 40
3.0
  9
$OSMODE
 70
    37
  9
$ATTMODE
 70
     1
  9
$TEXTSIZE
 40
0.2
  9
$TRACEWID
 40
0.05
  9
$TEXTSTYLE
  7
STANDARD
  9
$CLAYER
  8
0
  9
$CELTYPE
  6
BYLAYER
  9
$CECOLOR
 62
   256
  9
$DIMSCALE
 40
1.0
  9
$DIMASZ
 40
3.0
  9
$DIMEXO
 40
2.0
  9
$DIMDLI
 40
0.38
  9
$DIMRND
 40
0.0
  9
$DIMDLE
 40
0.0
  9
$DIMEXE
 40
2.0
  9
$DIMTP
 40
0.0
  9
$DIMTM
 40
0.0
  9
$DIMTXT
 40
3.2000000000000002
  9
$DIMCEN
 40
0.09
  9
$DIMTSZ
 40
0.0
  9
$DIMTOL
 70
     0
  9
$DIMLIM
 70
     0
  9
$DIMTIH
 70
     0
  9
$DIMTOH
 70
     0
  9
$DIMSE1
 70
     0
  9
$DIMSE2
 70
     0
  9
$DIMTAD
 70
     1
  9
$DIMZIN
 70
     8
  9
$DIMBLK
  1

  9
$DIMASO
 70
     1
  9
$DIMSHO
 70
     0
  9
$DIMPOST
  1

  9
$DIMAPOST
  1

  9
$DIMALT
 70
     0
  9
$DIMALTD
 70
     2
  9
$DIMALTF
 40
25.3999999999999986
  9
$DIMLFAC
 40
1.0
  9
$DIMTOFL
 70
     1
  9
$DIMTVP
 40
1.6000000000000001
  9
$DIMTIX
 70
     1
  9
$DIMSOXD
 70
     0
  9
$DIMSAH
 70
     0
  9
$DIMBLK1
  1

  9
$DIMBLK2
  1

  9
$DIMSTYLE
  2
STANDARD
  9
$DIMCLRD
 70
   256
  9
$DIMCLRE
 70
   256
  9
$DIMCLRT
 70
   256
  9
$DIMTFAC
 40
1.0
  9
$DIMGAP
 40
1.0
  9
$LUNITS
 70
     2
  9
$LUPREC
 70
     1
  9
$SKETCHINC
 40
0.1
  9
$FILLETRAD
 40
0.0
  9
$AUNITS
 70
     0
  9
$AUPREC
 70
     0
  9
$MENU
  1
E:\r13\win\SUPPORT\ACAD
  9
$ELEVATION
 40
0.0
  9
$PELEVATION
 40
0.0
  9
$THICKNESS
 40
0.0
  9
$LIMCHECK
 70
     0
  9
$BLIPMODE
 70
     0
  9
$CHAMFERA
 40
0.0
  9
$CHAMFERB
 40
0.0
  9
$SKPOLY
 70
     0
  9
$TDCREATE
 40
2449839.7822916670702398
  9
$TDUPDATE
 40
2460864.3917824071832001
  9
$TDINDWG
 40
0.3709645949
  9
$TDUSRTIMER
 40
0.3709645949
  9
$USRTIMER
 70
     1
  9
$ANGBASE
 50
0.0
  9
$ANGDIR
 70
     0
  9
$PDMODE
 70
     0
  9
$PDSIZE
 40
0.0
  9
$PLINEWID
 40
0.0
  9
$COORDS
 70
     1
  9
$SPLFRAME
 70
     0
  9
$SPLINETYPE
 70
     6
  9
$SPLINESEGS
 70
     8
  9
$ATTDIA
 70
     1
  9
$ATTREQ
 70
     1
  9
$HANDLING
 70
     1
  9
$HANDSEED
  5
3433
  9
$SURFTAB1
 70
     6
  9
$SURFTAB2
 70
     6
  9
$SURFTYPE
 70
     6
  9
$SURFU
 70
     6
  9
$SURFV
 70
     6
  9
$UCSNAME
  2

  9
$UCSORG
 10
0.0
 20
0.0
 30
0.0
  9
$UCSXDIR
 10
1.0
 20
0.0
 30
0.0
  9
$UCSYDIR
 10
0.0
 20
1.0
 30
0.0
  9
$PUCSNAME
  2

  9
$PUCSORG
 10
0.0
 20
0.0
 30
0.0
  9
$PUCSXDIR
 10
1.0
 20
0.0
 30
0.0
  9
$PUCSYDIR
 10
0.0
 20
1.0
 30
0.0
  9
$USERI1
 70
     0
  9
$USERI2
 70
     1
  9
$USERI3
 70
     1
  9
$USERI4
 70
     0
  9
$USERI5
 70
     0
  9
$USERR1
 40
0.0
  9
$USERR2
 40
0.0
  9
$USERR3
 40
0.0
  9
$USERR4
 40
0.0
  9
$USERR5
 40
0.0
  9
$WORLDVIEW
 70
     1
  9
$SHADEDGE
 70
     3
  9
$SHADEDIF
 70
    70
  9
$TILEMODE
 70
     1
  9
$MAXACTVP
 70
    16
  9
$PLIMCHECK
 70
     0
  9
$PEXTMIN
 10
1.0000000000000000E+20
 20
1.0000000000000000E+20
 30
1.0000000000000000E+20
  9
$PEXTMAX
 10
-1.0000000000000000E+20
 20
-1.0000000000000000E+20
 30
-1.0000000000000000E+20
  9
$PLIMMIN
 10
0.0
 20
0.0
  9
$PLIMMAX
 10
12.0
 20
9.0
  9
$UNITMODE
 70
     0
  9
$VISRETAIN
 70
     0
  9
$PLINEGEN
 70
     0
  9
$PSLTSCALE
 70
     0
  0
ENDSEC
  0
SECTION
  2
TABLES
  0
TABLE
  2
VPORT
 70
     1
  0
VPORT
  2
*ACTIVE
 70
     0
 10
0.0
 20
0.0
 11
1.0
 21
1.0
 12
215.9482758620690106
 22
91.9507079181961302
 13
0.0
 23
0.0
 14
10.0
 24
10.0
 15
10.0
 25
10.0
 16
0.0
 26
0.0
 36
1.0
 17
0.0
 27
0.0
 37
0.0
 40
183.9014158363922036
 41
2.3485221674876842
 42
50.0
 43
0.0
 44
0.0
 50
0.0
 51
0.0
 71
     0
 72
   500
 73
     1
 74
     0
 75
     0
 76
     0
 77
     0
 78
     2
  0
ENDTAB
  0
TABLE
  2
LTYPE
 70
     4
  0
LTYPE
  2
CONTINUOUS
 70
     0
  3
Solid Line
 72
    65
 73
     0
 40
0.0
  0
LTYPE
  2
CENTER
 70
     0
  3
____ _ ____ _ ____ _ ____ _ ____ _ ____ _ ____
 72
    65
 73
     4
 40
2.0
 49
1.25
 49
-0.25
 49
0.25
 49
-0.25
  0
LTYPE
  2
HIDDEN
 70
     0
  3
_ _ _ _ _ _ _ _ _ _ _ _ _ _ _ _ _ _ _ _ _ _ _
 72
    65
 73
     2
 40
0.375
 49
0.25
 49
-0.125
  0
LTYPE
  2
PHANTOM2
 70
     0
  3
___ _ _ ___ _ _ ___ _ _ ___ _ _
 72
    65
 73
     6
 40
1.25
 49
0.625
 49
-0.125
 49
0.125
 49
-0.125
 49
0.125
 49
-0.125
  0
ENDTAB
  0
TABLE
  2
LAYER
 70
     4
  0
LAYER
  2
0
 70
     0
 62
     7
  6
CONTINUOUS
  0
LAYER
  2
1
 70
     0
 62
     1
  6
CENTER
  0
LAYER
  2
2
 70
     0
 62
     2
  6
HIDDEN
  0
LAYER
  2
DEFPOINTS
 70
     0
 62
     7
  6
CONTINUOUS
  0
ENDTAB
  0
TABLE
  2
STYLE
 70
     2
  0
STYLE
  2
STANDARD
 70
     0
 40
0.0
 41
1.0
 50
0.0
 71
     0
 42
0.2
  3
TXT
  4
BIGFONT
  0
STYLE
  2
STANDARD1
 70
     0
 40
0.0
 41
1.0
 50
0.0
 71
     0
 42
3.0
  3
txt
  4

  0
ENDTAB
  0
TABLE
  2
VIEW
 70
     1
  0
VIEW
  2
ALL
 70
     0
 40
270.0
 10
220.9915966386554942
 20
135.0
 41
0.0
 11
0.0
 21
0.0
 31
1.0
 12
0.0
 22
0.0
 32
0.0
 42
0.0
 43
0.0
 44
0.0
 50
0.0
 71
     0
  0
ENDTAB
  0
TABLE
  2
UCS
 70
     0
  0
ENDTAB
  0
TABLE
  2
APPID
 70
    10
  0
APPID
  2
ACAD
 70
     0
  0
APPID
  2
ACAD_MLEADERVER
 70
     0
  0
APPID
  2
ACAD_NAV_VCDISPLAY
 70
     0
  0
APPID
  2
ACAD_EXEMPT_FROM_CAD_STANDARDS
 70
     0
  0
APPID
  2
ACAD_DSTYLE_DIMJAG
 70
     0
  0
APPID
  2
ACAD_DSTYLE_DIMTALN
 70
     0
  0
APPID
  2
ACAECLAYERSTANDARD
 70
     0
  0
APPID
  2
ACCMTRANSPARENCY
 70
     0
  0
APPID
  2
DCO15
 70
     0
  0
APPID
  2
ACAD_TC
 70
     0
  0
ENDTAB
  0
TABLE
  2
DIMSTYLE
 70
     1
  0
DIMSTYLE
  2
STANDARD
 70
     0
  3

  4

  5

  6

  7

 40
1.0
 41
0.18
 42
0.0625
 43
0.38
 44
0.18
 45
0.0
 46
0.0
 47
0.0
 48
0.0
140
0.18
141
0.09
142
0.0
143
25.3999999999999986
144
1.0
145
0.0
146
1.0
147
0.09
 71
     0
 72
     0
 73
     1
 74
     1
 75
     0
 76
     0
 77
     0
 78
     0
170
     0
171
     2
172
     0
173
     0
174
     0
175
     0
176
     0
177
     0
178
     0
  0
ENDTAB
  0
ENDSEC
  0
SECTION
  2
BLOCKS
  0
BLOCK
  8
0
  2
$MODEL_SPACE
 70
     0
 10
0.0
 20
0.0
 30
0.0
  3
$MODEL_SPACE
  1

  0
ENDBLK
  5
10E
  8
0
  0
BLOCK
 67
     1
  8
0
  2
$PAPER_SPACE
 70
     0
 10
0.0
 20
0.0
 30
0.0
  3
$PAPER_SPACE
  1

  0
ENDBLK
  5
10C
 67
     1
  8
0
  0
ENDSEC
  0
SECTION
  2
ENTITIES
  0
TEXT
  5
4DC
  8
0
 62
     3
 10
0.0
 20
0.0
 30
0.0
 40
5.0
  1
HD-SN-M10
  7
STANDARD1
  0
ARC
  5
2C03
  8
0
 10
90.1988243250521151
 20
92.2602781686308333
 30
0.0
 40
0.7376156870989766
 50
356.2787995063383164
 51
151.2522755928254981
  0
ARC
  5
2C04
  8
0
 10
90.1863386872165336
 20
71.7074129274172805
 30
0.0
 40
0.7485628400457071
 50
212.0867649625155025
 51
0.3821599383217771
  0
ARC
  5
2C05
  8
0
 10
86.1967215740382926
 20
94.7452500937044135
 30
0.0
 40
3.9744841070783359
 50
309.229823265387779
 51
327.5901364697776899
  0
ARC
  5
2C06
  8
0
 10
86.2163215121156554
 20
69.1969540761315756
 30
0.0
 40
3.9486173823122739
 50
32.3492325918125232
 51
50.826035114116209
  0
ARC
  5
2C07
  8
0
 10
100.9391937613152948
 20
81.9624057665074446
 30
0.0
 40
30.0041528772903696
 50
164.5361842400025978
 51
195.4638157599968906
  0
LINE
  5
2C08
  8
0
 10
90.934884876209054
 20
92.212405766507473
 30
0.0
 11
90.934884876209054
 21
71.7124057665074872
 31
0.0
  0
LINE
  5
2C09
  8
0
 10
86.1773918943090536
 20
90.0319244565074825
 30
0.0
 11
86.1773918943090536
 21
89.0372557489074836
 31
0.0
  0
LINE
  5
2C0C
  8
0
 10
86.1773918943090536
 20
74.8875557841074908
 30
0.0
 11
86.1773918943090536
 21
73.8928870765074919
 31
0.0
  0
LINE
  5
2C0E
  8
0
 10
86.1773918943090536
 20
82.9570744741074861
 30
0.0
 11
86.1773918943090536
 21
80.9677370589074883
 31
0.0
  0
LINE
  5
2C11
  8
0
 10
85.434884876209054
 20
89.1373073398074638
 30
0.0
 11
85.434884876209054
 21
82.787504193207468
 31
0.0
  0
LINE
  5
2C14
  8
0
 10
85.434884876209054
 20
81.137307339807478
 30
0.0
 11
85.434884876209054
 21
74.7875041932074538
 31
0.0
  0
LINE
  5
2C16
  8
0
 10
85.434884876209054
 20
81.137307339807478
 30
0.0
 11
72.2545780438090617
 21
81.137307339807478
 31
0.0
  0
LINE
  5
2C17
  8
0
 10
72.2545780438090617
 20
82.787504193207468
 30
0.0
 11
72.2545780438090617
 21
81.137307339807478
 31
0.0
  0
LINE
  5
2C18
  8
0
 10
72.2545780438090617
 20
82.787504193207468
 30
0.0
 11
85.434884876209054
 21
82.787504193207468
 31
0.0
  0
ARC
  5
2C19
  8
0
 10
93.7408377647712143
 20
77.962405766507473
 30
0.0
 40
21.7195616161280611
 50
171.5945541693724863
 51
188.4054458306275137
  0
LINE
  5
2C1A
  8
0
 10
72.2545780438090617
 20
74.7875041932074538
 30
0.0
 11
72.2545780438090617
 21
73.9624057665074872
 31
0.0
  0
LINE
  5
2C1B
  8
0
 10
72.0212202866090649
 20
73.9624057665074872
 30
0.0
 11
72.2545780438090617
 21
73.9624057665074872
 31
0.0
  0
LINE
  5
2C1C
  8
0
 10
72.2545780438090901
 20
89.962405766507473
 30
0.0
 11
72.0212202866090934
 21
89.962405766507473
 31
0.0
  0
LINE
  5
2C1D
  8
0
 10
72.2545780438090901
 20
89.962405766507473
 30
0.0
 11
72.2545780438090617
 21
89.1373073398074638
 31
0.0
  0
ARC
  5
2C1E
  8
0
 10
93.741232106989429
 20
85.962405766507473
 30
0.0
 40
21.7199517225736116
 50
171.5947062298191952
 51
188.4052937701808048
  0
LINE
  5
2C1F
  8
0
 10
72.2545780438090617
 20
74.7875041932074538
 30
0.0
 11
85.434884876209054
 21
74.7875041932074538
 31
0.0
  0
LINE
  5
2C20
  8
0
 10
85.434884876209054
 20
89.1373073398074638
 30
0.0
 11
72.2545780438090617
 21
89.1373073398074638
 31
0.0
  0
LINE
  5
2C22
  8
0
 10
85.434884876209054
 20
73.9624057665074872
 30
0.0
 11
72.2545780438090617
 21
73.9624057665074872
 31
0.0
  0
LINE
  5
2C23
  8
0
 10
72.2545780438090901
 20
89.962405766507473
 30
0.0
 11
85.434884876209054
 21
89.962405766507473
 31
0.0
  0
LINE
  5
2C25
  8
0
 10
89.5521228264090468
 20
92.6150373454075151
 30
0.0
 11
89.5521228264090468
 21
71.3097741876074736
 31
0.0
  0
CIRCLE
  5
2C26
  8
0
 10
29.9348848762090611
 20
29.9624057661083292
 30
0.0
 40
10.9999999999999698
  0
LINE
  5
2C27
  8
0
 10
22.7599833029090313
 20
24.8672328138083287
 30
0.0
 11
29.1097864495090484
 21
21.2011722578083415
 31
0.0
  0
ARC
  5
2C28
  8
0
 10
29.9348857041410703
 20
29.9624062440684718
 30
0.0
 40
8.8000009517973279
 50
204.6199779122061955
 51
215.3800220874312004
  0
LINE
  5
2C29
  8
0
 10
21.9348848762090505
 20
33.6284663221083235
 30
0.0
 11
21.9348848762090505
 21
26.2963452101083206
 31
0.0
  0
ARC
  5
2C2A
  8
0
 10
29.9371006988216912
 20
29.9611264603729595
 30
0.0
 40
8.8025473434197288
 50
144.6215388279447041
 51
155.3784611724169054
  0
LINE
  5
2C2B
  8
0
 10
29.1097864495090484
 20
38.7236392744083275
 30
0.0
 11
22.7599833029090313
 21
35.0575787184083083
 31
0.0
  0
ARC
  5
2C2C
  8
0
 10
29.9348848762091109
 20
29.9623867521203486
 30
0.0
 40
8.800018930266015
 50
84.6199889362400057
 51
95.3800110637616427
  0
LINE
  5
2C2D
  8
0
 10
37.1097864495090519
 20
35.0575787184083083
 30
0.0
 11
30.7599833029090384
 21
38.7236392744083275
 31
0.0
  0
ARC
  5
2C2E
  8
0
 10
29.9352545328185613
 20
29.9626191874978893
 30
0.0
 40
8.7995750377632103
 50
24.6197167421197491
 51
35.3802832575175472
  0
LINE
  5
2C2F
  8
0
 10
37.9348848762062971
 20
26.2963452101376802
 30
0.0
 11
37.9348848762090469
 21
33.6284663221083235
 31
0.0
  0
ARC
  5
2C30
  8
0
 10
29.9357250405183812
 20
29.9619206968809806
 30
0.0
 40
8.7990341359660817
 50
324.6193850259147098
 51
335.3806149756322839
  0
LINE
  5
2C31
  8
0
 10
30.7599833029090384
 20
21.2011722578083415
 30
0.0
 11
37.1097864495090519
 21
24.8672328138083287
 31
0.0
  0
ARC
  5
2C32
  8
0
 10
29.9348848762090789
 20
29.9624068704872784
 30
0.0
 40
8.8000010995537021
 50
264.619978003015774
 51
275.3800219969825207
  0
CIRCLE
  5
2C45
  8
0
 10
29.9348848762090611
 20
29.9624057661083292
 30
0.0
 40
10.6526315789474193
  0
ARC
  5
2C46
  8
0
 10
90.1853464479693372
 20
40.2139909470626691
 30
0.0
 40
0.7495401044685356
 50
359.8788267023527965
 51
147.6522483968147128
  0
ARC
  5
2C47
  8
0
 10
90.1858054280226753
 20
19.7092443049254911
 30
0.0
 40
0.7490861195731496
 50
212.2271116888219069
 51
0.2418132731270562
  0
ARC
  5
2C48
  8
0
 10
86.1782941784729246
 20
42.7607621763586891
 30
0.0
 40
3.9983565120571982
 50
269.9870704188593891
 51
327.5440046752846115
  0
ARC
  5
2C49
  8
0
 10
86.2378126015730402
 20
17.2724673844353198
 30
0.0
 40
3.8904075975501362
 50
31.5790462446938385
 51
90.8898786611603811
  0
ARC
  5
2C4A
  8
0
 10
100.9348852128687071
 20
29.96240576610791
 30
0.0
 40
30.0000003218602487
 50
162.9423765683692125
 51
197.0576234316307023
  0
LINE
  5
2C4B
  8
0
 10
86.1773918943090109
 20
38.7624057661079178
 30
0.0
 11
72.2545780438090333
 21
38.7624057661079178
 31
0.0
  0
LINE
  5
2C4C
  8
0
 10
72.2545780438090333
 20
21.1624057661078986
 30
0.0
 11
86.1773918943090109
 21
21.1624057661078986
 31
0.0
  0
LINE
  5
2C4D
  8
0
 10
90.934884876209054
 20
40.2124057661078993
 30
0.0
 11
90.934884876209054
 21
19.7124057669079207
 31
0.0
  0
LINE
  5
2C4E
  8
0
 10
86.1773918943090109
 20
26.4520114704079212
 30
0.0
 11
86.1773918943090109
 21
24.7291947321079491
 31
0.0
  0
LINE
  5
2C50
  8
0
 10
86.1773918943090109
 20
35.1956168001079277
 30
0.0
 11
86.1773918943090109
 21
33.4728000618079093
 31
0.0
  0
LINE
  5
2C54
  8
0
 10
85.4348848762090256
 20
26.2963452101079191
 30
0.0
 11
85.4348848762090256
 21
33.6284663221078972
 31
0.0
  0
LINE
  5
2C56
  8
0
 10
85.4348848762090256
 20
24.8672328138079095
 30
0.0
 11
72.2545780438090333
 21
24.8672328138079095
 31
0.0
  0
LINE
  5
2C57
  8
0
 10
72.2545780438090333
 20
26.2963452101079191
 30
0.0
 11
72.2545780438090333
 21
24.8672328138079095
 31
0.0
  0
LINE
  5
2C58
  8
0
 10
72.2545780438090333
 20
26.2963452101079191
 30
0.0
 11
85.4348848762090256
 21
26.2963452101079191
 31
0.0
  0
LINE
  5
2C5B
  8
0
 10
85.4348848762090256
 20
33.6284663221078972
 30
0.0
 11
72.2545780438090333
 21
33.6284663221078972
 31
0.0
  0
LINE
  5
2C5C
  8
0
 10
72.2545780438090333
 20
35.0575787184079104
 30
0.0
 11
72.2545780438090333
 21
33.6284663221078972
 31
0.0
  0
LINE
  5
2C5D
  8
0
 10
72.2545780438090333
 20
35.0575787184079104
 30
0.0
 11
85.4348848762090256
 21
35.0575787184079104
 31
0.0
  0
ARC
  5
2C5E
  8
0
 10
100.9492146770020042
 20
29.96240576610791
 30
0.0
 40
28.9278787938424884
 50
172.7192670566564061
 51
187.2807329433431107
  0
LINE
  5
2C5F
  8
0
 10
72.2545780438090333
 20
38.7624057661079178
 30
0.0
 11
72.2545780438090333
 21
38.7236392744079581
 31
0.0
  0
ARC
  5
2C60
  8
0
 10
79.3527438181041873
 20
36.89060899640792
 30
0.0
 40
7.3310270330588754
 50
165.5202799974344998
 51
194.4797200025651023
  0
ARC
  5
2C61
  8
0
 10
79.3567243912827109
 20
23.0342025358078999
 30
0.0
 40
7.3348812356437296
 50
165.5280546318699919
 51
194.4719453681294965
  0
LINE
  5
2C62
  8
0
 10
72.2545780438090333
 20
21.2011722578079187
 30
0.0
 11
72.2545780438090333
 21
21.1624057661078986
 31
0.0
  0
LINE
  5
2C64
  8
0
 10
85.4348848762090256
 20
24.8672328138079095
 30
0.0
 11
85.4348848762090256
 21
21.2011722578079187
 31
0.0
  0
LINE
  5
2C65
  8
0
 10
85.4348848762090256
 20
35.0575787184079104
 30
0.0
 11
85.4348848762090256
 21
38.7236392744079581
 31
0.0
  0
LINE
  5
2C67
  8
0
 10
85.4348848762090256
 20
38.7236392744079581
 30
0.0
 11
72.2545780438090333
 21
38.7236392744079581
 31
0.0
  0
LINE
  5
2C68
  8
0
 10
72.2545780438090333
 20
21.2011722578079187
 30
0.0
 11
85.4348848762090256
 21
21.2011722578079187
 31
0.0
  0
LINE
  5
2C69
  8
0
 10
89.5521228264090325
 20
40.615037345007913
 30
0.0
 11
89.5521228264090325
 21
19.3097741872078998
 31
0.0
  0
LINE
  5
2C6A
  8
0
 10
86.1773918943090109
 20
38.7624057661079178
 30
0.0
 11
86.1773918943090109
 21
38.7060110958079306
 31
0.0
  0
LINE
  5
2C6B
  8
0
 10
86.1773918943090109
 20
21.2188004364079497
 30
0.0
 11
86.1773918943090109
 21
21.1624057661078986
 31
0.0
  0
LINE
  5
2D91
  8
1
 10
29.9348848762090611
 20
42.9624057661082972
 30
0.0
 11
29.9348848762090611
 21
16.9624057661083611
 31
0.0
  0
LINE
  5
2D92
  8
1
 10
42.9348848762090185
 20
29.9624057661083292
 30
0.0
 11
16.9348848762090789
 21
29.9624057661083292
 31
0.0
  0
LINE
  5
2D9B
  8
1
 10
92.934884876209054
 20
29.9624057665079206
 30
0.0
 11
68.9348848910084371
 21
29.96240576650791
 31
0.0
  0
LINE
  5
2D9C
  8
1
 10
92.934884876209054
 20
81.9624057665074872
 30
0.0
 11
68.9350408840249145
 21
81.9624057665074872
 31
0.0
  0
POLYLINE
  5
2FD4
  8
0
 66
     1
 10
0.0
 20
0.0
 30
0.0
  0
VERTEX
  5
3202
  8
0
 10
30.9295535838344904
 20
38.7060110958376384
 30
0.0
  0
VERTEX
  5
3203
  8
0
 10
30.8790549651554116
 20
38.7116352361305474
 30
0.0
  0
VERTEX
  5
3204
  8
0
 10
30.836803355366591
 20
38.7161372674039512
 30
0.0
  0
VERTEX
  5
3205
  8
0
 10
30.8034229022425698
 20
38.7195327322504994
 30
0.0
  0
VERTEX
  5
3206
  8
0
 10
30.7793328538354594
 20
38.7218699614337822
 30
0.0
  0
VERTEX
  5
3207
  8
0
 10
30.7648080375206199
 20
38.7232127270310968
 30
0.0
  0
VERTEX
  5
3208
  8
0
 10
30.7599833029090384
 20
38.7236392744083275
 30
0.0
  0
SEQEND
  5
3209
  8
0
  0
POLYLINE
  5
2FD5
  8
0
 66
     1
 10
0.0
 20
0.0
 30
0.0
  0
VERTEX
  5
320A
  8
0
 10
29.1097864495090484
 20
38.7236392744083204
 30
0.0
  0
VERTEX
  5
320B
  8
0
 10
29.1049617148974598
 20
38.7232127270311679
 30
0.0
  0
VERTEX
  5
320C
  8
0
 10
29.090436898582599
 20
38.7218699614338391
 30
0.0
  0
VERTEX
  5
320D
  8
0
 10
29.0663468501754814
 20
38.7195327322505278
 30
0.0
  0
VERTEX
  5
320E
  8
0
 10
29.0329663970514993
 20
38.7161372674039725
 30
0.0
  0
VERTEX
  5
320F
  8
0
 10
28.9907147872627
 20
38.7116352361306113
 30
0.0
  0
VERTEX
  5
3210
  8
0
 10
28.9402161685836496
 20
38.7060110958377379
 30
0.0
  0
SEQEND
  5
3211
  8
0
  0
POLYLINE
  5
2FD6
  8
0
 66
     1
 10
0.0
 20
0.0
 30
0.0
  0
VERTEX
  5
3212
  8
0
 10
28.9402161685836496
 20
38.7060110958377379
 30
0.0
  0
VERTEX
  5
3213
  8
0
 10
28.8006684763865906
 20
38.6986194472351528
 30
0.0
  0
VERTEX
  5
3214
  8
0
 10
28.6479393331857217
 20
38.706322853756312
 30
0.0
  0
VERTEX
  5
3215
  8
0
 10
28.2989490490594697
 20
38.7577157393694378
 30
0.0
  0
VERTEX
  5
3216
  8
0
 10
27.8791328013499786
 20
38.8316967677441625
 30
0.0
  0
VERTEX
  5
3217
  8
0
 10
27.6414758580580688
 20
38.8665996076661386
 30
0.0
  0
VERTEX
  5
3218
  8
0
 10
27.3858957367503209
 20
38.8926577836987519
 30
0.0
  0
VERTEX
  5
3219
  8
0
 10
27.1137556043024404
 20
38.9039136866808875
 30
0.0
  0
VERTEX
  5
321A
  8
0
 10
26.8288425089684495
 20
38.8966735116238667
 30
0.0
  0
VERTEX
  5
321B
  8
0
 10
26.5355098882333493
 20
38.8680467907292027
 30
0.0
  0
VERTEX
  5
321C
  8
0
 10
26.2379884048859893
 20
38.816154046671123
 30
0.0
  0
VERTEX
  5
321D
  8
0
 10
25.9404088311838699
 20
38.7396903792911829
 30
0.0
  0
VERTEX
  5
321E
  8
0
 10
25.6466305523995608
 20
38.6386013313329784
 30
0.0
  0
VERTEX
  5
321F
  8
0
 10
25.3600815184652504
 20
38.5135518911369417
 30
0.0
  0
VERTEX
  5
3220
  8
0
 10
25.0828712950752184
 20
38.3666888805213802
 30
0.0
  0
VERTEX
  5
3221
  8
0
 10
24.8170240208674784
 20
38.200131675883398
 30
0.0
  0
VERTEX
  5
3222
  8
0
 10
24.5654186147260383
 20
38.0145431206158335
 30
0.0
  0
VERTEX
  5
3223
  8
0
 10
24.3309943418198884
 20
37.8106606699568815
 30
0.0
  0
VERTEX
  5
3224
  8
0
 10
24.1160126597402495
 20
37.5911568105484974
 30
0.0
  0
VERTEX
  5
3225
  8
0
 10
23.9223185965299798
 20
37.3594390073987412
 30
0.0
  0
VERTEX
  5
3226
  8
0
 10
23.7508374905053792
 20
37.1197272466395418
 30
0.0
  0
VERTEX
  5
3227
  8
0
 10
23.6020596741359512
 20
36.8766095356345929
 30
0.0
  0
VERTEX
  5
3228
  8
0
 10
23.4756887498156992
 20
36.6353065304851668
 30
0.0
  0
VERTEX
  5
3229
  8
0
 10
23.370431282069859
 20
36.4009393403890869
 30
0.0
  0
VERTEX
  5
322A
  8
0
 10
23.2817842441015692
 20
36.1776318621051871
 30
0.0
  0
VERTEX
  5
322B
  8
0
 10
23.1359730681014391
 20
35.7770457079102471
 30
0.0
  0
VERTEX
  5
322C
  8
0
 10
23.0061171654639089
 20
35.4485419807955324
 30
0.0
  0
VERTEX
  5
322D
  8
0
 10
22.8600348938111608
 20
35.1956168001261531
 30
0.0
  0
SEQEND
  5
322E
  8
0
  0
POLYLINE
  5
2FD7
  8
0
 66
     1
 10
0.0
 20
0.0
 30
0.0
  0
VERTEX
  5
322F
  8
0
 10
37.0097348586069472
 20
35.1956168001260323
 30
0.0
  0
VERTEX
  5
3230
  8
0
 10
36.9335596570428493
 20
35.3127728223068331
 30
0.0
  0
VERTEX
  5
3231
  8
0
 10
36.8638664311858406
 20
35.4488918434774405
 30
0.0
  0
VERTEX
  5
3232
  8
0
 10
36.7338788336369717
 20
35.7768227380114823
 30
0.0
  0
VERTEX
  5
3233
  8
0
 10
36.5880401597517277
 20
36.1773847876369317
 30
0.0
  0
VERTEX
  5
3234
  8
0
 10
36.4994384341430873
 20
36.4006531578744301
 30
0.0
  0
VERTEX
  5
3235
  8
0
 10
36.3942154159102031
 20
36.6350211236454726
 30
0.0
  0
VERTEX
  5
3236
  8
0
 10
36.2678932476108002
 20
36.8763293432255495
 30
0.0
  0
VERTEX
  5
3237
  8
0
 10
36.1191665244160234
 20
37.1194512341270411
 30
0.0
  0
VERTEX
  5
3238
  8
0
 10
35.9477087465269278
 20
37.3591713749950998
 30
0.0
  0
VERTEX
  5
3239
  8
0
 10
35.7540075702275217
 20
37.5908861657167321
 30
0.0
  0
VERTEX
  5
323A
  8
0
 10
35.5389983049591081
 20
37.8103658025002005
 30
0.0
  0
VERTEX
  5
323B
  8
0
 10
35.3045634819906979
 20
38.0142407310284085
 30
0.0
  0
VERTEX
  5
323C
  8
0
 10
35.0529929730847201
 20
38.1998747537474372
 30
0.0
  0
VERTEX
  5
323D
  8
0
 10
34.7872007633202713
 20
38.3665143440839387
 30
0.0
  0
VERTEX
  5
323E
  8
0
 10
34.5100343558164013
 20
38.5134662347551213
 30
0.0
  0
VERTEX
  5
323F
  8
0
 10
34.2235072492321066
 20
38.6385686305688765
 30
0.0
  0
VERTEX
  5
3240
  8
0
 10
33.9297277311225685
 20
38.7396447808401021
 30
0.0
  0
VERTEX
  5
3241
  8
0
 10
33.6321409716064821
 20
38.816072449165901
 30
0.0
  0
VERTEX
  5
3242
  8
0
 10
33.3346204359645029
 20
38.8679575268941022
 30
0.0
  0
VERTEX
  5
3243
  8
0
 10
33.0412834085488214
 20
38.8966086406011584
 30
0.0
  0
VERTEX
  5
3244
  8
0
 10
32.7563483865240315
 20
38.9038951535937372
 30
0.0
  0
VERTEX
  5
3245
  8
0
 10
32.484188391895259
 20
38.8926840817793931
 30
0.0
  0
VERTEX
  5
3246
  8
0
 10
32.2285917175857506
 20
38.8666561277369027
 30
0.0
  0
VERTEX
  5
3247
  8
0
 10
31.9908782495528214
 20
38.8317729754457019
 30
0.0
  0
VERTEX
  5
3248
  8
0
 10
31.5710548756153209
 20
38.7577560809204584
 30
0.0
  0
VERTEX
  5
3249
  8
0
 10
31.2216343513771903
 20
38.7059627278786706
 30
0.0
  0
VERTEX
  5
324A
  8
0
 10
30.9295535838344904
 20
38.7060110958376384
 30
0.0
  0
SEQEND
  5
324B
  8
0
  0
POLYLINE
  5
2FD8
  8
0
 66
     1
 10
0.0
 20
0.0
 30
0.0
  0
VERTEX
  5
324C
  8
0
 10
37.1097864495090519
 20
35.0575787184083083
 30
0.0
  0
VERTEX
  5
324D
  8
0
 10
37.1070046813639465
 20
35.0615437874546387
 30
0.0
  0
VERTEX
  5
324E
  8
0
 10
37.0985794040879284
 20
35.0734512645699468
 30
0.0
  0
VERTEX
  5
324F
  8
0
 10
37.084510280037108
 20
35.0931452438772808
 30
0.0
  0
VERTEX
  5
3250
  8
0
 10
37.064879494660353
 20
35.1203558318492028
 30
0.0
  0
VERTEX
  5
3251
  8
0
 10
37.0398548163145165
 20
35.1546957836404204
 30
0.0
  0
VERTEX
  5
3252
  8
0
 10
37.0097348586069472
 20
35.1956168001260323
 30
0.0
  0
SEQEND
  5
3253
  8
0
  0
POLYLINE
  5
2FD9
  8
0
 66
     1
 10
0.0
 20
0.0
 30
0.0
  0
VERTEX
  5
3254
  8
0
 10
38.0044035662292288
 20
33.472800061827229
 30
0.0
  0
VERTEX
  5
3255
  8
0
 10
37.9840249052609167
 20
33.5193452185985166
 30
0.0
  0
VERTEX
  5
3256
  8
0
 10
37.9667979738178971
 20
33.5581872016631024
 30
0.0
  0
VERTEX
  5
3257
  8
0
 10
37.9530483060706914
 20
33.5887932544815584
 30
0.0
  0
VERTEX
  5
3258
  8
0
 10
37.9430273817143302
 20
33.6108244629722535
 30
0.0
  0
VERTEX
  5
3259
  8
0
 10
37.936927842675523
 20
33.6240747056848335
 30
0.0
  0
VERTEX
  5
325A
  8
0
 10
37.9348848762090469
 20
33.6284663221083235
 30
0.0
  0
SEQEND
  5
325B
  8
0
  0
POLYLINE
  5
2FDA
  8
0
 66
     1
 10
0.0
 20
0.0
 30
0.0
  0
VERTEX
  5
325C
  8
0
 10
38.0044035662323267
 20
26.4520114703966307
 30
0.0
  0
VERTEX
  5
325D
  8
0
 10
38.0677763415799291
 20
26.5765535146400182
 30
0.0
  0
VERTEX
  5
325E
  8
0
 10
38.1508158410044587
 20
26.7049540832899588
 30
0.0
  0
VERTEX
  5
325F
  8
0
 10
38.3698150239589992
 20
26.9815140591538203
 30
0.0
  0
VERTEX
  5
3260
  8
0
 10
38.6437432360603168
 20
27.3082358907237186
 30
0.0
  0
VERTEX
  5
3261
  8
0
 10
38.7928075944383011
 20
27.4965704124037984
 30
0.0
  0
VERTEX
  5
3262
  8
0
 10
38.9432169013954024
 20
27.7047865883560398
 30
0.0
  0
VERTEX
  5
3263
  8
0
 10
39.0891235279840501
 20
27.9347321273777496
 30
0.0
  0
VERTEX
  5
3264
  8
0
 10
39.2253622981235992
 20
28.1850363707054505
 30
0.0
  0
VERTEX
  5
3265
  8
0
 10
39.3471918936778025
 20
28.4534172394527793
 30
0.0
  0
VERTEX
  5
3266
  8
0
 10
39.4509023265105725
 20
28.737097742939639
 30
0.0
  0
VERTEX
  5
3267
  8
0
 10
39.5333619588983609
 20
29.0330889247974397
 30
0.0
  0
VERTEX
  5
3268
  8
0
 10
39.5926580022741135
 20
29.3380673657491506
 30
0.0
  0
VERTEX
  5
3269
  8
0
 10
39.6276932466950598
 20
29.6487452998258405
 30
0.0
  0
VERTEX
  5
326A
  8
0
 10
39.6392153114161374
 20
29.9622410121554488
 30
0.0
  0
VERTEX
  5
326B
  8
0
 10
39.6279618294833611
 20
30.2757533366990508
 30
0.0
  0
VERTEX
  5
326C
  8
0
 10
39.5930435868873829
 20
30.5864472254423099
 30
0.0
  0
VERTEX
  5
326D
  8
0
 10
39.5336493554335675
 20
30.8913957497545795
 30
0.0
  0
VERTEX
  5
326E
  8
0
 10
39.4510074963885415
 20
31.1873140953808985
 30
0.0
  0
VERTEX
  5
326F
  8
0
 10
39.347177413196448
 20
31.4709162667173992
 30
0.0
  0
VERTEX
  5
3270
  8
0
 10
39.2253339604474718
 20
31.7392861218387701
 30
0.0
  0
VERTEX
  5
3271
  8
0
 10
39.0891826523323687
 20
31.9896955734347195
 30
0.0
  0
VERTEX
  5
3272
  8
0
 10
38.9433912896365086
 20
32.2197807303503225
 30
0.0
  0
VERTEX
  5
3273
  8
0
 10
38.7930469614567031
 20
32.4281164993467996
 30
0.0
  0
VERTEX
  5
3274
  8
0
 10
38.6439830064511511
 20
32.6165507110113992
 30
0.0
  0
VERTEX
  5
3275
  8
0
 10
38.3699704835008504
 20
32.943107399809513
 30
0.0
  0
VERTEX
  5
3276
  8
0
 10
38.1504001068366279
 20
33.2198124286259571
 30
0.0
  0
VERTEX
  5
3277
  8
0
 10
38.0044035662292288
 20
33.472800061827229
 30
0.0
  0
SEQEND
  5
3278
  8
0
  0
POLYLINE
  5
2FDB
  8
0
 66
     1
 10
0.0
 20
0.0
 30
0.0
  0
VERTEX
  5
3279
  8
0
 10
37.9348848762062971
 20
26.2963452101376802
 30
0.0
  0
VERTEX
  5
327A
  8
0
 10
37.936927842675523
 20
26.3007368265319208
 30
0.0
  0
VERTEX
  5
327B
  8
0
 10
37.9430273817143018
 20
26.3139870692445008
 30
0.0
  0
VERTEX
  5
327C
  8
0
 10
37.9530483060706914
 20
26.3360182777351213
 30
0.0
  0
VERTEX
  5
327D
  8
0
 10
37.9667979738178829
 20
26.3666243305536412
 30
0.0
  0
VERTEX
  5
327E
  8
0
 10
37.9840249052609593
 20
26.4054663136182413
 30
0.0
  0
VERTEX
  5
327F
  8
0
 10
38.0044035662323267
 20
26.4520114703966307
 30
0.0
  0
SEQEND
  5
3280
  8
0
  0
POLYLINE
  5
2FDC
  8
0
 66
     1
 10
0.0
 20
0.0
 30
0.0
  0
VERTEX
  5
3281
  8
0
 10
37.0097348586069472
 20
24.7291947320907184
 30
0.0
  0
VERTEX
  5
3282
  8
0
 10
37.039854816314552
 20
24.7701157485763197
 30
0.0
  0
VERTEX
  5
3283
  8
0
 10
37.0648794946603175
 20
24.8044557003675514
 30
0.0
  0
VERTEX
  5
3284
  8
0
 10
37.0845102800371365
 20
24.8316662883394592
 30
0.0
  0
VERTEX
  5
3285
  8
0
 10
37.0985794040879284
 20
24.8513602676467791
 30
0.0
  0
VERTEX
  5
3286
  8
0
 10
37.1070046813639465
 20
24.8632677447620694
 30
0.0
  0
VERTEX
  5
3287
  8
0
 10
37.1097864495090519
 20
24.8672328138083287
 30
0.0
  0
SEQEND
  5
3288
  8
0
  0
POLYLINE
  5
2FDD
  8
0
 66
     1
 10
0.0
 20
0.0
 30
0.0
  0
VERTEX
  5
3289
  8
0
 10
30.9295535838344584
 20
21.21880043637913
 30
0.0
  0
VERTEX
  5
328A
  8
0
 10
31.0691012760314109
 20
21.2261920849815411
 30
0.0
  0
VERTEX
  5
328B
  8
0
 10
31.2218304192319707
 20
21.2184886784601083
 30
0.0
  0
VERTEX
  5
328C
  8
0
 10
31.5708207033585815
 20
21.1670957928473413
 30
0.0
  0
VERTEX
  5
328D
  8
0
 10
31.9906369510689785
 20
21.0931147644736789
 30
0.0
  0
VERTEX
  5
328E
  8
0
 10
32.2282938943604265
 20
21.0582119245509602
 30
0.0
  0
VERTEX
  5
328F
  8
0
 10
32.4838740156678796
 20
21.032153748517981
 30
0.0
  0
VERTEX
  5
3290
  8
0
 10
32.7560141481160727
 20
21.0208978455369611
 30
0.0
  0
VERTEX
  5
3291
  8
0
 10
33.0409272434504473
 20
21.0281380205949908
 30
0.0
  0
VERTEX
  5
3292
  8
0
 10
33.3342598641854977
 20
21.0567647414890011
 30
0.0
  0
VERTEX
  5
3293
  8
0
 10
33.6317813475326872
 20
21.108657485545681
 30
0.0
  0
VERTEX
  5
3294
  8
0
 10
33.9293609212348599
 20
21.1851211529248111
 30
0.0
  0
VERTEX
  5
3295
  8
0
 10
34.2231392000192116
 20
21.286210200882941
 30
0.0
  0
VERTEX
  5
3296
  8
0
 10
34.5096882339533693
 20
21.4112596410794396
 30
0.0
  0
VERTEX
  5
3297
  8
0
 10
34.7868984573431419
 20
21.5581226516955411
 30
0.0
  0
VERTEX
  5
3298
  8
0
 10
35.0527457315506581
 20
21.7246798563337506
 30
0.0
  0
VERTEX
  5
3299
  8
0
 10
35.3043511376920378
 20
21.9102684116013613
 30
0.0
  0
VERTEX
  5
329A
  8
0
 10
35.5387754105982481
 20
22.1141508622602814
 30
0.0
  0
VERTEX
  5
329B
  8
0
 10
35.7537570926781214
 20
22.333654721668541
 30
0.0
  0
VERTEX
  5
329C
  8
0
 10
35.9474511558887784
 20
22.5653725248180699
 30
0.0
  0
VERTEX
  5
329D
  8
0
 10
36.1189322619136419
 20
22.8050842855771094
 30
0.0
  0
VERTEX
  5
329E
  8
0
 10
36.2677100782826471
 20
23.0482019965821401
 30
0.0
  0
VERTEX
  5
329F
  8
0
 10
36.3940810026024408
 20
23.2895050017316514
 30
0.0
  0
VERTEX
  5
32A0
  8
0
 10
36.4993384703482775
 20
23.5238721918277705
 30
0.0
  0
VERTEX
  5
32A1
  8
0
 10
36.5879855083167129
 20
23.7471796701116098
 30
0.0
  0
VERTEX
  5
32A2
  8
0
 10
36.7337966843166726
 20
24.1477658243065001
 30
0.0
  0
VERTEX
  5
32A3
  8
0
 10
36.8636525869541529
 20
24.4762695514212503
 30
0.0
  0
VERTEX
  5
32A4
  8
0
 10
37.0097348586069472
 20
24.7291947320907184
 30
0.0
  0
SEQEND
  5
32A5
  8
0
  0
POLYLINE
  5
2FDE
  8
0
 66
     1
 10
0.0
 20
0.0
 30
0.0
  0
VERTEX
  5
32A6
  8
0
 10
30.7599833029090384
 20
21.2011722578083202
 30
0.0
  0
VERTEX
  5
32A7
  8
0
 10
30.7648080375206199
 20
21.201598805185629
 30
0.0
  0
VERTEX
  5
32A8
  8
0
 10
30.7793328538354913
 20
21.2029415707828903
 30
0.0
  0
VERTEX
  5
32A9
  8
0
 10
30.8034229022425983
 20
21.2052787999662193
 30
0.0
  0
VERTEX
  5
32AA
  8
0
 10
30.836803355366591
 20
21.2086742648127995
 30
0.0
  0
VERTEX
  5
32AB
  8
0
 10
30.8790549651553796
 20
21.2131762960861998
 30
0.0
  0
VERTEX
  5
32AC
  8
0
 10
30.9295535838344584
 20
21.21880043637913
 30
0.0
  0
SEQEND
  5
32AD
  8
0
  0
POLYLINE
  5
2FDF
  8
0
 66
     1
 10
0.0
 20
0.0
 30
0.0
  0
VERTEX
  5
32AE
  8
0
 10
28.940216168583671
 20
21.21880043637913
 30
0.0
  0
VERTEX
  5
32AF
  8
0
 10
28.9907147872627
 20
21.2131762960862282
 30
0.0
  0
VERTEX
  5
32B0
  8
0
 10
29.0329663970515206
 20
21.2086742648128812
 30
0.0
  0
VERTEX
  5
32B1
  8
0
 10
29.0663468501755418
 20
21.2052787999663295
 30
0.0
  0
VERTEX
  5
32B2
  8
0
 10
29.0904368985826487
 20
21.2029415707829898
 30
0.0
  0
VERTEX
  5
32B3
  8
0
 10
29.1049617148975202
 20
21.2015988051856397
 30
0.0
  0
VERTEX
  5
32B4
  8
0
 10
29.1097864495090484
 20
21.2011722578083415
 30
0.0
  0
SEQEND
  5
32B5
  8
0
  0
POLYLINE
  5
2FE0
  8
0
 66
     1
 10
0.0
 20
0.0
 30
0.0
  0
VERTEX
  5
32B6
  8
0
 10
22.8600348938111892
 20
24.7291947320907184
 30
0.0
  0
VERTEX
  5
32B7
  8
0
 10
22.9362100953753192
 20
24.6120387099098785
 30
0.0
  0
VERTEX
  5
32B8
  8
0
 10
23.0059033212326085
 20
24.4759196887392001
 30
0.0
  0
VERTEX
  5
32B9
  8
0
 10
23.1358909187811683
 20
24.1479887942052294
 30
0.0
  0
VERTEX
  5
32BA
  8
0
 10
23.2817295926663483
 20
23.7474267445798191
 30
0.0
  0
VERTEX
  5
32BB
  8
0
 10
23.3703313182751913
 20
23.5241583743422993
 30
0.0
  0
VERTEX
  5
32BC
  8
0
 10
23.4755543365079689
 20
23.2897904085712284
 30
0.0
  0
VERTEX
  5
32BD
  8
0
 10
23.6018765048068211
 20
23.0484821889910414
 30
0.0
  0
VERTEX
  5
32BE
  8
0
 10
23.7506032280012391
 20
22.8053602980895
 30
0.0
  0
VERTEX
  5
32BF
  8
0
 10
23.9220610058906402
 20
22.5656401572215586
 30
0.0
  0
VERTEX
  5
32C0
  8
0
 10
24.1157621821905401
 20
22.3339253665000612
 30
0.0
  0
VERTEX
  5
32C1
  8
0
 10
24.3307714474589716
 20
22.1144457297165395
 30
0.0
  0
VERTEX
  5
32C2
  8
0
 10
24.5652062704272112
 20
21.9105708011882392
 30
0.0
  0
VERTEX
  5
32C3
  8
0
 10
24.8167767793332317
 20
21.7249367784692886
 30
0.0
  0
VERTEX
  5
32C4
  8
0
 10
25.0825689890977799
 20
21.5582971881328298
 30
0.0
  0
VERTEX
  5
32C5
  8
0
 10
25.3597353966016783
 20
21.411345297461601
 30
0.0
  0
VERTEX
  5
32C6
  8
0
 10
25.6462625031859091
 20
21.2862429016477783
 30
0.0
  0
VERTEX
  5
32C7
  8
0
 10
25.9400420212954295
 20
21.1851667513766593
 30
0.0
  0
VERTEX
  5
32C8
  8
0
 10
26.2376287808115798
 20
21.1087390830508213
 30
0.0
  0
VERTEX
  5
32C9
  8
0
 10
26.535149316453591
 20
21.0568540053223288
 30
0.0
  0
VERTEX
  5
32CA
  8
0
 10
26.8284863438693186
 20
21.0282028916149883
 30
0.0
  0
VERTEX
  5
32CB
  8
0
 10
27.1134213658941086
 20
21.0209163786225695
 30
0.0
  0
VERTEX
  5
32CC
  8
0
 10
27.3855813605227389
 20
21.0321274504373399
 30
0.0
  0
VERTEX
  5
32CD
  8
0
 10
27.6411780348319382
 20
21.0581554044802886
 30
0.0
  0
VERTEX
  5
32CE
  8
0
 10
27.8788915028647502
 20
21.0930385567716705
 30
0.0
  0
VERTEX
  5
32CF
  8
0
 10
28.2987148768028192
 20
21.1670554512962887
 30
0.0
  0
VERTEX
  5
32D0
  8
0
 10
28.6481354010410314
 20
21.2188488043379984
 30
0.0
  0
VERTEX
  5
32D1
  8
0
 10
28.940216168583671
 20
21.21880043637913
 30
0.0
  0
SEQEND
  5
32D2
  8
0
  0
POLYLINE
  5
2FE1
  8
0
 66
     1
 10
0.0
 20
0.0
 30
0.0
  0
VERTEX
  5
32D3
  8
0
 10
22.7599833029090313
 20
24.8672328138083287
 30
0.0
  0
VERTEX
  5
32D4
  8
0
 10
22.7627650710542184
 20
24.8632677447621298
 30
0.0
  0
VERTEX
  5
32D5
  8
0
 10
22.77119034833024
 20
24.8513602676468217
 30
0.0
  0
VERTEX
  5
32D6
  8
0
 10
22.7852594723810284
 20
24.8316662883395409
 30
0.0
  0
VERTEX
  5
32D7
  8
0
 10
22.804890257757819
 20
24.8044557003675585
 30
0.0
  0
VERTEX
  5
32D8
  8
0
 10
22.82991493610362
 20
24.7701157485763197
 30
0.0
  0
VERTEX
  5
32D9
  8
0
 10
22.8600348938111892
 20
24.7291947320907184
 30
0.0
  0
SEQEND
  5
32DA
  8
0
  0
POLYLINE
  5
2FE2
  8
0
 66
     1
 10
0.0
 20
0.0
 30
0.0
  0
VERTEX
  5
32DB
  8
0
 10
21.8653661861889113
 20
26.4520114703894293
 30
0.0
  0
VERTEX
  5
32DC
  8
0
 10
21.8857448471572091
 20
26.4054663136182306
 30
0.0
  0
VERTEX
  5
32DD
  8
0
 10
21.9029717786002287
 20
26.3666243305535595
 30
0.0
  0
VERTEX
  5
32DE
  8
0
 10
21.9167214463474487
 20
26.3360182777351106
 30
0.0
  0
VERTEX
  5
32DF
  8
0
 10
21.9267423707038098
 20
26.3139870692445008
 30
0.0
  0
VERTEX
  5
32E0
  8
0
 10
21.9328419097426206
 20
26.3007368265319208
 30
0.0
  0
VERTEX
  5
32E1
  8
0
 10
21.9348848762090505
 20
26.2963452101083206
 30
0.0
  0
SEQEND
  5
32E2
  8
0
  0
POLYLINE
  5
2FE3
  8
0
 66
     1
 10
0.0
 20
0.0
 30
0.0
  0
VERTEX
  5
32E3
  8
0
 10
21.8653661861857813
 20
33.4728000618200383
 30
0.0
  0
VERTEX
  5
32E4
  8
0
 10
21.801993410838179
 20
33.3482580175766969
 30
0.0
  0
VERTEX
  5
32E5
  8
0
 10
21.718953911413621
 20
33.2198574489268594
 30
0.0
  0
VERTEX
  5
32E6
  8
0
 10
21.4999547284591301
 20
32.9432974730629127
 30
0.0
  0
VERTEX
  5
32E7
  8
0
 10
21.2260265163581288
 20
32.6165756414920907
 30
0.0
  0
VERTEX
  5
32E8
  8
0
 10
21.0769621579800415
 20
32.4282411198122418
 30
0.0
  0
VERTEX
  5
32E9
  8
0
 10
20.9265528510226488
 20
32.220024943860551
 30
0.0
  0
VERTEX
  5
32EA
  8
0
 10
20.7806462244336991
 20
31.9900794048392214
 30
0.0
  0
VERTEX
  5
32EB
  8
0
 10
20.6444074542940612
 20
31.7397751615115986
 30
0.0
  0
VERTEX
  5
32EC
  8
0
 10
20.5225778587401102
 20
31.4713942927641206
 30
0.0
  0
VERTEX
  5
32ED
  8
0
 10
20.4188674259075604
 20
31.1877137892770797
 30
0.0
  0
VERTEX
  5
32EE
  8
0
 10
20.3364077935194985
 20
30.8917226074193891
 30
0.0
  0
VERTEX
  5
32EF
  8
0
 10
20.2771117501434617
 20
30.5867441664678097
 30
0.0
  0
VERTEX
  5
32F0
  8
0
 10
20.2420765057225687
 20
30.2760662323910807
 30
0.0
  0
VERTEX
  5
32F1
  8
0
 10
20.2305544410019706
 20
29.9625705200614085
 30
0.0
  0
VERTEX
  5
32F2
  8
0
 10
20.2418079229356103
 20
29.6490581955179309
 30
0.0
  0
VERTEX
  5
32F3
  8
0
 10
20.2767261655320716
 20
29.3383643067747606
 30
0.0
  0
VERTEX
  5
32F4
  8
0
 10
20.3361203969854785
 20
29.0334157824623311
 30
0.0
  0
VERTEX
  5
32F5
  8
0
 10
20.4187622560296198
 20
28.7374974368356391
 30
0.0
  0
VERTEX
  5
32F6
  8
0
 10
20.5225923392210383
 20
28.453895265498641
 30
0.0
  0
VERTEX
  5
32F7
  8
0
 10
20.6444357919697516
 20
28.1855254103770712
 30
0.0
  0
VERTEX
  5
32F8
  8
0
 10
20.7805871000852811
 20
27.935115958781541
 30
0.0
  0
VERTEX
  5
32F9
  8
0
 10
20.9263784627815994
 20
27.7050308018664388
 30
0.0
  0
VERTEX
  5
32FA
  8
0
 10
21.0767227909614689
 20
27.496695032870111
 30
0.0
  0
VERTEX
  5
32FB
  8
0
 10
21.2257867459669285
 20
27.3082608212054403
 30
0.0
  0
VERTEX
  5
32FC
  8
0
 10
21.4997992689172008
 20
26.9817041324071987
 30
0.0
  0
VERTEX
  5
32FD
  8
0
 10
21.7193696455814802
 20
26.7049991035908114
 30
0.0
  0
VERTEX
  5
32FE
  8
0
 10
21.8653661861889113
 20
26.4520114703894293
 30
0.0
  0
SEQEND
  5
32FF
  8
0
  0
POLYLINE
  5
2FE4
  8
0
 66
     1
 10
0.0
 20
0.0
 30
0.0
  0
VERTEX
  5
3300
  8
0
 10
21.9348848762090505
 20
33.6284663221083235
 30
0.0
  0
VERTEX
  5
3301
  8
0
 10
21.9328419097425886
 20
33.6240747056848477
 30
0.0
  0
VERTEX
  5
3302
  8
0
 10
21.9267423707037814
 20
33.6108244629722321
 30
0.0
  0
VERTEX
  5
3303
  8
0
 10
21.9167214463474203
 20
33.5887932544815726
 30
0.0
  0
VERTEX
  5
3304
  8
0
 10
21.9029717786002607
 20
33.5581872016630882
 30
0.0
  0
VERTEX
  5
3305
  8
0
 10
21.8857448471571914
 20
33.5193452185985024
 30
0.0
  0
VERTEX
  5
3306
  8
0
 10
21.8653661861857813
 20
33.4728000618200383
 30
0.0
  0
SEQEND
  5
3307
  8
0
  0
POLYLINE
  5
2FE5
  8
0
 66
     1
 10
0.0
 20
0.0
 30
0.0
  0
VERTEX
  5
3308
  8
0
 10
22.8600348938111608
 20
35.1956168001261531
 30
0.0
  0
VERTEX
  5
3309
  8
0
 10
22.8299149361035703
 20
35.1546957836404417
 30
0.0
  0
VERTEX
  5
330A
  8
0
 10
22.8048902577577586
 20
35.1203558318491815
 30
0.0
  0
VERTEX
  5
330B
  8
0
 10
22.785259472381
 20
35.0931452438773022
 30
0.0
  0
VERTEX
  5
330C
  8
0
 10
22.7711903483301796
 20
35.0734512645700391
 30
0.0
  0
VERTEX
  5
330D
  8
0
 10
22.76276507105419
 20
35.0615437874547098
 30
0.0
  0
VERTEX
  5
330E
  8
0
 10
22.7599833029090313
 20
35.0575787184083083
 30
0.0
  0
SEQEND
  5
330F
  8
0
  0
POLYLINE
  5
3026
  8
0
 66
     1
 10
0.0
 20
0.0
 30
0.0
  0
VERTEX
  5
3310
  8
0
 10
86.1773918943090536
 20
90.0319244565074825
 30
0.0
  0
VERTEX
  5
3311
  8
0
 10
86.4763909720936255
 20
90.1002118740695437
 30
0.0
  0
VERTEX
  5
3312
  8
0
 10
86.7673173119986814
 20
90.1908685009080102
 30
0.0
  0
VERTEX
  5
3313
  8
0
 10
87.0477384310572972
 20
90.3019845391781502
 30
0.0
  0
VERTEX
  5
3314
  8
0
 10
87.314026869709835
 20
90.4312854469692553
 30
0.0
  0
VERTEX
  5
3315
  8
0
 10
87.5627270819454679
 20
90.575330744180917
 30
0.0
  0
VERTEX
  5
3316
  8
0
 10
87.7913565575686903
 20
90.7302200553755256
 30
0.0
  0
VERTEX
  5
3317
  8
0
 10
87.9967436520079787
 20
90.8904574029103003
 30
0.0
  0
VERTEX
  5
3318
  8
0
 10
88.1757456702950435
 20
91.0490416354756462
 30
0.0
  0
VERTEX
  5
3319
  8
0
 10
88.3273321813364305
 20
91.1994761424418527
 30
0.0
  0
VERTEX
  5
331A
  8
0
 10
88.4519178902076391
 20
91.3361244374396648
 30
0.0
  0
VERTEX
  5
331B
  8
0
 10
88.5497364841623948
 20
91.4529177379933458
 30
0.0
  0
VERTEX
  5
331C
  8
0
 10
88.6214128979954694
 20
91.5444017803031755
 30
0.0
  0
VERTEX
  5
331D
  8
0
 10
88.6722871408462936
 20
91.6130917740443351
 30
0.0
  0
VERTEX
  5
331E
  8
0
 10
88.7065618479753653
 20
91.6609497254996768
 30
0.0
  0
VERTEX
  5
331F
  8
0
 10
88.7103148383507261
 20
91.6665534832828257
 30
0.0
  0
SEQEND
  5
3320
  8
0
  0
POLYLINE
  5
3027
  8
0
 66
     1
 10
0.0
 20
0.0
 30
0.0
  0
VERTEX
  5
3321
  8
0
 10
85.434884876209054
 20
89.962405766507473
 30
0.0
  0
VERTEX
  5
3322
  8
0
 10
85.5627914120238131
 20
89.9644487329739349
 30
0.0
  0
VERTEX
  5
3323
  8
0
 10
85.6899570367029924
 20
89.9705482720127634
 30
0.0
  0
VERTEX
  5
3324
  8
0
 10
85.8156448891997741
 20
89.9805691963691174
 30
0.0
  0
VERTEX
  5
3325
  8
0
 10
85.93916969207541
 20
89.9943188641163232
 30
0.0
  0
VERTEX
  5
3326
  8
0
 10
86.0599080147042628
 20
90.011545795559357
 30
0.0
  0
VERTEX
  5
3327
  8
0
 10
86.1773918943090536
 20
90.0319244565074825
 30
0.0
  0
SEQEND
  5
3328
  8
0
  0
POLYLINE
  5
3028
  8
0
 66
     1
 10
0.0
 20
0.0
 30
0.0
  0
VERTEX
  5
3329
  8
0
 10
86.1773918943090536
 20
89.0372557489074836
 30
0.0
  0
VERTEX
  5
332A
  8
0
 10
86.0599080147042628
 20
89.0673757066129639
 30
0.0
  0
VERTEX
  5
332B
  8
0
 10
85.9391696920753958
 20
89.0924003849587791
 30
0.0
  0
VERTEX
  5
332C
  8
0
 10
85.8156448891997741
 20
89.112031170335527
 30
0.0
  0
VERTEX
  5
332D
  8
0
 10
85.6899570367029355
 20
89.1261002943863758
 30
0.0
  0
VERTEX
  5
332E
  8
0
 10
85.5627914120238415
 20
89.1345255716623655
 30
0.0
  0
VERTEX
  5
332F
  8
0
 10
85.434884876209054
 20
89.1373073398074638
 30
0.0
  0
SEQEND
  5
3330
  8
0
  0
POLYLINE
  5
3029
  8
0
 66
     1
 10
0.0
 20
0.0
 30
0.0
  0
VERTEX
  5
3331
  8
0
 10
86.1773918943090536
 20
82.9570744741074861
 30
0.0
  0
VERTEX
  5
3332
  8
0
 10
86.4578417555271841
 20
83.096622166329837
 30
0.0
  0
VERTEX
  5
3333
  8
0
 10
86.7313402602855348
 20
83.2493513095303967
 30
0.0
  0
VERTEX
  5
3334
  8
0
 10
86.9959152076992268
 20
83.4159180281546355
 30
0.0
  0
VERTEX
  5
3335
  8
0
 10
87.2487957156174758
 20
83.5983415936570253
 30
0.0
  0
VERTEX
  5
3336
  8
0
 10
87.4870577323699479
 20
83.7989832752464849
 30
0.0
  0
VERTEX
  5
3337
  8
0
 10
87.7083622772837543
 20
84.0181578413674259
 30
0.0
  0
VERTEX
  5
3338
  8
0
 10
87.9102089639151814
 20
84.2558147846588668
 30
0.0
  0
VERTEX
  5
3339
  8
0
 10
88.0900404658337095
 20
84.5113949059662843
 30
0.0
  0
VERTEX
  5
333A
  8
0
 10
88.2457735439668056
 20
84.783535038414513
 30
0.0
  0
VERTEX
  5
333B
  8
0
 10
88.3772741614670849
 20
85.0684481337489018
 30
0.0
  0
VERTEX
  5
333C
  8
0
 10
88.4850336760442246
 20
85.3617807544839451
 30
0.0
  0
VERTEX
  5
333D
  8
0
 10
88.5701423693957963
 20
85.6593022378311417
 30
0.0
  0
VERTEX
  5
333E
  8
0
 10
88.6338622143454984
 20
85.9568818115332647
 30
0.0
  0
VERTEX
  5
333F
  8
0
 10
88.6775263980761679
 20
86.2506600903176519
 30
0.0
  0
VERTEX
  5
3340
  8
0
 10
88.7025442715969348
 20
86.537209124251774
 30
0.0
  0
VERTEX
  5
3341
  8
0
 10
88.7105369959947581
 20
86.8144193476415751
 30
0.0
  0
VERTEX
  5
3342
  8
0
 10
88.7026141854670129
 20
87.0802666218491055
 30
0.0
  0
VERTEX
  5
3343
  8
0
 10
88.6776388466404626
 20
87.3318720279904852
 30
0.0
  0
VERTEX
  5
3344
  8
0
 10
88.6339698779823379
 20
87.566296300896667
 30
0.0
  0
VERTEX
  5
3345
  8
0
 10
88.5702287774863066
 20
87.7812779829765333
 30
0.0
  0
VERTEX
  5
3346
  8
0
 10
88.4851193939831262
 20
87.9749720461872471
 30
0.0
  0
VERTEX
  5
3347
  8
0
 10
88.3773863675097857
 20
88.1464531522120467
 30
0.0
  0
VERTEX
  5
3348
  8
0
 10
88.2459344278823608
 20
88.2952309685810945
 30
0.0
  0
VERTEX
  5
3349
  8
0
 10
88.0902425115113346
 20
88.4216018929008953
 30
0.0
  0
VERTEX
  5
334A
  8
0
 10
87.9104341794368054
 20
88.5268593606467249
 30
0.0
  0
VERTEX
  5
334B
  8
0
 10
87.7086461834045679
 20
88.6155063986151248
 30
0.0
  0
VERTEX
  5
334C
  8
0
 10
87.4874271246820001
 20
88.6924130693399491
 30
0.0
  0
VERTEX
  5
334D
  8
0
 10
87.2490945048808726
 20
88.7613175746151057
 30
0.0
  0
VERTEX
  5
334E
  8
0
 10
86.7316743656172093
 20
88.891173477252579
 30
0.0
  0
VERTEX
  5
334F
  8
0
 10
86.1773918943090536
 20
89.0372557489074836
 30
0.0
  0
SEQEND
  5
3350
  8
0
  0
POLYLINE
  5
302A
  8
0
 66
     1
 10
0.0
 20
0.0
 30
0.0
  0
VERTEX
  5
3351
  8
0
 10
85.434884876209054
 20
82.787504193207468
 30
0.0
  0
VERTEX
  5
3352
  8
0
 10
85.5627914120238557
 20
82.7923289278190566
 30
0.0
  0
VERTEX
  5
3353
  8
0
 10
85.6899570367029924
 20
82.8068537441339032
 30
0.0
  0
VERTEX
  5
3354
  8
0
 10
85.8156448891997741
 20
82.8309437925410208
 30
0.0
  0
VERTEX
  5
3355
  8
0
 10
85.9391696920754384
 20
82.8643242456650029
 30
0.0
  0
VERTEX
  5
3356
  8
0
 10
86.0599080147042912
 20
82.9065758554538519
 30
0.0
  0
VERTEX
  5
3357
  8
0
 10
86.1773918943090536
 20
82.9570744741074861
 30
0.0
  0
SEQEND
  5
3358
  8
0
  0
POLYLINE
  5
302B
  8
0
 66
     1
 10
0.0
 20
0.0
 30
0.0
  0
VERTEX
  5
3359
  8
0
 10
86.1773918943090536
 20
80.9677370589074883
 30
0.0
  0
VERTEX
  5
335A
  8
0
 10
86.0599080147042912
 20
81.0182356775611368
 30
0.0
  0
VERTEX
  5
335B
  8
0
 10
85.93916969207541
 20
81.0604872873499858
 30
0.0
  0
VERTEX
  5
335C
  8
0
 10
85.8156448891998025
 20
81.0938677404739536
 30
0.0
  0
VERTEX
  5
335D
  8
0
 10
85.6899570367029639
 20
81.1179577888810996
 30
0.0
  0
VERTEX
  5
335E
  8
0
 10
85.5627914120238557
 20
81.132482605195932
 30
0.0
  0
VERTEX
  5
335F
  8
0
 10
85.434884876209054
 20
81.137307339807478
 30
0.0
  0
SEQEND
  5
3360
  8
0
  0
POLYLINE
  5
302C
  8
0
 66
     1
 10
0.0
 20
0.0
 30
0.0
  0
VERTEX
  5
3361
  8
0
 10
86.1773918943090536
 20
74.8875557841074908
 30
0.0
  0
VERTEX
  5
3362
  8
0
 10
86.7313402602854353
 20
75.0334242115310133
 30
0.0
  0
VERTEX
  5
3363
  8
0
 10
87.2487957156175469
 20
75.1634118090795909
 30
0.0
  0
VERTEX
  5
3364
  8
0
 10
87.4870577323702321
 20
75.2323795668438606
 30
0.0
  0
VERTEX
  5
3365
  8
0
 10
87.7083622772839533
 20
75.3092504829647851
 30
0.0
  0
VERTEX
  5
3366
  8
0
 10
87.9102089639151529
 20
75.3978522085736245
 30
0.0
  0
VERTEX
  5
3367
  8
0
 10
88.0900404658337663
 20
75.5030752268063878
 30
0.0
  0
VERTEX
  5
3368
  8
0
 10
88.2457735439675446
 20
75.6293973951052294
 30
0.0
  0
VERTEX
  5
3369
  8
0
 10
88.3772741614683639
 20
75.7781241182996581
 30
0.0
  0
VERTEX
  5
336A
  8
0
 10
88.4850336760450205
 20
75.9495818961890734
 30
0.0
  0
VERTEX
  5
336B
  8
0
 10
88.5701423693957537
 20
76.1432830724889982
 30
0.0
  0
VERTEX
  5
336C
  8
0
 10
88.6338622143449868
 20
76.358292337757419
 30
0.0
  0
VERTEX
  5
336D
  8
0
 10
88.6775263980757131
 20
76.5927271607256728
 30
0.0
  0
VERTEX
  5
336E
  8
0
 10
88.7025442715967642
 20
76.8442976696316578
 30
0.0
  0
VERTEX
  5
336F
  8
0
 10
88.7105369959947581
 20
77.1100898793962131
 30
0.0
  0
VERTEX
  5
3370
  8
0
 10
88.7026141854668424
 20
77.3872562869000831
 30
0.0
  0
VERTEX
  5
3371
  8
0
 10
88.6776388466400647
 20
77.6737833934843422
 30
0.0
  0
VERTEX
  5
3372
  8
0
 10
88.6339698779820253
 20
77.9675629115938733
 30
0.0
  0
VERTEX
  5
3373
  8
0
 10
88.570228777486335
 20
78.2651496711100094
 30
0.0
  0
VERTEX
  5
3374
  8
0
 10
88.4851193939835383
 20
78.5626702067520313
 30
0.0
  0
VERTEX
  5
3375
  8
0
 10
88.3773863675104536
 20
78.8560072341677483
 30
0.0
  0
VERTEX
  5
3376
  8
0
 10
88.2459344278828866
 20
79.1409422561925311
 30
0.0
  0
VERTEX
  5
3377
  8
0
 10
88.0902425115115193
 20
79.4131022508211686
 30
0.0
  0
VERTEX
  5
3378
  8
0
 10
87.9104341794364359
 20
79.6686989251303856
 30
0.0
  0
VERTEX
  5
3379
  8
0
 10
87.7086461834038857
 20
79.906412393163194
 30
0.0
  0
VERTEX
  5
337A
  8
0
 10
87.4874271246816164
 20
80.1256671889275367
 30
0.0
  0
VERTEX
  5
337B
  8
0
 10
87.2490945048808726
 20
80.3262357671012523
 30
0.0
  0
VERTEX
  5
337C
  8
0
 10
86.996152771212806
 20
80.5086771712426241
 30
0.0
  0
VERTEX
  5
337D
  8
0
 10
86.7316743656173514
 20
80.6756562913394362
 30
0.0
  0
VERTEX
  5
337E
  8
0
 10
86.1773918943090536
 20
80.9677370589074883
 30
0.0
  0
SEQEND
  5
337F
  8
0
  0
POLYLINE
  5
302D
  8
0
 66
     1
 10
0.0
 20
0.0
 30
0.0
  0
VERTEX
  5
3380
  8
0
 10
88.7105727043578156
 20
72.258047054447843
 30
0.0
  0
VERTEX
  5
3381
  8
0
 10
88.6987392902225054
 20
72.274982953576469
 30
0.0
  0
VERTEX
  5
3382
  8
0
 10
88.6732037026239368
 20
72.3104295600488598
 30
0.0
  0
VERTEX
  5
3383
  8
0
 10
88.6234709771841267
 20
72.3775131001502103
 30
0.0
  0
VERTEX
  5
3384
  8
0
 10
88.5494027383785749
 20
72.4723683415260922
 30
0.0
  0
VERTEX
  5
3385
  8
0
 10
88.4514081499719964
 20
72.5893524915012591
 30
0.0
  0
VERTEX
  5
3386
  8
0
 10
88.3274160581901242
 20
72.7252381058439141
 30
0.0
  0
VERTEX
  5
3387
  8
0
 10
88.1761138677108249
 20
72.875421980521935
 30
0.0
  0
VERTEX
  5
3388
  8
0
 10
87.9973834868074221
 20
73.033822573648834
 30
0.0
  0
VERTEX
  5
3389
  8
0
 10
87.7920387732507237
 20
73.1940958396359633
 30
0.0
  0
VERTEX
  5
338A
  8
0
 10
87.5634260337910462
 20
73.3490408929873325
 30
0.0
  0
VERTEX
  5
338B
  8
0
 10
87.3146750542220502
 20
73.4932019341869136
 30
0.0
  0
VERTEX
  5
338C
  8
0
 10
87.0482168294667673
 20
73.622517720027659
 30
0.0
  0
VERTEX
  5
338D
  8
0
 10
86.7678275550622402
 20
73.7343217830862869
 30
0.0
  0
VERTEX
  5
338E
  8
0
 10
86.4761573195748667
 20
73.8227813419426155
 30
0.0
  0
VERTEX
  5
338F
  8
0
 10
86.1773918943090536
 20
73.8928870765074919
 30
0.0
  0
SEQEND
  5
3390
  8
0
  0
POLYLINE
  5
302E
  8
0
 66
     1
 10
0.0
 20
0.0
 30
0.0
  0
VERTEX
  5
3391
  8
0
 10
86.1773918943090536
 20
73.8928870765074919
 30
0.0
  0
VERTEX
  5
3392
  8
0
 10
86.0599080147042628
 20
73.9132657374556459
 30
0.0
  0
VERTEX
  5
3393
  8
0
 10
85.9391696920754384
 20
73.9304926688986654
 30
0.0
  0
VERTEX
  5
3394
  8
0
 10
85.8156448891998025
 20
73.9442423366458712
 30
0.0
  0
VERTEX
  5
3395
  8
0
 10
85.6899570367029924
 20
73.954263261002211
 30
0.0
  0
VERTEX
  5
3396
  8
0
 10
85.5627914120238415
 20
73.9603628000410538
 30
0.0
  0
VERTEX
  5
3397
  8
0
 10
85.434884876209054
 20
73.9624057665074872
 30
0.0
  0
SEQEND
  5
3398
  8
0
  0
POLYLINE
  5
302F
  8
0
 66
     1
 10
0.0
 20
0.0
 30
0.0
  0
VERTEX
  5
3399
  8
0
 10
85.434884876209054
 20
74.7875041932074538
 30
0.0
  0
VERTEX
  5
339A
  8
0
 10
85.5627914120238415
 20
74.7902859613526658
 30
0.0
  0
VERTEX
  5
339B
  8
0
 10
85.6899570367029924
 20
74.7987112386286697
 30
0.0
  0
VERTEX
  5
339C
  8
0
 10
85.8156448891997741
 20
74.8127803626794616
 30
0.0
  0
VERTEX
  5
339D
  8
0
 10
85.9391696920754384
 20
74.8324111480562379
 30
0.0
  0
VERTEX
  5
339E
  8
0
 10
86.0599080147042912
 20
74.8574358264020248
 30
0.0
  0
VERTEX
  5
339F
  8
0
 10
86.1773918943090536
 20
74.8875557841074908
 30
0.0
  0
SEQEND
  5
33A0
  8
0
  0
POLYLINE
  5
3030
  8
0
 66
     1
 10
0.0
 20
0.0
 30
0.0
  0
VERTEX
  5
33A1
  8
0
 10
86.1773918943090109
 20
38.7060110958079306
 30
0.0
  0
VERTEX
  5
33A2
  8
0
 10
86.0599080147042343
 20
38.7116352361300926
 30
0.0
  0
VERTEX
  5
33A3
  8
0
 10
85.9391696920753958
 20
38.7161372674034965
 30
0.0
  0
VERTEX
  5
33A4
  8
0
 10
85.815644889199703
 20
38.7195327322500589
 30
0.0
  0
VERTEX
  5
33A5
  8
0
 10
85.6899570367029355
 20
38.721869961433363
 30
0.0
  0
VERTEX
  5
33A6
  8
0
 10
85.5627914120237847
 20
38.7232127270306705
 30
0.0
  0
VERTEX
  5
33A7
  8
0
 10
85.4348848762090256
 20
38.7236392744079581
 30
0.0
  0
SEQEND
  5
33A8
  8
0
  0
POLYLINE
  5
3031
  8
0
 66
     1
 10
0.0
 20
0.0
 30
0.0
  0
VERTEX
  5
33A9
  8
0
 10
86.1773918943090109
 20
35.1956168001079277
 30
0.0
  0
VERTEX
  5
33AA
  8
0
 10
86.4578417555270988
 20
35.3127728223064281
 30
0.0
  0
VERTEX
  5
33AB
  8
0
 10
86.7313402602854921
 20
35.4488918434770071
 30
0.0
  0
VERTEX
  5
33AC
  8
0
 10
86.99591520769917
 20
35.6035161015187924
 30
0.0
  0
VERTEX
  5
33AD
  8
0
 10
87.2487957156174332
 20
35.7768227380110417
 30
0.0
  0
VERTEX
  5
33AE
  8
0
 10
87.4870577323700047
 20
35.9686852422527821
 30
0.0
  0
VERTEX
  5
33AF
  8
0
 10
87.7083622772838396
 20
36.177384787636413
 30
0.0
  0
VERTEX
  5
33B0
  8
0
 10
87.9102089639150961
 20
36.4006531578738901
 30
0.0
  0
VERTEX
  5
33B1
  8
0
 10
88.0900404658336242
 20
36.6350211236449468
 30
0.0
  0
VERTEX
  5
33B2
  8
0
 10
88.2457735439670756
 20
36.8763293432250734
 30
0.0
  0
VERTEX
  5
33B3
  8
0
 10
88.3772741614676676
 20
37.1194512341266005
 30
0.0
  0
VERTEX
  5
33B4
  8
0
 10
88.485033676044651
 20
37.3591713749946877
 30
0.0
  0
VERTEX
  5
33B5
  8
0
 10
88.5701423693956684
 20
37.5908861657163129
 30
0.0
  0
VERTEX
  5
33B6
  8
0
 10
88.6338622143449442
 20
37.8103658024997529
 30
0.0
  0
VERTEX
  5
33B7
  8
0
 10
88.6775263980755142
 20
38.0142407310279395
 30
0.0
  0
VERTEX
  5
33B8
  8
0
 10
88.7025442715966363
 20
38.1998747537469399
 30
0.0
  0
VERTEX
  5
33B9
  8
0
 10
88.7105369959947154
 20
38.3665143440834981
 30
0.0
  0
VERTEX
  5
33BA
  8
0
 10
88.7026141854667003
 20
38.5134662347546879
 30
0.0
  0
VERTEX
  5
33BB
  8
0
 10
88.6776388466398657
 20
38.6385686305684928
 30
0.0
  0
VERTEX
  5
33BC
  8
0
 10
88.6339698779819116
 20
38.7396447808396971
 30
0.0
  0
VERTEX
  5
33BD
  8
0
 10
88.5702287774862782
 20
38.8160724491655316
 30
0.0
  0
VERTEX
  5
33BE
  8
0
 10
88.4851193939832541
 20
38.8679575268937114
 30
0.0
  0
VERTEX
  5
33BF
  8
0
 10
88.3773863675100131
 20
38.8966086406007818
 30
0.0
  0
VERTEX
  5
33C0
  8
0
 10
88.2459344278825455
 20
38.9038951535933322
 30
0.0
  0
VERTEX
  5
33C1
  8
0
 10
88.0902425115113346
 20
38.892684081778981
 30
0.0
  0
VERTEX
  5
33C2
  8
0
 10
87.9104341794365354
 20
38.8666561277364693
 30
0.0
  0
VERTEX
  5
33C3
  8
0
 10
87.7086461834041415
 20
38.8317729754452401
 30
0.0
  0
VERTEX
  5
33C4
  8
0
 10
87.4874271246817443
 20
38.79399033418089
 30
0.0
  0
VERTEX
  5
33C5
  8
0
 10
87.2490945048807873
 20
38.7577560809199824
 30
0.0
  0
VERTEX
  5
33C6
  8
0
 10
86.9961527712126212
 20
38.7271076644547065
 30
0.0
  0
VERTEX
  5
33C7
  8
0
 10
86.7316743656172093
 20
38.7059627278782017
 30
0.0
  0
VERTEX
  5
33C8
  8
0
 10
86.1773918943090109
 20
38.7060110958079306
 30
0.0
  0
SEQEND
  5
33C9
  8
0
  0
POLYLINE
  5
3032
  8
0
 66
     1
 10
0.0
 20
0.0
 30
0.0
  0
VERTEX
  5
33CA
  8
0
 10
85.4348848762090256
 20
35.0575787184079104
 30
0.0
  0
VERTEX
  5
33CB
  8
0
 10
85.5627914120238131
 20
35.0615437874541698
 30
0.0
  0
VERTEX
  5
33CC
  8
0
 10
85.6899570367029355
 20
35.0734512645694991
 30
0.0
  0
VERTEX
  5
33CD
  8
0
 10
85.8156448891997456
 20
35.0931452438768332
 30
0.0
  0
VERTEX
  5
33CE
  8
0
 10
85.9391696920753958
 20
35.1203558318487978
 30
0.0
  0
VERTEX
  5
33CF
  8
0
 10
86.0599080147042343
 20
35.1546957836400082
 30
0.0
  0
VERTEX
  5
33D0
  8
0
 10
86.1773918943090109
 20
35.1956168001079277
 30
0.0
  0
SEQEND
  5
33D1
  8
0
  0
POLYLINE
  5
3033
  8
0
 66
     1
 10
0.0
 20
0.0
 30
0.0
  0
VERTEX
  5
33D2
  8
0
 10
86.1773918943090109
 20
26.4520114704079212
 30
0.0
  0
VERTEX
  5
33D3
  8
0
 10
86.731350855775645
 20
26.7049540832895396
 30
0.0
  0
VERTEX
  5
33D4
  8
0
 10
86.9959320817257549
 20
26.8388187575892587
 30
0.0
  0
VERTEX
  5
33D5
  8
0
 10
87.2487964895704664
 20
26.9815140591534401
 30
0.0
  0
VERTEX
  5
33D6
  8
0
 10
87.4870148111657215
 20
27.1372597721781297
 30
0.0
  0
VERTEX
  5
33D7
  8
0
 10
87.7082917015383146
 20
27.308235890723271
 30
0.0
  0
VERTEX
  5
33D8
  8
0
 10
87.9101585265601955
 20
27.4965704124033508
 30
0.0
  0
VERTEX
  5
33D9
  8
0
 10
88.0900544755137958
 20
27.7047865883556206
 30
0.0
  0
VERTEX
  5
33DA
  8
0
 10
88.2458723269647152
 20
27.934732127377341
 30
0.0
  0
VERTEX
  5
33DB
  8
0
 10
88.3774156026683357
 20
28.1850363707050597
 30
0.0
  0
VERTEX
  5
33DC
  8
0
 10
88.4851274747650365
 20
28.4534172394523814
 30
0.0
  0
VERTEX
  5
33DD
  8
0
 10
88.5701412721590344
 20
28.7370977429392305
 30
0.0
  0
VERTEX
  5
33DE
  8
0
 10
88.6337777588923359
 20
29.0330889247969886
 30
0.0
  0
VERTEX
  5
33DF
  8
0
 10
88.6774111048324869
 20
29.3380673657486888
 30
0.0
  0
VERTEX
  5
33E0
  8
0
 10
88.7024710203511688
 20
29.6487452998253893
 30
0.0
  0
VERTEX
  5
33E1
  8
0
 10
88.7105376861844661
 20
29.9622410121550189
 30
0.0
  0
VERTEX
  5
33E2
  8
0
 10
88.7026617035332094
 20
30.2757533366985889
 30
0.0
  0
VERTEX
  5
33E3
  8
0
 10
88.6776893533183568
 20
30.5864472254418303
 30
0.0
  0
VERTEX
  5
33E4
  8
0
 10
88.6339926605197945
 20
30.8913957497541283
 30
0.0
  0
VERTEX
  5
33E5
  8
0
 10
88.5702241351992257
 20
31.1873140953804793
 30
0.0
  0
VERTEX
  5
33E6
  8
0
 10
88.4851122600752831
 20
31.4709162667170013
 30
0.0
  0
VERTEX
  5
33E7
  8
0
 10
88.3773891057875289
 20
31.7392861218383793
 30
0.0
  0
VERTEX
  5
33E8
  8
0
 10
88.2459439296086572
 20
31.9896955734342896
 30
0.0
  0
VERTEX
  5
33E9
  8
0
 10
88.0902488636378962
 20
32.219780730349882
 30
0.0
  0
VERTEX
  5
33EA
  8
0
 10
87.9104368291953904
 20
32.4281164993463022
 30
0.0
  0
VERTEX
  5
33EB
  8
0
 10
87.7086528354525115
 20
32.6165507110108877
 30
0.0
  0
VERTEX
  5
33EC
  8
0
 10
87.4874353379010756
 20
32.7875419815532965
 30
0.0
  0
VERTEX
  5
33ED
  8
0
 10
87.249097092331283
 20
32.9431073998090511
 30
0.0
  0
VERTEX
  5
33EE
  8
0
 10
86.731672607131415
 20
33.2198124286255165
 30
0.0
  0
VERTEX
  5
33EF
  8
0
 10
86.1773918943090109
 20
33.4728000618079093
 30
0.0
  0
SEQEND
  5
33F0
  8
0
  0
POLYLINE
  5
3034
  8
0
 66
     1
 10
0.0
 20
0.0
 30
0.0
  0
VERTEX
  5
33F1
  8
0
 10
86.1773918943090109
 20
33.4728000618079093
 30
0.0
  0
VERTEX
  5
33F2
  8
0
 10
86.0599080147042343
 20
33.5193452185980334
 30
0.0
  0
VERTEX
  5
33F3
  8
0
 10
85.9391696920753958
 20
33.5581872016626903
 30
0.0
  0
VERTEX
  5
33F4
  8
0
 10
85.815644889199703
 20
33.5887932544811321
 30
0.0
  0
VERTEX
  5
33F5
  8
0
 10
85.6899570367029355
 20
33.610824462971749
 30
0.0
  0
VERTEX
  5
33F6
  8
0
 10
85.5627914120237847
 20
33.6240747056844071
 30
0.0
  0
VERTEX
  5
33F7
  8
0
 10
85.4348848762090256
 20
33.6284663221078972
 30
0.0
  0
SEQEND
  5
33F8
  8
0
  0
POLYLINE
  5
3035
  8
0
 66
     1
 10
0.0
 20
0.0
 30
0.0
  0
VERTEX
  5
33F9
  8
0
 10
85.4348848762090256
 20
26.2963452101079191
 30
0.0
  0
VERTEX
  5
33FA
  8
0
 10
85.5627914120237847
 20
26.3007368265314909
 30
0.0
  0
VERTEX
  5
33FB
  8
0
 10
85.6899570367029639
 20
26.3139870692440994
 30
0.0
  0
VERTEX
  5
33FC
  8
0
 10
85.8156448891997456
 20
26.3360182777346914
 30
0.0
  0
VERTEX
  5
33FD
  8
0
 10
85.9391696920753958
 20
26.3666243305531616
 30
0.0
  0
VERTEX
  5
33FE
  8
0
 10
86.0599080147042343
 20
26.4054663136178185
 30
0.0
  0
VERTEX
  5
33FF
  8
0
 10
86.1773918943090109
 20
26.4520114704079212
 30
0.0
  0
SEQEND
  5
3400
  8
0
  0
POLYLINE
  5
3036
  8
0
 66
     1
 10
0.0
 20
0.0
 30
0.0
  0
VERTEX
  5
3401
  8
0
 10
86.1773918943090109
 20
24.7291947321079491
 30
0.0
  0
VERTEX
  5
3402
  8
0
 10
86.0599080147042059
 20
24.7701157485759005
 30
0.0
  0
VERTEX
  5
3403
  8
0
 10
85.9391696920753958
 20
24.8044557003671002
 30
0.0
  0
VERTEX
  5
3404
  8
0
 10
85.8156448891997456
 20
24.8316662883390507
 30
0.0
  0
VERTEX
  5
3405
  8
0
 10
85.6899570367029071
 20
24.8513602676463208
 30
0.0
  0
VERTEX
  5
3406
  8
0
 10
85.5627914120238131
 20
24.8632677447616501
 30
0.0
  0
VERTEX
  5
3407
  8
0
 10
85.4348848762090256
 20
24.8672328138079095
 30
0.0
  0
SEQEND
  5
3408
  8
0
  0
POLYLINE
  5
3037
  8
0
 66
     1
 10
0.0
 20
0.0
 30
0.0
  0
VERTEX
  5
3409
  8
0
 10
86.1773918943090109
 20
21.2188004364079497
 30
0.0
  0
VERTEX
  5
340A
  8
0
 10
86.4578417555271841
 20
21.2261920849811503
 30
0.0
  0
VERTEX
  5
340B
  8
0
 10
86.7313402602855206
 20
21.2184886784597104
 30
0.0
  0
VERTEX
  5
340C
  8
0
 10
86.99591520769917
 20
21.1977421818834308
 30
0.0
  0
VERTEX
  5
340D
  8
0
 10
87.2487957156174332
 20
21.1670957928469186
 30
0.0
  0
VERTEX
  5
340E
  8
0
 10
87.4870577323699052
 20
21.1308923709923207
 30
0.0
  0
VERTEX
  5
340F
  8
0
 10
87.7083622772836975
 20
21.0931147644732491
 30
0.0
  0
VERTEX
  5
3410
  8
0
 10
87.9102089639151529
 20
21.0582119245505304
 30
0.0
  0
VERTEX
  5
3411
  8
0
 10
88.0900404658336669
 20
21.0321537485175689
 30
0.0
  0
VERTEX
  5
3412
  8
0
 10
88.2457735439667488
 20
21.0208978455365383
 30
0.0
  0
VERTEX
  5
3413
  8
0
 10
88.3772741614670281
 20
21.0281380205945894
 30
0.0
  0
VERTEX
  5
3414
  8
0
 10
88.4850336760441678
 20
21.0567647414886103
 30
0.0
  0
VERTEX
  5
3415
  8
0
 10
88.5701423693957537
 20
21.1086574855452689
 30
0.0
  0
VERTEX
  5
3416
  8
0
 10
88.63386221434547
 20
21.1851211529243706
 30
0.0
  0
VERTEX
  5
3417
  8
0
 10
88.6775263980760968
 20
21.2862102008825005
 30
0.0
  0
VERTEX
  5
3418
  8
0
 10
88.7025442715968779
 20
21.4112596410790097
 30
0.0
  0
VERTEX
  5
3419
  8
0
 10
88.7105369959947438
 20
21.5581226516951183
 30
0.0
  0
VERTEX
  5
341A
  8
0
 10
88.7026141854669845
 20
21.7246798563333101
 30
0.0
  0
VERTEX
  5
341B
  8
0
 10
88.6776388466404342
 20
21.9102684116008888
 30
0.0
  0
VERTEX
  5
341C
  8
0
 10
88.6339698779822953
 20
22.1141508622598018
 30
0.0
  0
VERTEX
  5
341D
  8
0
 10
88.5702287774862782
 20
22.3336547216680614
 30
0.0
  0
VERTEX
  5
341E
  8
0
 10
88.4851193939830978
 20
22.5653725248176293
 30
0.0
  0
VERTEX
  5
341F
  8
0
 10
88.3773863675097431
 20
22.8050842855766902
 30
0.0
  0
VERTEX
  5
3420
  8
0
 10
88.2459344278823039
 20
23.0482019965817209
 30
0.0
  0
VERTEX
  5
3421
  8
0
 10
88.0902425115113203
 20
23.2895050017312393
 30
0.0
  0
VERTEX
  5
3422
  8
0
 10
87.910434179436777
 20
23.5238721918273583
 30
0.0
  0
VERTEX
  5
3423
  8
0
 10
87.7086461834045252
 20
23.7471796701112083
 30
0.0
  0
VERTEX
  5
3424
  8
0
 10
87.4874271246819859
 20
23.9559512137766184
 30
0.0
  0
VERTEX
  5
3425
  8
0
 10
87.2490945048808157
 20
24.1477658243060702
 30
0.0
  0
VERTEX
  5
3426
  8
0
 10
86.9961527712124791
 20
24.3210889232269984
 30
0.0
  0
VERTEX
  5
3427
  8
0
 10
86.7316743656171525
 20
24.4762695514207387
 30
0.0
  0
VERTEX
  5
3428
  8
0
 10
86.4574705475374117
 20
24.6102056366471302
 30
0.0
  0
VERTEX
  5
3429
  8
0
 10
86.1773918943090109
 20
24.7291947321079491
 30
0.0
  0
SEQEND
  5
342A
  8
0
  0
POLYLINE
  5
3038
  8
0
 66
     1
 10
0.0
 20
0.0
 30
0.0
  0
VERTEX
  5
342B
  8
0
 10
85.4348848762090256
 20
21.2011722578079187
 30
0.0
  0
VERTEX
  5
342C
  8
0
 10
85.5627914120238131
 20
21.2015988051851387
 30
0.0
  0
VERTEX
  5
342D
  8
0
 10
85.6899570367029639
 20
21.2029415707824818
 30
0.0
  0
VERTEX
  5
342E
  8
0
 10
85.8156448891997456
 20
21.2052787999658285
 30
0.0
  0
VERTEX
  5
342F
  8
0
 10
85.93916969207541
 20
21.2086742648124016
 30
0.0
  0
VERTEX
  5
3430
  8
0
 10
86.0599080147042343
 20
21.2131762960857593
 30
0.0
  0
VERTEX
  5
3431
  8
0
 10
86.1773918943090109
 20
21.2188004364079497
 30
0.0
  0
SEQEND
  5
3432
  8
0
  0
LINE
  5
307F
  8
2
 10
77.934884876209054
 20
77.774405766507499
 30
0.0
 11
90.122884876209099
 21
77.774405766507499
 31
0.0
  0
LINE
  5
3080
  8
2
 10
90.122884876209099
 20
86.1504057665074754
 30
0.0
 11
77.934884876209054
 21
86.1504057665074754
 31
0.0
  0
LINE
  5
3081
  8
2
 10
77.934884876209054
 20
86.1504057665074754
 30
0.0
 11
77.934884876209054
 21
77.774405766507499
 31
0.0
  0
LINE
  5
3082
  8
2
 10
75.613438568724888
 20
81.9624057665074872
 30
0.0
 11
77.934884876209054
 21
77.774405766507499
 31
0.0
  0
LINE
  5
3083
  8
2
 10
77.934884876209054
 20
86.1504057665074754
 30
0.0
 11
75.613438568724888
 21
81.9624057665074872
 31
0.0
  0
LINE
  5
3084
  8
2
 10
90.122884876209099
 20
86.1504057665074754
 30
0.0
 11
90.122884876209099
 21
77.774405766507499
 31
0.0
  0
LINE
  5
3085
  8
2
 10
90.122884876209099
 20
77.774405766507499
 30
0.0
 11
90.9348848762091109
 21
76.962405766507473
 31
0.0
  0
LINE
  5
3086
  8
2
 10
90.9348848762091109
 20
86.9624057665074872
 30
0.0
 11
90.122884876209099
 21
86.1504057665074754
 31
0.0
  0
LINE
  5
3087
  8
2
 10
90.9348848762091109
 20
76.962405766507473
 30
0.0
 11
78.934884876209054
 21
76.962405766507473
 31
0.0
  0
LINE
  5
3089
  8
2
 10
90.9348848762091109
 20
86.9624057665074872
 30
0.0
 11
78.934884876209054
 21
86.9624057665074872
 31
0.0
  0
LINE
  5
308A
  8
2
 10
78.9348848762089688
 20
76.962405766507473
 30
0.0
 11
78.934884876209054
 21
86.9624057665074872
 31
0.0
  0
LINE
  5
308B
  8
2
 10
77.934884876209054
 20
25.7744057665079289
 30
0.0
 11
90.122884876209099
 21
25.7744057665079289
 31
0.0
  0
LINE
  5
308C
  8
2
 10
90.122884876209099
 20
34.1504057665079017
 30
0.0
 11
77.934884876209054
 21
34.1504057665079017
 31
0.0
  0
LINE
  5
308D
  8
2
 10
77.934884876209054
 20
34.1504057665079017
 30
0.0
 11
77.934884876209054
 21
25.7744057665079289
 31
0.0
  0
LINE
  5
308E
  8
2
 10
75.613438568724888
 20
29.96240576650791
 30
0.0
 11
77.934884876209054
 21
25.7744057665079289
 31
0.0
  0
LINE
  5
308F
  8
2
 10
77.934884876209054
 20
34.1504057665079017
 30
0.0
 11
75.613438568724888
 21
29.96240576650791
 31
0.0
  0
LINE
  5
3090
  8
2
 10
90.122884876209099
 20
34.1504057665079017
 30
0.0
 11
90.122884876209099
 21
25.7744057665079289
 31
0.0
  0
LINE
  5
3091
  8
2
 10
90.122884876209099
 20
25.7744057665079289
 30
0.0
 11
90.9348848762091109
 21
24.96240576650791
 31
0.0
  0
LINE
  5
3092
  8
2
 10
90.9348848762091109
 20
34.9624057665079135
 30
0.0
 11
90.122884876209099
 21
34.1504057665079017
 31
0.0
  0
LINE
  5
3093
  8
2
 10
90.9348848762091109
 20
24.96240576650791
 30
0.0
 11
78.934884876209054
 21
24.96240576650791
 31
0.0
  0
LINE
  5
3094
  8
2
 10
90.9348848762091109
 20
34.9624057665079135
 30
0.0
 11
78.934884876209054
 21
34.9624057665079135
 31
0.0
  0
LINE
  5
3095
  8
2
 10
78.9348848762089688
 20
24.9624057665078993
 30
0.0
 11
78.934884876209054
 21
34.9624057665079135
 31
0.0
  0
ENDSEC
  0
EOF
