  0
SECTION
  2
HEADER
  9
$ACADVER
  1
AC1009
  9
$INSBASE
 10
0.0
 20
0.0
 30
0.0
  9
$EXTMIN
 10
0.0
 20
-1.4802182810368341
 30
0.0
  9
$EXTMAX
 10
116.90000000000001
 20
95.200000000000017
 30
0.0
  9
$LIMMIN
 10
0.0
 20
0.0
  9
$LIMMAX
 10
375.0
 20
270.0
  9
$ORTHOMODE
 70
     1
  9
$REGENMODE
 70
     1
  9
$FILLMODE
 70
     1
  9
$QTEXTMODE
 70
     0
  9
$MIRRTEXT
 70
     0
  9
$DRAGMODE
 70
     2
  9
$LTSCALE
 40
5.0
  9
$OSMODE
 70
    37
  9
$ATTMODE
 70
     1
  9
$TEXTSIZE
 40
0.2
  9
$TRACEWID
 40
0.05
  9
$TEXTSTYLE
  7
STANDARD
  9
$CLAYER
  8
4
  9
$CELTYPE
  6
BYLAYER
  9
$CECOLOR
 62
   256
  9
$DIMSCALE
 40
1.0
  9
$DIMASZ
 40
3.0
  9
$DIMEXO
 40
2.0
  9
$DIMDLI
 40
0.38
  9
$DIMRND
 40
0.0
  9
$DIMDLE
 40
0.0
  9
$DIMEXE
 40
2.0
  9
$DIMTP
 40
0.0
  9
$DIMTM
 40
0.0
  9
$DIMTXT
 40
3.2000000000000002
  9
$DIMCEN
 40
0.09
  9
$DIMTSZ
 40
0.0
  9
$DIMTOL
 70
     0
  9
$DIMLIM
 70
     0
  9
$DIMTIH
 70
     0
  9
$DIMTOH
 70
     0
  9
$DIMSE1
 70
     0
  9
$DIMSE2
 70
     0
  9
$DIMTAD
 70
     1
  9
$DIMZIN
 70
     8
  9
$DIMBLK
  1

  9
$DIMASO
 70
     1
  9
$DIMSHO
 70
     0
  9
$DIMPOST
  1

  9
$DIMAPOST
  1

  9
$DIMALT
 70
     0
  9
$DIMALTD
 70
     2
  9
$DIMALTF
 40
25.399999999999999
  9
$DIMLFAC
 40
1.0
  9
$DIMTOFL
 70
     1
  9
$DIMTVP
 40
1.6000000000000001
  9
$DIMTIX
 70
     1
  9
$DIMSOXD
 70
     0
  9
$DIMSAH
 70
     0
  9
$DIMBLK1
  1

  9
$DIMBLK2
  1

  9
$DIMSTYLE
  2
STANDARD
  9
$DIMCLRD
 70
   256
  9
$DIMCLRE
 70
   256
  9
$DIMCLRT
 70
   256
  9
$DIMTFAC
 40
1.0
  9
$DIMGAP
 40
1.0
  9
$LUNITS
 70
     2
  9
$LUPREC
 70
     1
  9
$SKETCHINC
 40
0.1
  9
$FILLETRAD
 40
0.0
  9
$AUNITS
 70
     0
  9
$AUPREC
 70
     0
  9
$MENU
  1
E:\r13\win\SUPPORT\ACAD
  9
$ELEVATION
 40
0.0
  9
$PELEVATION
 40
0.0
  9
$THICKNESS
 40
0.0
  9
$LIMCHECK
 70
     0
  9
$BLIPMODE
 70
     0
  9
$CHAMFERA
 40
0.0
  9
$CHAMFERB
 40
0.0
  9
$SKPOLY
 70
     0
  9
$TDCREATE
 40
2449839.7822916671
  9
$TDUPDATE
 40
2459381.5906567131
  9
$TDINDWG
 40
0.3088180093
  9
$TDUSRTIMER
 40
0.3088180093
  9
$USRTIMER
 70
     1
  9
$ANGBASE
 50
0.0
  9
$ANGDIR
 70
     0
  9
$PDMODE
 70
     0
  9
$PDSIZE
 40
0.0
  9
$PLINEWID
 40
0.0
  9
$COORDS
 70
     1
  9
$SPLFRAME
 70
     0
  9
$SPLINETYPE
 70
     6
  9
$SPLINESEGS
 70
     8
  9
$ATTDIA
 70
     0
  9
$ATTREQ
 70
     1
  9
$HANDLING
 70
     1
  9
$HANDSEED
  5
1DDD
  9
$SURFTAB1
 70
     6
  9
$SURFTAB2
 70
     6
  9
$SURFTYPE
 70
     6
  9
$SURFU
 70
     6
  9
$SURFV
 70
     6
  9
$UCSNAME
  2

  9
$UCSORG
 10
0.0
 20
0.0
 30
0.0
  9
$UCSXDIR
 10
1.0
 20
0.0
 30
0.0
  9
$UCSYDIR
 10
0.0
 20
1.0
 30
0.0
  9
$PUCSNAME
  2

  9
$PUCSORG
 10
0.0
 20
0.0
 30
0.0
  9
$PUCSXDIR
 10
1.0
 20
0.0
 30
0.0
  9
$PUCSYDIR
 10
0.0
 20
1.0
 30
0.0
  9
$USERI1
 70
     0
  9
$USERI2
 70
     1
  9
$USERI3
 70
     1
  9
$USERI4
 70
     0
  9
$USERI5
 70
     0
  9
$USERR1
 40
0.0
  9
$USERR2
 40
0.0
  9
$USERR3
 40
0.0
  9
$USERR4
 40
0.0
  9
$USERR5
 40
0.0
  9
$WORLDVIEW
 70
     1
  9
$SHADEDGE
 70
     3
  9
$SHADEDIF
 70
    70
  9
$TILEMODE
 70
     1
  9
$MAXACTVP
 70
    16
  9
$PLIMCHECK
 70
     0
  9
$PEXTMIN
 10
1.0000000000000000E+020
 20
1.0000000000000000E+020
 30
1.0000000000000000E+020
  9
$PEXTMAX
 10
-1.0000000000000000E+020
 20
-1.0000000000000000E+020
 30
-1.0000000000000000E+020
  9
$PLIMMIN
 10
0.0
 20
0.0
  9
$PLIMMAX
 10
12.0
 20
9.0
  9
$UNITMODE
 70
     0
  9
$VISRETAIN
 70
     0
  9
$PLINEGEN
 70
     0
  9
$PSLTSCALE
 70
     0
  0
ENDSEC
  0
SECTION
  2
TABLES
  0
TABLE
  2
VPORT
 70
     1
  0
VPORT
  2
*ACTIVE
 70
     0
 10
0.0
 20
0.0
 11
1.0
 21
1.0
 12
195.14681892332791
 22
75.0
 13
0.0
 23
0.0
 14
10.0
 24
10.0
 15
10.0
 25
10.0
 16
0.0
 26
0.0
 36
1.0
 17
0.0
 27
0.0
 37
0.0
 40
150.0
 41
2.6019575856443709
 42
50.0
 43
0.0
 44
0.0
 50
0.0
 51
0.0
 71
     0
 72
   500
 73
     1
 74
     0
 75
     0
 76
     0
 77
     0
 78
     2
  0
ENDTAB
  0
TABLE
  2
LTYPE
 70
     4
  0
LTYPE
  2
CONTINUOUS
 70
     0
  3
Solid Line
 72
    65
 73
     0
 40
0.0
  0
LTYPE
  2
CENTER
 70
     0
  3
____ _ ____ _ ____ _ ____ _ ____ _ ____ _ ____
 72
    65
 73
     4
 40
2.0
 49
1.25
 49
-0.25
 49
0.25
 49
-0.25
  0
LTYPE
  2
HIDDEN
 70
     0
  3
_ _ _ _ _ _ _ _ _ _ _ _ _ _ _ _ _ _ _ _ _ _ _
 72
    65
 73
     2
 40
0.375
 49
0.25
 49
-0.125
  0
LTYPE
  2
PHANTOM2
 70
     0
  3
___ _ _ ___ _ _ ___ _ _ ___ _ _
 72
    65
 73
     6
 40
1.25
 49
0.625
 49
-0.125
 49
0.125
 49
-0.125
 49
0.125
 49
-0.125
  0
ENDTAB
  0
TABLE
  2
LAYER
 70
     6
  0
LAYER
  2
0
 70
     0
 62
     7
  6
CONTINUOUS
  0
LAYER
  2
1
 70
     0
 62
     1
  6
CENTER
  0
LAYER
  2
2
 70
     0
 62
     2
  6
HIDDEN
  0
LAYER
  2
DEFPOINTS
 70
     0
 62
     7
  6
CONTINUOUS
  0
LAYER
  2
4
 70
     0
 62
     4
  6
CONTINUOUS
  0
LAYER
  2
3
 70
     0
 62
     3
  6
CONTINUOUS
  0
ENDTAB
  0
TABLE
  2
STYLE
 70
     2
  0
STYLE
  2
STANDARD
 70
     0
 40
0.0
 41
1.0
 50
0.0
 71
     0
 42
0.2
  3
TXT
  4
BIGFONT
  0
STYLE
  2
STANDARD1
 70
     0
 40
0.0
 41
1.0
 50
0.0
 71
     0
 42
3.0
  3
txt
  4

  0
ENDTAB
  0
TABLE
  2
VIEW
 70
     1
  0
VIEW
  2
ALL
 70
     0
 40
270.0
 10
220.99159663865549
 20
135.0
 41
0.0
 11
0.0
 21
0.0
 31
1.0
 12
0.0
 22
0.0
 32
0.0
 42
0.0
 43
0.0
 44
0.0
 50
0.0
 71
     0
  0
ENDTAB
  0
TABLE
  2
UCS
 70
     0
  0
ENDTAB
  0
TABLE
  2
APPID
 70
     9
  0
APPID
  2
ACAD
 70
     0
  0
APPID
  2
ACAD_MLEADERVER
 70
     0
  0
APPID
  2
ACAD_NAV_VCDISPLAY
 70
     0
  0
APPID
  2
ACAD_EXEMPT_FROM_CAD_STANDARDS
 70
     0
  0
APPID
  2
ACAD_DSTYLE_DIMJAG
 70
     0
  0
APPID
  2
ACAD_DSTYLE_DIMTALN
 70
     0
  0
APPID
  2
ACAECLAYERSTANDARD
 70
     0
  0
APPID
  2
ACCMTRANSPARENCY
 70
     0
  0
APPID
  2
DCO15
 70
     0
  0
ENDTAB
  0
TABLE
  2
DIMSTYLE
 70
     1
  0
DIMSTYLE
  2
STANDARD
 70
     0
  3

  4

  5

  6

  7

 40
1.0
 41
0.18
 42
0.0625
 43
0.38
 44
0.18
 45
0.0
 46
0.0
 47
0.0
 48
0.0
140
0.18
141
0.09
142
0.0
143
25.399999999999999
144
1.0
145
0.0
146
1.0
147
0.09
 71
     0
 72
     0
 73
     1
 74
     1
 75
     0
 76
     0
 77
     0
 78
     0
170
     0
171
     2
172
     0
173
     0
174
     0
175
     0
176
     0
177
     0
178
     0
  0
ENDTAB
  0
ENDSEC
  0
SECTION
  2
BLOCKS
  0
BLOCK
  8
0
  2
$MODEL_SPACE
 70
     0
 10
0.0
 20
0.0
 30
0.0
  3
$MODEL_SPACE
  1

  0
ENDBLK
  5
10E
  8
0
  0
BLOCK
 67
     1
  8
0
  2
$PAPER_SPACE
 70
     0
 10
0.0
 20
0.0
 30
0.0
  3
$PAPER_SPACE
  1

  0
ENDBLK
  5
10C
 67
     1
  8
0
  0
ENDSEC
  0
SECTION
  2
ENTITIES
  0
TEXT
  5
4DC
  8
0
 62
     3
 10
0.0
 20
0.0
 30
0.0
 40
5.0
  1
HD-HBNS08X30
  7
STANDARD1
  0
LINE
  5
18C4
  8
0
 10
85.500000000000057
 20
83.799999999999997
 30
0.0
 11
92.900000000000034
 21
83.799999999999997
 31
0.0
  0
LINE
  5
18C5
  8
0
 10
92.900000000000034
 20
89.800000000000026
 30
0.0
 11
85.500000000000057
 21
89.800000000000026
 31
0.0
  0
ARC
  5
18C6
  8
0
 10
85.500000000000057
 20
83.200000000000017
 30
0.0
 40
0.6000000000000001
 50
90.0
 51
180.0
  0
ARC
  5
18C7
  8
0
 10
85.500000000000057
 20
90.400000000000006
 30
0.0
 40
0.6000000000000006
 50
180.0
 51
270.0
  0
LINE
  5
18C9
  8
0
 10
92.900000000000034
 20
83.799999999999997
 30
0.0
 11
93.900000000000034
 21
82.800000000000011
 31
0.0
  0
LINE
  5
18CA
  8
0
 10
93.900000000000034
 20
90.800000000000011
 30
0.0
 11
92.900000000000034
 21
89.800000000000026
 31
0.0
  0
LINE
  5
18CB
  8
0
 10
92.900000000000034
 20
89.800000000000026
 30
0.0
 11
92.900000000000034
 21
83.799999999999997
 31
0.0
  0
LINE
  5
18CC
  8
0
 10
93.900000000000034
 20
82.800000000000011
 30
0.0
 11
114.1329999999999
 21
82.800000000000011
 31
0.0
  0
LINE
  5
18CD
  8
0
 10
114.1329999999999
 20
90.800000000000011
 30
0.0
 11
93.900000000000034
 21
90.800000000000011
 31
0.0
  0
LINE
  5
18CE
  8
0
 10
93.900000000000034
 20
90.800000000000011
 30
0.0
 11
93.900000000000034
 21
82.800000000000011
 31
0.0
  0
LINE
  5
18CF
  8
0
 10
114.90000000000001
 20
90.033000000000015
 30
0.0
 11
114.1329999999999
 21
90.800000000000011
 31
0.0
  0
LINE
  5
18D0
  8
0
 10
114.1329999999999
 20
82.800000000000011
 30
0.0
 11
114.90000000000001
 21
83.567000000000007
 31
0.0
  0
LINE
  5
18D1
  8
0
 10
114.90000000000001
 20
90.033000000000015
 30
0.0
 11
114.90000000000001
 21
83.567000000000007
 31
0.0
  0
LINE
  5
18D2
  8
0
 10
114.1329999999999
 20
90.800000000000011
 30
0.0
 11
114.1329999999999
 21
82.800000000000011
 31
0.0
  0
LINE
  5
18D3
  8
0
 10
83.900000000000034
 20
93.300000000000011
 30
0.0
 11
79.779808482786592
 21
93.300000000000011
 31
0.0
  0
LINE
  5
18D4
  8
0
 10
83.900000000000034
 20
80.300000000000011
 30
0.0
 11
79.779808482786592
 21
80.300000000000011
 31
0.0
  0
LINE
  5
18D5
  8
0
 10
83.900000000000034
 20
86.800000000000011
 30
0.0
 11
80.269654403848975
 21
86.800000000000011
 31
0.0
  0
POLYLINE
  5
18D6
  8
0
 10
80.269654403848946
 20
86.80000000000004
 30
0.0
 66
     1
 70
     8
  0
VERTEX
  8
0
  5
1BD5
 10
80.2697
 20
86.8000
 30
0.000000
  70
    32
  0
VERTEX
  8
0
  5
1BD6
 10
80.2545
 20
86.7503
 30
0.000000
  70
    32
  0
VERTEX
  8
0
  5
1BD7
 10
80.2397
 20
86.7006
 30
0.000000
  70
    32
  0
VERTEX
  8
0
  5
1BD8
 10
80.2250
 20
86.6509
 30
0.000000
  70
    32
  0
VERTEX
  8
0
  5
1BD9
 10
80.2106
 20
86.6010
 30
0.000000
  70
    32
  0
VERTEX
  8
0
  5
1BDA
 10
80.1965
 20
86.5512
 30
0.000000
  70
    32
  0
VERTEX
  8
0
  5
1BDB
 10
80.1825
 20
86.5013
 30
0.000000
  70
    32
  0
VERTEX
  8
0
  5
1BDC
 10
80.1688
 20
86.4513
 30
0.000000
  70
    32
  0
VERTEX
  8
0
  5
1BDD
 10
80.1553
 20
86.4013
 30
0.000000
  70
    32
  0
VERTEX
  8
0
  5
1BDE
 10
80.1421
 20
86.3512
 30
0.000000
  70
    32
  0
VERTEX
  8
0
  5
1BDF
 10
80.1291
 20
86.3011
 30
0.000000
  70
    32
  0
VERTEX
  8
0
  5
1BE0
 10
80.1163
 20
86.2510
 30
0.000000
  70
    32
  0
VERTEX
  8
0
  5
1BE1
 10
80.1038
 20
86.2008
 30
0.000000
  70
    32
  0
VERTEX
  8
0
  5
1BE2
 10
80.0915
 20
86.1505
 30
0.000000
  70
    32
  0
VERTEX
  8
0
  5
1BE3
 10
80.0794
 20
86.1002
 30
0.000000
  70
    32
  0
VERTEX
  8
0
  5
1BE4
 10
80.0676
 20
86.0499
 30
0.000000
  70
    32
  0
VERTEX
  8
0
  5
1BE5
 10
80.0560
 20
85.9995
 30
0.000000
  70
    32
  0
VERTEX
  8
0
  5
1BE6
 10
80.0447
 20
85.9491
 30
0.000000
  70
    32
  0
VERTEX
  8
0
  5
1BE7
 10
80.0336
 20
85.8987
 30
0.000000
  70
    32
  0
VERTEX
  8
0
  5
1BE8
 10
80.0227
 20
85.8482
 30
0.000000
  70
    32
  0
VERTEX
  8
0
  5
1BE9
 10
80.0120
 20
85.7977
 30
0.000000
  70
    32
  0
VERTEX
  8
0
  5
1BEA
 10
80.0016
 20
85.7471
 30
0.000000
  70
    32
  0
VERTEX
  8
0
  5
1BEB
 10
79.9914
 20
85.6965
 30
0.000000
  70
    32
  0
VERTEX
  8
0
  5
1BEC
 10
79.9815
 20
85.6459
 30
0.000000
  70
    32
  0
VERTEX
  8
0
  5
1BED
 10
79.9718
 20
85.5952
 30
0.000000
  70
    32
  0
VERTEX
  8
0
  5
1BEE
 10
79.9624
 20
85.5445
 30
0.000000
  70
    32
  0
VERTEX
  8
0
  5
1BEF
 10
79.9531
 20
85.4938
 30
0.000000
  70
    32
  0
VERTEX
  8
0
  5
1BF0
 10
79.9441
 20
85.4431
 30
0.000000
  70
    32
  0
VERTEX
  8
0
  5
1BF1
 10
79.9354
 20
85.3923
 30
0.000000
  70
    32
  0
VERTEX
  8
0
  5
1BF2
 10
79.9269
 20
85.3414
 30
0.000000
  70
    32
  0
VERTEX
  8
0
  5
1BF3
 10
79.9186
 20
85.2906
 30
0.000000
  70
    32
  0
VERTEX
  8
0
  5
1BF4
 10
79.9106
 20
85.2397
 30
0.000000
  70
    32
  0
VERTEX
  8
0
  5
1BF5
 10
79.9028
 20
85.1888
 30
0.000000
  70
    32
  0
VERTEX
  8
0
  5
1BF6
 10
79.8952
 20
85.1378
 30
0.000000
  70
    32
  0
VERTEX
  8
0
  5
1BF7
 10
79.8879
 20
85.0869
 30
0.000000
  70
    32
  0
VERTEX
  8
0
  5
1BF8
 10
79.8808
 20
85.0359
 30
0.000000
  70
    32
  0
VERTEX
  8
0
  5
1BF9
 10
79.8740
 20
84.9849
 30
0.000000
  70
    32
  0
VERTEX
  8
0
  5
1BFA
 10
79.8674
 20
84.9338
 30
0.000000
  70
    32
  0
VERTEX
  8
0
  5
1BFB
 10
79.8610
 20
84.8828
 30
0.000000
  70
    32
  0
VERTEX
  8
0
  5
1BFC
 10
79.8549
 20
84.8317
 30
0.000000
  70
    32
  0
VERTEX
  8
0
  5
1BFD
 10
79.8490
 20
84.7806
 30
0.000000
  70
    32
  0
VERTEX
  8
0
  5
1BFE
 10
79.8434
 20
84.7295
 30
0.000000
  70
    32
  0
VERTEX
  8
0
  5
1BFF
 10
79.8380
 20
84.6783
 30
0.000000
  70
    32
  0
VERTEX
  8
0
  5
1C00
 10
79.8328
 20
84.6272
 30
0.000000
  70
    32
  0
VERTEX
  8
0
  5
1C01
 10
79.8279
 20
84.5760
 30
0.000000
  70
    32
  0
VERTEX
  8
0
  5
1C02
 10
79.8232
 20
84.5248
 30
0.000000
  70
    32
  0
VERTEX
  8
0
  5
1C03
 10
79.8188
 20
84.4736
 30
0.000000
  70
    32
  0
VERTEX
  8
0
  5
1C04
 10
79.8146
 20
84.4224
 30
0.000000
  70
    32
  0
VERTEX
  8
0
  5
1C05
 10
79.8106
 20
84.3711
 30
0.000000
  70
    32
  0
VERTEX
  8
0
  5
1C06
 10
79.8069
 20
84.3199
 30
0.000000
  70
    32
  0
VERTEX
  8
0
  5
1C07
 10
79.8034
 20
84.2686
 30
0.000000
  70
    32
  0
VERTEX
  8
0
  5
1C08
 10
79.8001
 20
84.2173
 30
0.000000
  70
    32
  0
VERTEX
  8
0
  5
1C09
 10
79.7971
 20
84.1660
 30
0.000000
  70
    32
  0
VERTEX
  8
0
  5
1C0A
 10
79.7944
 20
84.1147
 30
0.000000
  70
    32
  0
VERTEX
  8
0
  5
1C0B
 10
79.7918
 20
84.0634
 30
0.000000
  70
    32
  0
VERTEX
  8
0
  5
1C0C
 10
79.7895
 20
84.0121
 30
0.000000
  70
    32
  0
VERTEX
  8
0
  5
1C0D
 10
79.7875
 20
83.9608
 30
0.000000
  70
    32
  0
VERTEX
  8
0
  5
1C0E
 10
79.7857
 20
83.9094
 30
0.000000
  70
    32
  0
VERTEX
  8
0
  5
1C0F
 10
79.7841
 20
83.8581
 30
0.000000
  70
    32
  0
VERTEX
  8
0
  5
1C10
 10
79.7828
 20
83.8068
 30
0.000000
  70
    32
  0
VERTEX
  8
0
  5
1C11
 10
79.7817
 20
83.7554
 30
0.000000
  70
    32
  0
VERTEX
  8
0
  5
1C12
 10
79.7809
 20
83.7041
 30
0.000000
  70
    32
  0
VERTEX
  8
0
  5
1C13
 10
79.7803
 20
83.6527
 30
0.000000
  70
    32
  0
VERTEX
  8
0
  5
1C14
 10
79.7799
 20
83.6014
 30
0.000000
  70
    32
  0
VERTEX
  8
0
  5
1C15
 10
79.7798
 20
83.5500
 30
0.000000
  70
    32
  0
VERTEX
  8
0
  5
1C16
 10
79.7799
 20
83.4986
 30
0.000000
  70
    32
  0
VERTEX
  8
0
  5
1C17
 10
79.7803
 20
83.4473
 30
0.000000
  70
    32
  0
VERTEX
  8
0
  5
1C18
 10
79.7809
 20
83.3959
 30
0.000000
  70
    32
  0
VERTEX
  8
0
  5
1C19
 10
79.7817
 20
83.3446
 30
0.000000
  70
    32
  0
VERTEX
  8
0
  5
1C1A
 10
79.7828
 20
83.2932
 30
0.000000
  70
    32
  0
VERTEX
  8
0
  5
1C1B
 10
79.7841
 20
83.2419
 30
0.000000
  70
    32
  0
VERTEX
  8
0
  5
1C1C
 10
79.7857
 20
83.1906
 30
0.000000
  70
    32
  0
VERTEX
  8
0
  5
1C1D
 10
79.7875
 20
83.1392
 30
0.000000
  70
    32
  0
VERTEX
  8
0
  5
1C1E
 10
79.7895
 20
83.0879
 30
0.000000
  70
    32
  0
VERTEX
  8
0
  5
1C1F
 10
79.7918
 20
83.0366
 30
0.000000
  70
    32
  0
VERTEX
  8
0
  5
1C20
 10
79.7944
 20
82.9853
 30
0.000000
  70
    32
  0
VERTEX
  8
0
  5
1C21
 10
79.7971
 20
82.9340
 30
0.000000
  70
    32
  0
VERTEX
  8
0
  5
1C22
 10
79.8001
 20
82.8827
 30
0.000000
  70
    32
  0
VERTEX
  8
0
  5
1C23
 10
79.8034
 20
82.8314
 30
0.000000
  70
    32
  0
VERTEX
  8
0
  5
1C24
 10
79.8069
 20
82.7801
 30
0.000000
  70
    32
  0
VERTEX
  8
0
  5
1C25
 10
79.8106
 20
82.7289
 30
0.000000
  70
    32
  0
VERTEX
  8
0
  5
1C26
 10
79.8146
 20
82.6776
 30
0.000000
  70
    32
  0
VERTEX
  8
0
  5
1C27
 10
79.8188
 20
82.6264
 30
0.000000
  70
    32
  0
VERTEX
  8
0
  5
1C28
 10
79.8232
 20
82.5752
 30
0.000000
  70
    32
  0
VERTEX
  8
0
  5
1C29
 10
79.8279
 20
82.5240
 30
0.000000
  70
    32
  0
VERTEX
  8
0
  5
1C2A
 10
79.8328
 20
82.4728
 30
0.000000
  70
    32
  0
VERTEX
  8
0
  5
1C2B
 10
79.8380
 20
82.4217
 30
0.000000
  70
    32
  0
VERTEX
  8
0
  5
1C2C
 10
79.8434
 20
82.3705
 30
0.000000
  70
    32
  0
VERTEX
  8
0
  5
1C2D
 10
79.8490
 20
82.3194
 30
0.000000
  70
    32
  0
VERTEX
  8
0
  5
1C2E
 10
79.8549
 20
82.2683
 30
0.000000
  70
    32
  0
VERTEX
  8
0
  5
1C2F
 10
79.8610
 20
82.2172
 30
0.000000
  70
    32
  0
VERTEX
  8
0
  5
1C30
 10
79.8674
 20
82.1662
 30
0.000000
  70
    32
  0
VERTEX
  8
0
  5
1C31
 10
79.8740
 20
82.1151
 30
0.000000
  70
    32
  0
VERTEX
  8
0
  5
1C32
 10
79.8808
 20
82.0641
 30
0.000000
  70
    32
  0
VERTEX
  8
0
  5
1C33
 10
79.8879
 20
82.0131
 30
0.000000
  70
    32
  0
VERTEX
  8
0
  5
1C34
 10
79.8952
 20
81.9622
 30
0.000000
  70
    32
  0
VERTEX
  8
0
  5
1C35
 10
79.9028
 20
81.9112
 30
0.000000
  70
    32
  0
VERTEX
  8
0
  5
1C36
 10
79.9106
 20
81.8603
 30
0.000000
  70
    32
  0
VERTEX
  8
0
  5
1C37
 10
79.9186
 20
81.8094
 30
0.000000
  70
    32
  0
VERTEX
  8
0
  5
1C38
 10
79.9269
 20
81.7586
 30
0.000000
  70
    32
  0
VERTEX
  8
0
  5
1C39
 10
79.9354
 20
81.7077
 30
0.000000
  70
    32
  0
VERTEX
  8
0
  5
1C3A
 10
79.9441
 20
81.6569
 30
0.000000
  70
    32
  0
VERTEX
  8
0
  5
1C3B
 10
79.9531
 20
81.6062
 30
0.000000
  70
    32
  0
VERTEX
  8
0
  5
1C3C
 10
79.9624
 20
81.5555
 30
0.000000
  70
    32
  0
VERTEX
  8
0
  5
1C3D
 10
79.9718
 20
81.5048
 30
0.000000
  70
    32
  0
VERTEX
  8
0
  5
1C3E
 10
79.9815
 20
81.4541
 30
0.000000
  70
    32
  0
VERTEX
  8
0
  5
1C3F
 10
79.9914
 20
81.4035
 30
0.000000
  70
    32
  0
VERTEX
  8
0
  5
1C40
 10
80.0016
 20
81.3529
 30
0.000000
  70
    32
  0
VERTEX
  8
0
  5
1C41
 10
80.0120
 20
81.3023
 30
0.000000
  70
    32
  0
VERTEX
  8
0
  5
1C42
 10
80.0227
 20
81.2518
 30
0.000000
  70
    32
  0
VERTEX
  8
0
  5
1C43
 10
80.0336
 20
81.2013
 30
0.000000
  70
    32
  0
VERTEX
  8
0
  5
1C44
 10
80.0447
 20
81.1509
 30
0.000000
  70
    32
  0
VERTEX
  8
0
  5
1C45
 10
80.0560
 20
81.1005
 30
0.000000
  70
    32
  0
VERTEX
  8
0
  5
1C46
 10
80.0676
 20
81.0501
 30
0.000000
  70
    32
  0
VERTEX
  8
0
  5
1C47
 10
80.0794
 20
80.9998
 30
0.000000
  70
    32
  0
VERTEX
  8
0
  5
1C48
 10
80.0915
 20
80.9495
 30
0.000000
  70
    32
  0
VERTEX
  8
0
  5
1C49
 10
80.1038
 20
80.8992
 30
0.000000
  70
    32
  0
VERTEX
  8
0
  5
1C4A
 10
80.1163
 20
80.8490
 30
0.000000
  70
    32
  0
VERTEX
  8
0
  5
1C4B
 10
80.1291
 20
80.7989
 30
0.000000
  70
    32
  0
VERTEX
  8
0
  5
1C4C
 10
80.1421
 20
80.7488
 30
0.000000
  70
    32
  0
VERTEX
  8
0
  5
1C4D
 10
80.1553
 20
80.6987
 30
0.000000
  70
    32
  0
VERTEX
  8
0
  5
1C4E
 10
80.1688
 20
80.6487
 30
0.000000
  70
    32
  0
VERTEX
  8
0
  5
1C4F
 10
80.1825
 20
80.5987
 30
0.000000
  70
    32
  0
VERTEX
  8
0
  5
1C50
 10
80.1965
 20
80.5488
 30
0.000000
  70
    32
  0
VERTEX
  8
0
  5
1C51
 10
80.2106
 20
80.4990
 30
0.000000
  70
    32
  0
VERTEX
  8
0
  5
1C52
 10
80.2250
 20
80.4491
 30
0.000000
  70
    32
  0
VERTEX
  8
0
  5
1C53
 10
80.2397
 20
80.3994
 30
0.000000
  70
    32
  0
VERTEX
  8
0
  5
1C54
 10
80.2545
 20
80.3497
 30
0.000000
  70
    32
  0
VERTEX
  8
0
  5
1C55
 10
80.2697
 20
80.3000
 30
0.000000
  70
    32
  0
SEQEND
  8
0
  5
1C56
  0
POLYLINE
  5
18D7
  8
0
 10
80.269654403848946
 20
93.299999999999997
 30
0.0
 66
     1
 70
     8
  0
VERTEX
  8
0
  5
1C57
 10
80.2697
 20
93.3000
 30
0.000000
  70
    32
  0
VERTEX
  8
0
  5
1C58
 10
80.2545
 20
93.2503
 30
0.000000
  70
    32
  0
VERTEX
  8
0
  5
1C59
 10
80.2397
 20
93.2006
 30
0.000000
  70
    32
  0
VERTEX
  8
0
  5
1C5A
 10
80.2250
 20
93.1509
 30
0.000000
  70
    32
  0
VERTEX
  8
0
  5
1C5B
 10
80.2106
 20
93.1010
 30
0.000000
  70
    32
  0
VERTEX
  8
0
  5
1C5C
 10
80.1965
 20
93.0512
 30
0.000000
  70
    32
  0
VERTEX
  8
0
  5
1C5D
 10
80.1825
 20
93.0013
 30
0.000000
  70
    32
  0
VERTEX
  8
0
  5
1C5E
 10
80.1688
 20
92.9513
 30
0.000000
  70
    32
  0
VERTEX
  8
0
  5
1C5F
 10
80.1553
 20
92.9013
 30
0.000000
  70
    32
  0
VERTEX
  8
0
  5
1C60
 10
80.1421
 20
92.8512
 30
0.000000
  70
    32
  0
VERTEX
  8
0
  5
1C61
 10
80.1291
 20
92.8011
 30
0.000000
  70
    32
  0
VERTEX
  8
0
  5
1C62
 10
80.1163
 20
92.7510
 30
0.000000
  70
    32
  0
VERTEX
  8
0
  5
1C63
 10
80.1038
 20
92.7008
 30
0.000000
  70
    32
  0
VERTEX
  8
0
  5
1C64
 10
80.0915
 20
92.6505
 30
0.000000
  70
    32
  0
VERTEX
  8
0
  5
1C65
 10
80.0794
 20
92.6002
 30
0.000000
  70
    32
  0
VERTEX
  8
0
  5
1C66
 10
80.0676
 20
92.5499
 30
0.000000
  70
    32
  0
VERTEX
  8
0
  5
1C67
 10
80.0560
 20
92.4995
 30
0.000000
  70
    32
  0
VERTEX
  8
0
  5
1C68
 10
80.0447
 20
92.4491
 30
0.000000
  70
    32
  0
VERTEX
  8
0
  5
1C69
 10
80.0336
 20
92.3987
 30
0.000000
  70
    32
  0
VERTEX
  8
0
  5
1C6A
 10
80.0227
 20
92.3482
 30
0.000000
  70
    32
  0
VERTEX
  8
0
  5
1C6B
 10
80.0120
 20
92.2977
 30
0.000000
  70
    32
  0
VERTEX
  8
0
  5
1C6C
 10
80.0016
 20
92.2471
 30
0.000000
  70
    32
  0
VERTEX
  8
0
  5
1C6D
 10
79.9914
 20
92.1965
 30
0.000000
  70
    32
  0
VERTEX
  8
0
  5
1C6E
 10
79.9815
 20
92.1459
 30
0.000000
  70
    32
  0
VERTEX
  8
0
  5
1C6F
 10
79.9718
 20
92.0952
 30
0.000000
  70
    32
  0
VERTEX
  8
0
  5
1C70
 10
79.9624
 20
92.0445
 30
0.000000
  70
    32
  0
VERTEX
  8
0
  5
1C71
 10
79.9531
 20
91.9938
 30
0.000000
  70
    32
  0
VERTEX
  8
0
  5
1C72
 10
79.9441
 20
91.9431
 30
0.000000
  70
    32
  0
VERTEX
  8
0
  5
1C73
 10
79.9354
 20
91.8923
 30
0.000000
  70
    32
  0
VERTEX
  8
0
  5
1C74
 10
79.9269
 20
91.8414
 30
0.000000
  70
    32
  0
VERTEX
  8
0
  5
1C75
 10
79.9186
 20
91.7906
 30
0.000000
  70
    32
  0
VERTEX
  8
0
  5
1C76
 10
79.9106
 20
91.7397
 30
0.000000
  70
    32
  0
VERTEX
  8
0
  5
1C77
 10
79.9028
 20
91.6888
 30
0.000000
  70
    32
  0
VERTEX
  8
0
  5
1C78
 10
79.8952
 20
91.6378
 30
0.000000
  70
    32
  0
VERTEX
  8
0
  5
1C79
 10
79.8879
 20
91.5869
 30
0.000000
  70
    32
  0
VERTEX
  8
0
  5
1C7A
 10
79.8808
 20
91.5359
 30
0.000000
  70
    32
  0
VERTEX
  8
0
  5
1C7B
 10
79.8740
 20
91.4849
 30
0.000000
  70
    32
  0
VERTEX
  8
0
  5
1C7C
 10
79.8674
 20
91.4338
 30
0.000000
  70
    32
  0
VERTEX
  8
0
  5
1C7D
 10
79.8610
 20
91.3828
 30
0.000000
  70
    32
  0
VERTEX
  8
0
  5
1C7E
 10
79.8549
 20
91.3317
 30
0.000000
  70
    32
  0
VERTEX
  8
0
  5
1C7F
 10
79.8490
 20
91.2806
 30
0.000000
  70
    32
  0
VERTEX
  8
0
  5
1C80
 10
79.8434
 20
91.2295
 30
0.000000
  70
    32
  0
VERTEX
  8
0
  5
1C81
 10
79.8380
 20
91.1783
 30
0.000000
  70
    32
  0
VERTEX
  8
0
  5
1C82
 10
79.8328
 20
91.1272
 30
0.000000
  70
    32
  0
VERTEX
  8
0
  5
1C83
 10
79.8279
 20
91.0760
 30
0.000000
  70
    32
  0
VERTEX
  8
0
  5
1C84
 10
79.8232
 20
91.0248
 30
0.000000
  70
    32
  0
VERTEX
  8
0
  5
1C85
 10
79.8188
 20
90.9736
 30
0.000000
  70
    32
  0
VERTEX
  8
0
  5
1C86
 10
79.8146
 20
90.9224
 30
0.000000
  70
    32
  0
VERTEX
  8
0
  5
1C87
 10
79.8106
 20
90.8711
 30
0.000000
  70
    32
  0
VERTEX
  8
0
  5
1C88
 10
79.8069
 20
90.8199
 30
0.000000
  70
    32
  0
VERTEX
  8
0
  5
1C89
 10
79.8034
 20
90.7686
 30
0.000000
  70
    32
  0
VERTEX
  8
0
  5
1C8A
 10
79.8001
 20
90.7173
 30
0.000000
  70
    32
  0
VERTEX
  8
0
  5
1C8B
 10
79.7971
 20
90.6660
 30
0.000000
  70
    32
  0
VERTEX
  8
0
  5
1C8C
 10
79.7944
 20
90.6147
 30
0.000000
  70
    32
  0
VERTEX
  8
0
  5
1C8D
 10
79.7918
 20
90.5634
 30
0.000000
  70
    32
  0
VERTEX
  8
0
  5
1C8E
 10
79.7895
 20
90.5121
 30
0.000000
  70
    32
  0
VERTEX
  8
0
  5
1C8F
 10
79.7875
 20
90.4608
 30
0.000000
  70
    32
  0
VERTEX
  8
0
  5
1C90
 10
79.7857
 20
90.4094
 30
0.000000
  70
    32
  0
VERTEX
  8
0
  5
1C91
 10
79.7841
 20
90.3581
 30
0.000000
  70
    32
  0
VERTEX
  8
0
  5
1C92
 10
79.7828
 20
90.3068
 30
0.000000
  70
    32
  0
VERTEX
  8
0
  5
1C93
 10
79.7817
 20
90.2554
 30
0.000000
  70
    32
  0
VERTEX
  8
0
  5
1C94
 10
79.7809
 20
90.2041
 30
0.000000
  70
    32
  0
VERTEX
  8
0
  5
1C95
 10
79.7803
 20
90.1527
 30
0.000000
  70
    32
  0
VERTEX
  8
0
  5
1C96
 10
79.7799
 20
90.1014
 30
0.000000
  70
    32
  0
VERTEX
  8
0
  5
1C97
 10
79.7798
 20
90.0500
 30
0.000000
  70
    32
  0
VERTEX
  8
0
  5
1C98
 10
79.7799
 20
89.9986
 30
0.000000
  70
    32
  0
VERTEX
  8
0
  5
1C99
 10
79.7803
 20
89.9473
 30
0.000000
  70
    32
  0
VERTEX
  8
0
  5
1C9A
 10
79.7809
 20
89.8959
 30
0.000000
  70
    32
  0
VERTEX
  8
0
  5
1C9B
 10
79.7817
 20
89.8446
 30
0.000000
  70
    32
  0
VERTEX
  8
0
  5
1C9C
 10
79.7828
 20
89.7932
 30
0.000000
  70
    32
  0
VERTEX
  8
0
  5
1C9D
 10
79.7841
 20
89.7419
 30
0.000000
  70
    32
  0
VERTEX
  8
0
  5
1C9E
 10
79.7857
 20
89.6906
 30
0.000000
  70
    32
  0
VERTEX
  8
0
  5
1C9F
 10
79.7875
 20
89.6392
 30
0.000000
  70
    32
  0
VERTEX
  8
0
  5
1CA0
 10
79.7895
 20
89.5879
 30
0.000000
  70
    32
  0
VERTEX
  8
0
  5
1CA1
 10
79.7918
 20
89.5366
 30
0.000000
  70
    32
  0
VERTEX
  8
0
  5
1CA2
 10
79.7944
 20
89.4853
 30
0.000000
  70
    32
  0
VERTEX
  8
0
  5
1CA3
 10
79.7971
 20
89.4340
 30
0.000000
  70
    32
  0
VERTEX
  8
0
  5
1CA4
 10
79.8001
 20
89.3827
 30
0.000000
  70
    32
  0
VERTEX
  8
0
  5
1CA5
 10
79.8034
 20
89.3314
 30
0.000000
  70
    32
  0
VERTEX
  8
0
  5
1CA6
 10
79.8069
 20
89.2801
 30
0.000000
  70
    32
  0
VERTEX
  8
0
  5
1CA7
 10
79.8106
 20
89.2289
 30
0.000000
  70
    32
  0
VERTEX
  8
0
  5
1CA8
 10
79.8146
 20
89.1776
 30
0.000000
  70
    32
  0
VERTEX
  8
0
  5
1CA9
 10
79.8188
 20
89.1264
 30
0.000000
  70
    32
  0
VERTEX
  8
0
  5
1CAA
 10
79.8232
 20
89.0752
 30
0.000000
  70
    32
  0
VERTEX
  8
0
  5
1CAB
 10
79.8279
 20
89.0240
 30
0.000000
  70
    32
  0
VERTEX
  8
0
  5
1CAC
 10
79.8328
 20
88.9728
 30
0.000000
  70
    32
  0
VERTEX
  8
0
  5
1CAD
 10
79.8380
 20
88.9217
 30
0.000000
  70
    32
  0
VERTEX
  8
0
  5
1CAE
 10
79.8434
 20
88.8705
 30
0.000000
  70
    32
  0
VERTEX
  8
0
  5
1CAF
 10
79.8490
 20
88.8194
 30
0.000000
  70
    32
  0
VERTEX
  8
0
  5
1CB0
 10
79.8549
 20
88.7683
 30
0.000000
  70
    32
  0
VERTEX
  8
0
  5
1CB1
 10
79.8610
 20
88.7172
 30
0.000000
  70
    32
  0
VERTEX
  8
0
  5
1CB2
 10
79.8674
 20
88.6662
 30
0.000000
  70
    32
  0
VERTEX
  8
0
  5
1CB3
 10
79.8740
 20
88.6151
 30
0.000000
  70
    32
  0
VERTEX
  8
0
  5
1CB4
 10
79.8808
 20
88.5641
 30
0.000000
  70
    32
  0
VERTEX
  8
0
  5
1CB5
 10
79.8879
 20
88.5131
 30
0.000000
  70
    32
  0
VERTEX
  8
0
  5
1CB6
 10
79.8952
 20
88.4622
 30
0.000000
  70
    32
  0
VERTEX
  8
0
  5
1CB7
 10
79.9028
 20
88.4112
 30
0.000000
  70
    32
  0
VERTEX
  8
0
  5
1CB8
 10
79.9106
 20
88.3603
 30
0.000000
  70
    32
  0
VERTEX
  8
0
  5
1CB9
 10
79.9186
 20
88.3094
 30
0.000000
  70
    32
  0
VERTEX
  8
0
  5
1CBA
 10
79.9269
 20
88.2586
 30
0.000000
  70
    32
  0
VERTEX
  8
0
  5
1CBB
 10
79.9354
 20
88.2077
 30
0.000000
  70
    32
  0
VERTEX
  8
0
  5
1CBC
 10
79.9441
 20
88.1569
 30
0.000000
  70
    32
  0
VERTEX
  8
0
  5
1CBD
 10
79.9531
 20
88.1062
 30
0.000000
  70
    32
  0
VERTEX
  8
0
  5
1CBE
 10
79.9624
 20
88.0555
 30
0.000000
  70
    32
  0
VERTEX
  8
0
  5
1CBF
 10
79.9718
 20
88.0048
 30
0.000000
  70
    32
  0
VERTEX
  8
0
  5
1CC0
 10
79.9815
 20
87.9541
 30
0.000000
  70
    32
  0
VERTEX
  8
0
  5
1CC1
 10
79.9914
 20
87.9035
 30
0.000000
  70
    32
  0
VERTEX
  8
0
  5
1CC2
 10
80.0016
 20
87.8529
 30
0.000000
  70
    32
  0
VERTEX
  8
0
  5
1CC3
 10
80.0120
 20
87.8023
 30
0.000000
  70
    32
  0
VERTEX
  8
0
  5
1CC4
 10
80.0227
 20
87.7518
 30
0.000000
  70
    32
  0
VERTEX
  8
0
  5
1CC5
 10
80.0336
 20
87.7013
 30
0.000000
  70
    32
  0
VERTEX
  8
0
  5
1CC6
 10
80.0447
 20
87.6509
 30
0.000000
  70
    32
  0
VERTEX
  8
0
  5
1CC7
 10
80.0560
 20
87.6005
 30
0.000000
  70
    32
  0
VERTEX
  8
0
  5
1CC8
 10
80.0676
 20
87.5501
 30
0.000000
  70
    32
  0
VERTEX
  8
0
  5
1CC9
 10
80.0794
 20
87.4998
 30
0.000000
  70
    32
  0
VERTEX
  8
0
  5
1CCA
 10
80.0915
 20
87.4495
 30
0.000000
  70
    32
  0
VERTEX
  8
0
  5
1CCB
 10
80.1038
 20
87.3992
 30
0.000000
  70
    32
  0
VERTEX
  8
0
  5
1CCC
 10
80.1163
 20
87.3490
 30
0.000000
  70
    32
  0
VERTEX
  8
0
  5
1CCD
 10
80.1291
 20
87.2989
 30
0.000000
  70
    32
  0
VERTEX
  8
0
  5
1CCE
 10
80.1421
 20
87.2488
 30
0.000000
  70
    32
  0
VERTEX
  8
0
  5
1CCF
 10
80.1553
 20
87.1987
 30
0.000000
  70
    32
  0
VERTEX
  8
0
  5
1CD0
 10
80.1688
 20
87.1487
 30
0.000000
  70
    32
  0
VERTEX
  8
0
  5
1CD1
 10
80.1825
 20
87.0987
 30
0.000000
  70
    32
  0
VERTEX
  8
0
  5
1CD2
 10
80.1965
 20
87.0488
 30
0.000000
  70
    32
  0
VERTEX
  8
0
  5
1CD3
 10
80.2106
 20
86.9990
 30
0.000000
  70
    32
  0
VERTEX
  8
0
  5
1CD4
 10
80.2250
 20
86.9491
 30
0.000000
  70
    32
  0
VERTEX
  8
0
  5
1CD5
 10
80.2397
 20
86.8994
 30
0.000000
  70
    32
  0
VERTEX
  8
0
  5
1CD6
 10
80.2545
 20
86.8497
 30
0.000000
  70
    32
  0
VERTEX
  8
0
  5
1CD7
 10
80.2697
 20
86.8000
 30
0.000000
  70
    32
  0
SEQEND
  8
0
  5
1CD8
  0
ARC
  5
18D8
  8
0
 10
94.400000000000034
 20
86.800000000000011
 30
0.0
 40
16.0
 50
156.0305176822396
 51
203.96948231776031
  0
LINE
  5
18D9
  8
0
 10
84.700000000000045
 20
78.400000000000006
 30
0.0
 11
84.900000000000034
 21
78.400000000000006
 31
0.0
  0
LINE
  5
18DA
  8
0
 10
84.900000000000034
 20
95.200000000000017
 30
0.0
 11
84.700000000000045
 21
95.200000000000017
 31
0.0
  0
LINE
  5
18DB
  8
0
 10
84.900000000000034
 20
95.200000000000017
 30
0.0
 11
84.900000000000034
 21
78.400000000000006
 31
0.0
  0
LINE
  5
18DC
  8
0
 10
83.900000000000034
 20
78.861880215351704
 30
0.0
 11
83.900000000000034
 21
94.738119784648319
 31
0.0
  0
LINE
  5
18DD
  8
0
 10
83.900000000000034
 20
78.861880215351704
 30
0.0
 11
84.700000000000045
 21
78.400000000000006
 31
0.0
  0
LINE
  5
18DE
  8
0
 10
84.700000000000045
 20
95.200000000000017
 30
0.0
 11
83.900000000000034
 21
94.738119784648319
 31
0.0
  0
LINE
  5
18DF
  8
0
 10
84.700000000000045
 20
95.200000000000017
 30
0.0
 11
84.700000000000045
 21
78.400000000000006
 31
0.0
  0
LINE
  5
18E0
  8
3
 10
114.90000000000001
 20
90.033000000000015
 30
0.0
 11
93.132999999999981
 21
90.033000000000015
 31
0.0
  0
LINE
  5
18E2
  8
3
 10
114.90000000000001
 20
83.567000000000007
 30
0.0
 11
93.132999999999981
 21
83.567000000000007
 31
0.0
  0
CIRCLE
  5
18F0
  8
0
 10
40.0
 20
40.0
 30
0.0
 40
8.4000000000000004
  0
CIRCLE
  5
18F1
  8
0
 10
40.0
 20
40.0
 30
0.0
 40
7.9381197846482987
  0
LINE
  5
18F2
  8
0
 10
46.5
 20
43.75277674973259
 30
0.0
 11
40.0
 21
47.505553499465151
 31
0.0
  0
LINE
  5
18F3
  8
0
 10
40.0
 20
47.505553499465151
 30
0.0
 11
33.5
 21
43.75277674973259
 31
0.0
  0
LINE
  5
18F4
  8
0
 10
33.5
 20
43.75277674973259
 30
0.0
 11
33.5
 21
36.24722325026741
 31
0.0
  0
LINE
  5
18F5
  8
0
 10
33.5
 20
36.24722325026741
 30
0.0
 11
40.0
 21
32.494446500534849
 31
0.0
  0
LINE
  5
18F6
  8
0
 10
40.0
 20
32.494446500534849
 30
0.0
 11
46.5
 21
36.24722325026741
 31
0.0
  0
LINE
  5
18F7
  8
0
 10
46.5
 20
36.24722325026741
 30
0.0
 11
46.5
 21
43.75277674973259
 31
0.0
  0
LINE
  5
18FC
  8
0
 10
85.500000000000014
 20
37.0
 30
0.0
 11
92.900000000000034
 21
37.0
 31
0.0
  0
LINE
  5
18FD
  8
0
 10
92.900000000000034
 20
43.0
 30
0.0
 11
85.500000000000014
 21
43.0
 31
0.0
  0
ARC
  5
18FF
  8
0
 10
85.500000000000014
 20
36.400000000000013
 30
0.0
 40
0.6000000000000001
 50
90.0
 51
180.0
  0
ARC
  5
1900
  8
0
 10
85.500000000000014
 20
43.599999999999987
 30
0.0
 40
0.6000000000000006
 50
180.0
 51
270.0
  0
LINE
  5
1901
  8
0
 10
93.900000000000034
 20
36.0
 30
0.0
 11
114.133
 21
36.0
 31
0.0
  0
LINE
  5
1902
  8
0
 10
114.133
 20
44.0
 30
0.0
 11
93.900000000000034
 21
44.0
 31
0.0
  0
LINE
  5
1903
  8
0
 10
93.900000000000034
 20
44.0
 30
0.0
 11
93.900000000000034
 21
36.0
 31
0.0
  0
LINE
  5
1904
  8
0
 10
92.900000000000034
 20
43.0
 30
0.0
 11
92.900000000000034
 21
37.0
 31
0.0
  0
LINE
  5
1905
  8
0
 10
92.900000000000034
 20
37.0
 30
0.0
 11
93.900000000000034
 21
36.0
 31
0.0
  0
LINE
  5
1906
  8
0
 10
93.900000000000034
 20
44.0
 30
0.0
 11
92.900000000000034
 21
43.0
 31
0.0
  0
LINE
  5
1907
  8
0
 10
114.90000000000001
 20
43.232999999999997
 30
0.0
 11
114.90000000000001
 21
36.767000000000003
 31
0.0
  0
LINE
  5
1908
  8
0
 10
114.133
 20
44.0
 30
0.0
 11
114.133
 21
36.0
 31
0.0
  0
LINE
  5
1909
  8
0
 10
114.90000000000001
 20
43.232999999999997
 30
0.0
 11
114.133
 21
44.0
 31
0.0
  0
LINE
  5
190A
  8
0
 10
114.133
 20
36.0
 30
0.0
 11
114.90000000000001
 21
36.767000000000003
 31
0.0
  0
LINE
  5
190B
  8
0
 10
83.900000000000034
 20
47.505553499465123
 30
0.0
 11
80.269654403848932
 21
47.505553499465123
 31
0.0
  0
LINE
  5
190C
  8
0
 10
83.900000000000034
 20
43.752776749732561
 30
0.0
 11
80.269654403848932
 21
43.752776749732561
 31
0.0
  0
LINE
  5
190D
  8
0
 10
83.900000000000034
 20
32.494446500534877
 30
0.0
 11
80.269654403848932
 21
32.494446500534877
 31
0.0
  0
LINE
  5
190E
  8
0
 10
83.900000000000034
 20
36.247223250267439
 30
0.0
 11
80.269654403848932
 21
36.247223250267439
 31
0.0
  0
POLYLINE
  5
190F
  8
0
 10
80.269654403848932
 20
47.505553499465144
 30
0.0
 66
     1
 70
     8
  0
VERTEX
  8
0
  5
1CD9
 10
80.2697
 20
47.5056
 30
0.000000
  70
    32
  0
VERTEX
  8
0
  5
1CDA
 10
80.2545
 20
47.4769
 30
0.000000
  70
    32
  0
VERTEX
  8
0
  5
1CDB
 10
80.2397
 20
47.4482
 30
0.000000
  70
    32
  0
VERTEX
  8
0
  5
1CDC
 10
80.2250
 20
47.4194
 30
0.000000
  70
    32
  0
VERTEX
  8
0
  5
1CDD
 10
80.2106
 20
47.3907
 30
0.000000
  70
    32
  0
VERTEX
  8
0
  5
1CDE
 10
80.1965
 20
47.3619
 30
0.000000
  70
    32
  0
VERTEX
  8
0
  5
1CDF
 10
80.1825
 20
47.3331
 30
0.000000
  70
    32
  0
VERTEX
  8
0
  5
1CE0
 10
80.1688
 20
47.3042
 30
0.000000
  70
    32
  0
VERTEX
  8
0
  5
1CE1
 10
80.1553
 20
47.2753
 30
0.000000
  70
    32
  0
VERTEX
  8
0
  5
1CE2
 10
80.1421
 20
47.2464
 30
0.000000
  70
    32
  0
VERTEX
  8
0
  5
1CE3
 10
80.1291
 20
47.2175
 30
0.000000
  70
    32
  0
VERTEX
  8
0
  5
1CE4
 10
80.1163
 20
47.1886
 30
0.000000
  70
    32
  0
VERTEX
  8
0
  5
1CE5
 10
80.1038
 20
47.1596
 30
0.000000
  70
    32
  0
VERTEX
  8
0
  5
1CE6
 10
80.0915
 20
47.1306
 30
0.000000
  70
    32
  0
VERTEX
  8
0
  5
1CE7
 10
80.0794
 20
47.1015
 30
0.000000
  70
    32
  0
VERTEX
  8
0
  5
1CE8
 10
80.0676
 20
47.0725
 30
0.000000
  70
    32
  0
VERTEX
  8
0
  5
1CE9
 10
80.0560
 20
47.0434
 30
0.000000
  70
    32
  0
VERTEX
  8
0
  5
1CEA
 10
80.0447
 20
47.0143
 30
0.000000
  70
    32
  0
VERTEX
  8
0
  5
1CEB
 10
80.0336
 20
46.9852
 30
0.000000
  70
    32
  0
VERTEX
  8
0
  5
1CEC
 10
80.0227
 20
46.9560
 30
0.000000
  70
    32
  0
VERTEX
  8
0
  5
1CED
 10
80.0120
 20
46.9269
 30
0.000000
  70
    32
  0
VERTEX
  8
0
  5
1CEE
 10
80.0016
 20
46.8977
 30
0.000000
  70
    32
  0
VERTEX
  8
0
  5
1CEF
 10
79.9914
 20
46.8685
 30
0.000000
  70
    32
  0
VERTEX
  8
0
  5
1CF0
 10
79.9815
 20
46.8392
 30
0.000000
  70
    32
  0
VERTEX
  8
0
  5
1CF1
 10
79.9718
 20
46.8100
 30
0.000000
  70
    32
  0
VERTEX
  8
0
  5
1CF2
 10
79.9624
 20
46.7807
 30
0.000000
  70
    32
  0
VERTEX
  8
0
  5
1CF3
 10
79.9531
 20
46.7514
 30
0.000000
  70
    32
  0
VERTEX
  8
0
  5
1CF4
 10
79.9441
 20
46.7221
 30
0.000000
  70
    32
  0
VERTEX
  8
0
  5
1CF5
 10
79.9354
 20
46.6928
 30
0.000000
  70
    32
  0
VERTEX
  8
0
  5
1CF6
 10
79.9269
 20
46.6634
 30
0.000000
  70
    32
  0
VERTEX
  8
0
  5
1CF7
 10
79.9186
 20
46.6341
 30
0.000000
  70
    32
  0
VERTEX
  8
0
  5
1CF8
 10
79.9106
 20
46.6047
 30
0.000000
  70
    32
  0
VERTEX
  8
0
  5
1CF9
 10
79.9028
 20
46.5753
 30
0.000000
  70
    32
  0
VERTEX
  8
0
  5
1CFA
 10
79.8952
 20
46.5459
 30
0.000000
  70
    32
  0
VERTEX
  8
0
  5
1CFB
 10
79.8879
 20
46.5165
 30
0.000000
  70
    32
  0
VERTEX
  8
0
  5
1CFC
 10
79.8808
 20
46.4870
 30
0.000000
  70
    32
  0
VERTEX
  8
0
  5
1CFD
 10
79.8740
 20
46.4576
 30
0.000000
  70
    32
  0
VERTEX
  8
0
  5
1CFE
 10
79.8674
 20
46.4281
 30
0.000000
  70
    32
  0
VERTEX
  8
0
  5
1CFF
 10
79.8610
 20
46.3986
 30
0.000000
  70
    32
  0
VERTEX
  8
0
  5
1D00
 10
79.8549
 20
46.3692
 30
0.000000
  70
    32
  0
VERTEX
  8
0
  5
1D01
 10
79.8490
 20
46.3397
 30
0.000000
  70
    32
  0
VERTEX
  8
0
  5
1D02
 10
79.8434
 20
46.3101
 30
0.000000
  70
    32
  0
VERTEX
  8
0
  5
1D03
 10
79.8380
 20
46.2806
 30
0.000000
  70
    32
  0
VERTEX
  8
0
  5
1D04
 10
79.8328
 20
46.2511
 30
0.000000
  70
    32
  0
VERTEX
  8
0
  5
1D05
 10
79.8279
 20
46.2215
 30
0.000000
  70
    32
  0
VERTEX
  8
0
  5
1D06
 10
79.8232
 20
46.1920
 30
0.000000
  70
    32
  0
VERTEX
  8
0
  5
1D07
 10
79.8188
 20
46.1624
 30
0.000000
  70
    32
  0
VERTEX
  8
0
  5
1D08
 10
79.8146
 20
46.1328
 30
0.000000
  70
    32
  0
VERTEX
  8
0
  5
1D09
 10
79.8106
 20
46.1032
 30
0.000000
  70
    32
  0
VERTEX
  8
0
  5
1D0A
 10
79.8069
 20
46.0736
 30
0.000000
  70
    32
  0
VERTEX
  8
0
  5
1D0B
 10
79.8034
 20
46.0440
 30
0.000000
  70
    32
  0
VERTEX
  8
0
  5
1D0C
 10
79.8001
 20
46.0144
 30
0.000000
  70
    32
  0
VERTEX
  8
0
  5
1D0D
 10
79.7971
 20
45.9848
 30
0.000000
  70
    32
  0
VERTEX
  8
0
  5
1D0E
 10
79.7944
 20
45.9552
 30
0.000000
  70
    32
  0
VERTEX
  8
0
  5
1D0F
 10
79.7918
 20
45.9256
 30
0.000000
  70
    32
  0
VERTEX
  8
0
  5
1D10
 10
79.7895
 20
45.8960
 30
0.000000
  70
    32
  0
VERTEX
  8
0
  5
1D11
 10
79.7875
 20
45.8663
 30
0.000000
  70
    32
  0
VERTEX
  8
0
  5
1D12
 10
79.7857
 20
45.8367
 30
0.000000
  70
    32
  0
VERTEX
  8
0
  5
1D13
 10
79.7841
 20
45.8071
 30
0.000000
  70
    32
  0
VERTEX
  8
0
  5
1D14
 10
79.7828
 20
45.7774
 30
0.000000
  70
    32
  0
VERTEX
  8
0
  5
1D15
 10
79.7817
 20
45.7478
 30
0.000000
  70
    32
  0
VERTEX
  8
0
  5
1D16
 10
79.7809
 20
45.7181
 30
0.000000
  70
    32
  0
VERTEX
  8
0
  5
1D17
 10
79.7803
 20
45.6885
 30
0.000000
  70
    32
  0
VERTEX
  8
0
  5
1D18
 10
79.7799
 20
45.6588
 30
0.000000
  70
    32
  0
VERTEX
  8
0
  5
1D19
 10
79.7798
 20
45.6292
 30
0.000000
  70
    32
  0
VERTEX
  8
0
  5
1D1A
 10
79.7799
 20
45.5995
 30
0.000000
  70
    32
  0
VERTEX
  8
0
  5
1D1B
 10
79.7803
 20
45.5699
 30
0.000000
  70
    32
  0
VERTEX
  8
0
  5
1D1C
 10
79.7809
 20
45.5402
 30
0.000000
  70
    32
  0
VERTEX
  8
0
  5
1D1D
 10
79.7817
 20
45.5106
 30
0.000000
  70
    32
  0
VERTEX
  8
0
  5
1D1E
 10
79.7828
 20
45.4809
 30
0.000000
  70
    32
  0
VERTEX
  8
0
  5
1D1F
 10
79.7841
 20
45.4513
 30
0.000000
  70
    32
  0
VERTEX
  8
0
  5
1D20
 10
79.7857
 20
45.4216
 30
0.000000
  70
    32
  0
VERTEX
  8
0
  5
1D21
 10
79.7875
 20
45.3920
 30
0.000000
  70
    32
  0
VERTEX
  8
0
  5
1D22
 10
79.7895
 20
45.3624
 30
0.000000
  70
    32
  0
VERTEX
  8
0
  5
1D23
 10
79.7918
 20
45.3327
 30
0.000000
  70
    32
  0
VERTEX
  8
0
  5
1D24
 10
79.7944
 20
45.3031
 30
0.000000
  70
    32
  0
VERTEX
  8
0
  5
1D25
 10
79.7971
 20
45.2735
 30
0.000000
  70
    32
  0
VERTEX
  8
0
  5
1D26
 10
79.8001
 20
45.2439
 30
0.000000
  70
    32
  0
VERTEX
  8
0
  5
1D27
 10
79.8034
 20
45.2143
 30
0.000000
  70
    32
  0
VERTEX
  8
0
  5
1D28
 10
79.8069
 20
45.1847
 30
0.000000
  70
    32
  0
VERTEX
  8
0
  5
1D29
 10
79.8106
 20
45.1551
 30
0.000000
  70
    32
  0
VERTEX
  8
0
  5
1D2A
 10
79.8146
 20
45.1255
 30
0.000000
  70
    32
  0
VERTEX
  8
0
  5
1D2B
 10
79.8188
 20
45.0959
 30
0.000000
  70
    32
  0
VERTEX
  8
0
  5
1D2C
 10
79.8232
 20
45.0664
 30
0.000000
  70
    32
  0
VERTEX
  8
0
  5
1D2D
 10
79.8279
 20
45.0368
 30
0.000000
  70
    32
  0
VERTEX
  8
0
  5
1D2E
 10
79.8328
 20
45.0073
 30
0.000000
  70
    32
  0
VERTEX
  8
0
  5
1D2F
 10
79.8380
 20
44.9777
 30
0.000000
  70
    32
  0
VERTEX
  8
0
  5
1D30
 10
79.8434
 20
44.9482
 30
0.000000
  70
    32
  0
VERTEX
  8
0
  5
1D31
 10
79.8490
 20
44.9187
 30
0.000000
  70
    32
  0
VERTEX
  8
0
  5
1D32
 10
79.8549
 20
44.8892
 30
0.000000
  70
    32
  0
VERTEX
  8
0
  5
1D33
 10
79.8610
 20
44.8597
 30
0.000000
  70
    32
  0
VERTEX
  8
0
  5
1D34
 10
79.8674
 20
44.8302
 30
0.000000
  70
    32
  0
VERTEX
  8
0
  5
1D35
 10
79.8740
 20
44.8007
 30
0.000000
  70
    32
  0
VERTEX
  8
0
  5
1D36
 10
79.8808
 20
44.7713
 30
0.000000
  70
    32
  0
VERTEX
  8
0
  5
1D37
 10
79.8879
 20
44.7418
 30
0.000000
  70
    32
  0
VERTEX
  8
0
  5
1D38
 10
79.8952
 20
44.7124
 30
0.000000
  70
    32
  0
VERTEX
  8
0
  5
1D39
 10
79.9028
 20
44.6830
 30
0.000000
  70
    32
  0
VERTEX
  8
0
  5
1D3A
 10
79.9106
 20
44.6536
 30
0.000000
  70
    32
  0
VERTEX
  8
0
  5
1D3B
 10
79.9186
 20
44.6242
 30
0.000000
  70
    32
  0
VERTEX
  8
0
  5
1D3C
 10
79.9269
 20
44.5949
 30
0.000000
  70
    32
  0
VERTEX
  8
0
  5
1D3D
 10
79.9354
 20
44.5655
 30
0.000000
  70
    32
  0
VERTEX
  8
0
  5
1D3E
 10
79.9441
 20
44.5362
 30
0.000000
  70
    32
  0
VERTEX
  8
0
  5
1D3F
 10
79.9531
 20
44.5069
 30
0.000000
  70
    32
  0
VERTEX
  8
0
  5
1D40
 10
79.9624
 20
44.4776
 30
0.000000
  70
    32
  0
VERTEX
  8
0
  5
1D41
 10
79.9718
 20
44.4483
 30
0.000000
  70
    32
  0
VERTEX
  8
0
  5
1D42
 10
79.9815
 20
44.4191
 30
0.000000
  70
    32
  0
VERTEX
  8
0
  5
1D43
 10
79.9914
 20
44.3899
 30
0.000000
  70
    32
  0
VERTEX
  8
0
  5
1D44
 10
80.0016
 20
44.3606
 30
0.000000
  70
    32
  0
VERTEX
  8
0
  5
1D45
 10
80.0120
 20
44.3315
 30
0.000000
  70
    32
  0
VERTEX
  8
0
  5
1D46
 10
80.0227
 20
44.3023
 30
0.000000
  70
    32
  0
VERTEX
  8
0
  5
1D47
 10
80.0336
 20
44.2731
 30
0.000000
  70
    32
  0
VERTEX
  8
0
  5
1D48
 10
80.0447
 20
44.2440
 30
0.000000
  70
    32
  0
VERTEX
  8
0
  5
1D49
 10
80.0560
 20
44.2149
 30
0.000000
  70
    32
  0
VERTEX
  8
0
  5
1D4A
 10
80.0676
 20
44.1858
 30
0.000000
  70
    32
  0
VERTEX
  8
0
  5
1D4B
 10
80.0794
 20
44.1568
 30
0.000000
  70
    32
  0
VERTEX
  8
0
  5
1D4C
 10
80.0915
 20
44.1278
 30
0.000000
  70
    32
  0
VERTEX
  8
0
  5
1D4D
 10
80.1038
 20
44.0987
 30
0.000000
  70
    32
  0
VERTEX
  8
0
  5
1D4E
 10
80.1163
 20
44.0698
 30
0.000000
  70
    32
  0
VERTEX
  8
0
  5
1D4F
 10
80.1291
 20
44.0408
 30
0.000000
  70
    32
  0
VERTEX
  8
0
  5
1D50
 10
80.1421
 20
44.0119
 30
0.000000
  70
    32
  0
VERTEX
  8
0
  5
1D51
 10
80.1553
 20
43.9830
 30
0.000000
  70
    32
  0
VERTEX
  8
0
  5
1D52
 10
80.1688
 20
43.9541
 30
0.000000
  70
    32
  0
VERTEX
  8
0
  5
1D53
 10
80.1825
 20
43.9253
 30
0.000000
  70
    32
  0
VERTEX
  8
0
  5
1D54
 10
80.1965
 20
43.8964
 30
0.000000
  70
    32
  0
VERTEX
  8
0
  5
1D55
 10
80.2106
 20
43.8676
 30
0.000000
  70
    32
  0
VERTEX
  8
0
  5
1D56
 10
80.2250
 20
43.8389
 30
0.000000
  70
    32
  0
VERTEX
  8
0
  5
1D57
 10
80.2397
 20
43.8102
 30
0.000000
  70
    32
  0
VERTEX
  8
0
  5
1D58
 10
80.2545
 20
43.7814
 30
0.000000
  70
    32
  0
VERTEX
  8
0
  5
1D59
 10
80.2697
 20
43.7528
 30
0.000000
  70
    32
  0
SEQEND
  8
0
  5
1D5A
  0
POLYLINE
  5
1910
  8
0
 10
80.269654403848918
 20
36.247223250267446
 30
0.0
 66
     1
 70
     8
  0
VERTEX
  8
0
  5
1D5B
 10
80.2697
 20
36.2472
 30
0.000000
  70
    32
  0
VERTEX
  8
0
  5
1D5C
 10
80.2545
 20
36.2186
 30
0.000000
  70
    32
  0
VERTEX
  8
0
  5
1D5D
 10
80.2397
 20
36.1898
 30
0.000000
  70
    32
  0
VERTEX
  8
0
  5
1D5E
 10
80.2250
 20
36.1611
 30
0.000000
  70
    32
  0
VERTEX
  8
0
  5
1D5F
 10
80.2106
 20
36.1324
 30
0.000000
  70
    32
  0
VERTEX
  8
0
  5
1D60
 10
80.1965
 20
36.1036
 30
0.000000
  70
    32
  0
VERTEX
  8
0
  5
1D61
 10
80.1825
 20
36.0747
 30
0.000000
  70
    32
  0
VERTEX
  8
0
  5
1D62
 10
80.1688
 20
36.0459
 30
0.000000
  70
    32
  0
VERTEX
  8
0
  5
1D63
 10
80.1553
 20
36.0170
 30
0.000000
  70
    32
  0
VERTEX
  8
0
  5
1D64
 10
80.1421
 20
35.9881
 30
0.000000
  70
    32
  0
VERTEX
  8
0
  5
1D65
 10
80.1291
 20
35.9592
 30
0.000000
  70
    32
  0
VERTEX
  8
0
  5
1D66
 10
80.1163
 20
35.9302
 30
0.000000
  70
    32
  0
VERTEX
  8
0
  5
1D67
 10
80.1038
 20
35.9013
 30
0.000000
  70
    32
  0
VERTEX
  8
0
  5
1D68
 10
80.0915
 20
35.8722
 30
0.000000
  70
    32
  0
VERTEX
  8
0
  5
1D69
 10
80.0794
 20
35.8432
 30
0.000000
  70
    32
  0
VERTEX
  8
0
  5
1D6A
 10
80.0676
 20
35.8142
 30
0.000000
  70
    32
  0
VERTEX
  8
0
  5
1D6B
 10
80.0560
 20
35.7851
 30
0.000000
  70
    32
  0
VERTEX
  8
0
  5
1D6C
 10
80.0447
 20
35.7560
 30
0.000000
  70
    32
  0
VERTEX
  8
0
  5
1D6D
 10
80.0336
 20
35.7269
 30
0.000000
  70
    32
  0
VERTEX
  8
0
  5
1D6E
 10
80.0227
 20
35.6977
 30
0.000000
  70
    32
  0
VERTEX
  8
0
  5
1D6F
 10
80.0120
 20
35.6685
 30
0.000000
  70
    32
  0
VERTEX
  8
0
  5
1D70
 10
80.0016
 20
35.6394
 30
0.000000
  70
    32
  0
VERTEX
  8
0
  5
1D71
 10
79.9914
 20
35.6101
 30
0.000000
  70
    32
  0
VERTEX
  8
0
  5
1D72
 10
79.9815
 20
35.5809
 30
0.000000
  70
    32
  0
VERTEX
  8
0
  5
1D73
 10
79.9718
 20
35.5517
 30
0.000000
  70
    32
  0
VERTEX
  8
0
  5
1D74
 10
79.9624
 20
35.5224
 30
0.000000
  70
    32
  0
VERTEX
  8
0
  5
1D75
 10
79.9531
 20
35.4931
 30
0.000000
  70
    32
  0
VERTEX
  8
0
  5
1D76
 10
79.9441
 20
35.4638
 30
0.000000
  70
    32
  0
VERTEX
  8
0
  5
1D77
 10
79.9354
 20
35.4345
 30
0.000000
  70
    32
  0
VERTEX
  8
0
  5
1D78
 10
79.9269
 20
35.4051
 30
0.000000
  70
    32
  0
VERTEX
  8
0
  5
1D79
 10
79.9186
 20
35.3758
 30
0.000000
  70
    32
  0
VERTEX
  8
0
  5
1D7A
 10
79.9106
 20
35.3464
 30
0.000000
  70
    32
  0
VERTEX
  8
0
  5
1D7B
 10
79.9028
 20
35.3170
 30
0.000000
  70
    32
  0
VERTEX
  8
0
  5
1D7C
 10
79.8952
 20
35.2876
 30
0.000000
  70
    32
  0
VERTEX
  8
0
  5
1D7D
 10
79.8879
 20
35.2582
 30
0.000000
  70
    32
  0
VERTEX
  8
0
  5
1D7E
 10
79.8808
 20
35.2287
 30
0.000000
  70
    32
  0
VERTEX
  8
0
  5
1D7F
 10
79.8740
 20
35.1993
 30
0.000000
  70
    32
  0
VERTEX
  8
0
  5
1D80
 10
79.8674
 20
35.1698
 30
0.000000
  70
    32
  0
VERTEX
  8
0
  5
1D81
 10
79.8610
 20
35.1403
 30
0.000000
  70
    32
  0
VERTEX
  8
0
  5
1D82
 10
79.8549
 20
35.1108
 30
0.000000
  70
    32
  0
VERTEX
  8
0
  5
1D83
 10
79.8490
 20
35.0813
 30
0.000000
  70
    32
  0
VERTEX
  8
0
  5
1D84
 10
79.8434
 20
35.0518
 30
0.000000
  70
    32
  0
VERTEX
  8
0
  5
1D85
 10
79.8380
 20
35.0223
 30
0.000000
  70
    32
  0
VERTEX
  8
0
  5
1D86
 10
79.8328
 20
34.9927
 30
0.000000
  70
    32
  0
VERTEX
  8
0
  5
1D87
 10
79.8279
 20
34.9632
 30
0.000000
  70
    32
  0
VERTEX
  8
0
  5
1D88
 10
79.8232
 20
34.9336
 30
0.000000
  70
    32
  0
VERTEX
  8
0
  5
1D89
 10
79.8188
 20
34.9041
 30
0.000000
  70
    32
  0
VERTEX
  8
0
  5
1D8A
 10
79.8146
 20
34.8745
 30
0.000000
  70
    32
  0
VERTEX
  8
0
  5
1D8B
 10
79.8106
 20
34.8449
 30
0.000000
  70
    32
  0
VERTEX
  8
0
  5
1D8C
 10
79.8069
 20
34.8153
 30
0.000000
  70
    32
  0
VERTEX
  8
0
  5
1D8D
 10
79.8034
 20
34.7857
 30
0.000000
  70
    32
  0
VERTEX
  8
0
  5
1D8E
 10
79.8001
 20
34.7561
 30
0.000000
  70
    32
  0
VERTEX
  8
0
  5
1D8F
 10
79.7971
 20
34.7265
 30
0.000000
  70
    32
  0
VERTEX
  8
0
  5
1D90
 10
79.7944
 20
34.6969
 30
0.000000
  70
    32
  0
VERTEX
  8
0
  5
1D91
 10
79.7918
 20
34.6673
 30
0.000000
  70
    32
  0
VERTEX
  8
0
  5
1D92
 10
79.7895
 20
34.6376
 30
0.000000
  70
    32
  0
VERTEX
  8
0
  5
1D93
 10
79.7875
 20
34.6080
 30
0.000000
  70
    32
  0
VERTEX
  8
0
  5
1D94
 10
79.7857
 20
34.5784
 30
0.000000
  70
    32
  0
VERTEX
  8
0
  5
1D95
 10
79.7841
 20
34.5487
 30
0.000000
  70
    32
  0
VERTEX
  8
0
  5
1D96
 10
79.7828
 20
34.5191
 30
0.000000
  70
    32
  0
VERTEX
  8
0
  5
1D97
 10
79.7817
 20
34.4894
 30
0.000000
  70
    32
  0
VERTEX
  8
0
  5
1D98
 10
79.7809
 20
34.4598
 30
0.000000
  70
    32
  0
VERTEX
  8
0
  5
1D99
 10
79.7803
 20
34.4301
 30
0.000000
  70
    32
  0
VERTEX
  8
0
  5
1D9A
 10
79.7799
 20
34.4005
 30
0.000000
  70
    32
  0
VERTEX
  8
0
  5
1D9B
 10
79.7798
 20
34.3708
 30
0.000000
  70
    32
  0
VERTEX
  8
0
  5
1D9C
 10
79.7799
 20
34.3412
 30
0.000000
  70
    32
  0
VERTEX
  8
0
  5
1D9D
 10
79.7803
 20
34.3115
 30
0.000000
  70
    32
  0
VERTEX
  8
0
  5
1D9E
 10
79.7809
 20
34.2819
 30
0.000000
  70
    32
  0
VERTEX
  8
0
  5
1D9F
 10
79.7817
 20
34.2522
 30
0.000000
  70
    32
  0
VERTEX
  8
0
  5
1DA0
 10
79.7828
 20
34.2226
 30
0.000000
  70
    32
  0
VERTEX
  8
0
  5
1DA1
 10
79.7841
 20
34.1929
 30
0.000000
  70
    32
  0
VERTEX
  8
0
  5
1DA2
 10
79.7857
 20
34.1633
 30
0.000000
  70
    32
  0
VERTEX
  8
0
  5
1DA3
 10
79.7875
 20
34.1337
 30
0.000000
  70
    32
  0
VERTEX
  8
0
  5
1DA4
 10
79.7895
 20
34.1040
 30
0.000000
  70
    32
  0
VERTEX
  8
0
  5
1DA5
 10
79.7918
 20
34.0744
 30
0.000000
  70
    32
  0
VERTEX
  8
0
  5
1DA6
 10
79.7944
 20
34.0448
 30
0.000000
  70
    32
  0
VERTEX
  8
0
  5
1DA7
 10
79.7971
 20
34.0152
 30
0.000000
  70
    32
  0
VERTEX
  8
0
  5
1DA8
 10
79.8001
 20
33.9856
 30
0.000000
  70
    32
  0
VERTEX
  8
0
  5
1DA9
 10
79.8034
 20
33.9560
 30
0.000000
  70
    32
  0
VERTEX
  8
0
  5
1DAA
 10
79.8069
 20
33.9264
 30
0.000000
  70
    32
  0
VERTEX
  8
0
  5
1DAB
 10
79.8106
 20
33.8968
 30
0.000000
  70
    32
  0
VERTEX
  8
0
  5
1DAC
 10
79.8146
 20
33.8672
 30
0.000000
  70
    32
  0
VERTEX
  8
0
  5
1DAD
 10
79.8188
 20
33.8376
 30
0.000000
  70
    32
  0
VERTEX
  8
0
  5
1DAE
 10
79.8232
 20
33.8080
 30
0.000000
  70
    32
  0
VERTEX
  8
0
  5
1DAF
 10
79.8279
 20
33.7785
 30
0.000000
  70
    32
  0
VERTEX
  8
0
  5
1DB0
 10
79.8328
 20
33.7489
 30
0.000000
  70
    32
  0
VERTEX
  8
0
  5
1DB1
 10
79.8380
 20
33.7194
 30
0.000000
  70
    32
  0
VERTEX
  8
0
  5
1DB2
 10
79.8434
 20
33.6899
 30
0.000000
  70
    32
  0
VERTEX
  8
0
  5
1DB3
 10
79.8490
 20
33.6603
 30
0.000000
  70
    32
  0
VERTEX
  8
0
  5
1DB4
 10
79.8549
 20
33.6308
 30
0.000000
  70
    32
  0
VERTEX
  8
0
  5
1DB5
 10
79.8610
 20
33.6014
 30
0.000000
  70
    32
  0
VERTEX
  8
0
  5
1DB6
 10
79.8674
 20
33.5719
 30
0.000000
  70
    32
  0
VERTEX
  8
0
  5
1DB7
 10
79.8740
 20
33.5424
 30
0.000000
  70
    32
  0
VERTEX
  8
0
  5
1DB8
 10
79.8808
 20
33.5130
 30
0.000000
  70
    32
  0
VERTEX
  8
0
  5
1DB9
 10
79.8879
 20
33.4835
 30
0.000000
  70
    32
  0
VERTEX
  8
0
  5
1DBA
 10
79.8952
 20
33.4541
 30
0.000000
  70
    32
  0
VERTEX
  8
0
  5
1DBB
 10
79.9028
 20
33.4247
 30
0.000000
  70
    32
  0
VERTEX
  8
0
  5
1DBC
 10
79.9106
 20
33.3953
 30
0.000000
  70
    32
  0
VERTEX
  8
0
  5
1DBD
 10
79.9186
 20
33.3659
 30
0.000000
  70
    32
  0
VERTEX
  8
0
  5
1DBE
 10
79.9269
 20
33.3366
 30
0.000000
  70
    32
  0
VERTEX
  8
0
  5
1DBF
 10
79.9354
 20
33.3072
 30
0.000000
  70
    32
  0
VERTEX
  8
0
  5
1DC0
 10
79.9441
 20
33.2779
 30
0.000000
  70
    32
  0
VERTEX
  8
0
  5
1DC1
 10
79.9531
 20
33.2486
 30
0.000000
  70
    32
  0
VERTEX
  8
0
  5
1DC2
 10
79.9624
 20
33.2193
 30
0.000000
  70
    32
  0
VERTEX
  8
0
  5
1DC3
 10
79.9718
 20
33.1900
 30
0.000000
  70
    32
  0
VERTEX
  8
0
  5
1DC4
 10
79.9815
 20
33.1608
 30
0.000000
  70
    32
  0
VERTEX
  8
0
  5
1DC5
 10
79.9914
 20
33.1315
 30
0.000000
  70
    32
  0
VERTEX
  8
0
  5
1DC6
 10
80.0016
 20
33.1023
 30
0.000000
  70
    32
  0
VERTEX
  8
0
  5
1DC7
 10
80.0120
 20
33.0731
 30
0.000000
  70
    32
  0
VERTEX
  8
0
  5
1DC8
 10
80.0227
 20
33.0440
 30
0.000000
  70
    32
  0
VERTEX
  8
0
  5
1DC9
 10
80.0336
 20
33.0148
 30
0.000000
  70
    32
  0
VERTEX
  8
0
  5
1DCA
 10
80.0447
 20
32.9857
 30
0.000000
  70
    32
  0
VERTEX
  8
0
  5
1DCB
 10
80.0560
 20
32.9566
 30
0.000000
  70
    32
  0
VERTEX
  8
0
  5
1DCC
 10
80.0676
 20
32.9275
 30
0.000000
  70
    32
  0
VERTEX
  8
0
  5
1DCD
 10
80.0794
 20
32.8985
 30
0.000000
  70
    32
  0
VERTEX
  8
0
  5
1DCE
 10
80.0915
 20
32.8694
 30
0.000000
  70
    32
  0
VERTEX
  8
0
  5
1DCF
 10
80.1038
 20
32.8404
 30
0.000000
  70
    32
  0
VERTEX
  8
0
  5
1DD0
 10
80.1163
 20
32.8114
 30
0.000000
  70
    32
  0
VERTEX
  8
0
  5
1DD1
 10
80.1291
 20
32.7825
 30
0.000000
  70
    32
  0
VERTEX
  8
0
  5
1DD2
 10
80.1421
 20
32.7536
 30
0.000000
  70
    32
  0
VERTEX
  8
0
  5
1DD3
 10
80.1553
 20
32.7247
 30
0.000000
  70
    32
  0
VERTEX
  8
0
  5
1DD4
 10
80.1688
 20
32.6958
 30
0.000000
  70
    32
  0
VERTEX
  8
0
  5
1DD5
 10
80.1825
 20
32.6669
 30
0.000000
  70
    32
  0
VERTEX
  8
0
  5
1DD6
 10
80.1965
 20
32.6381
 30
0.000000
  70
    32
  0
VERTEX
  8
0
  5
1DD7
 10
80.2106
 20
32.6093
 30
0.000000
  70
    32
  0
VERTEX
  8
0
  5
1DD8
 10
80.2250
 20
32.5806
 30
0.000000
  70
    32
  0
VERTEX
  8
0
  5
1DD9
 10
80.2397
 20
32.5518
 30
0.000000
  70
    32
  0
VERTEX
  8
0
  5
1DDA
 10
80.2545
 20
32.5231
 30
0.000000
  70
    32
  0
VERTEX
  8
0
  5
1DDB
 10
80.2697
 20
32.4944
 30
0.000000
  70
    32
  0
SEQEND
  8
0
  5
1DDC
  0
ARC
  5
1911
  8
0
 10
94.400000000000034
 20
40.0
 30
0.0
 40
14.620191517213449
 50
165.12657654470021
 51
194.8734234552997
  0
ARC
  5
1912
  8
0
 10
94.400000000000034
 20
40.0
 30
0.0
 40
16.000000000000021
 50
152.02429711506929
 51
207.97570288493071
  0
LINE
  5
1913
  8
0
 10
84.900000000000034
 20
48.399999999999999
 30
0.0
 11
84.900000000000034
 21
31.600000000000001
 31
0.0
  0
LINE
  5
1914
  8
0
 10
84.700000000000017
 20
31.600000000000001
 30
0.0
 11
84.900000000000034
 21
31.600000000000001
 31
0.0
  0
LINE
  5
1915
  8
0
 10
84.900000000000034
 20
48.399999999999999
 30
0.0
 11
84.700000000000017
 21
48.399999999999999
 31
0.0
  0
LINE
  5
1916
  8
0
 10
84.700000000000017
 20
48.399999999999999
 30
0.0
 11
84.700000000000017
 21
31.600000000000001
 31
0.0
  0
LINE
  5
1917
  8
0
 10
83.900000000000034
 20
32.061880215351692
 30
0.0
 11
83.900000000000034
 21
47.9381197846483
 31
0.0
  0
LINE
  5
1918
  8
0
 10
83.900000000000034
 20
32.061880215351692
 30
0.0
 11
84.700000000000017
 21
31.600000000000001
 31
0.0
  0
LINE
  5
1919
  8
0
 10
84.700000000000017
 20
48.399999999999999
 30
0.0
 11
83.900000000000034
 21
47.9381197846483
 31
0.0
  0
LINE
  5
191A
  8
3
 10
114.90000000000001
 20
36.767000000000003
 30
0.0
 11
93.133000000000024
 21
36.767000000000003
 31
0.0
  0
LINE
  5
191C
  8
3
 10
114.90000000000001
 20
43.232999999999997
 30
0.0
 11
93.133000000000024
 21
43.232999999999997
 31
0.0
  0
LINE
  5
19D7
  8
1
 10
76.400000000000006
 20
40.0
 30
0.0
 11
116.90000000000001
 21
40.0
 31
0.0
  0
LINE
  5
19DA
  8
1
 10
76.400000000000034
 20
86.800000000000011
 30
0.0
 11
116.90000000000001
 21
86.800000000000011
 31
0.0
  0
LINE
  5
19DD
  8
1
 10
40.0
 20
50.399999999999999
 30
0.0
 11
40.0
 21
29.600000000000001
 31
0.0
  0
LINE
  5
19DE
  8
1
 10
50.399999999999999
 20
40.0
 30
0.0
 11
29.599999999999991
 21
40.0
 31
0.0
  0
ENDSEC
  0
EOF
