  0
SECTION
  2
HEADER
  9
$ACADVER
  1
AC1009
  9
$INSBASE
 10
0.0
 20
0.0
 30
0.0
  9
$EXTMIN
 10
0.0
 20
-2.960436562073669
 30
0.0
  9
$EXTMAX
 10
282.44999999999999
 20
334.35000000000008
 30
0.0
  9
$LIMMIN
 10
0.0
 20
0.0
  9
$LIMMAX
 10
187.5
 20
135.0
  9
$ORTHOMODE
 70
     1
  9
$REGENMODE
 70
     1
  9
$FILLMODE
 70
     1
  9
$QTEXTMODE
 70
     0
  9
$MIRRTEXT
 70
     0
  9
$DRAGMODE
 70
     2
  9
$LTSCALE
 40
10.0
  9
$OSMODE
 70
    37
  9
$ATTMODE
 70
     1
  9
$TEXTSIZE
 40
4.0
  9
$TRACEWID
 40
0.05
  9
$TEXTSTYLE
  7
STANDARD
  9
$CLAYER
  8
0
  9
$CELTYPE
  6
BYLAYER
  9
$CECOLOR
 62
   256
  9
$DIMSCALE
 40
0.5
  9
$DIMASZ
 40
3.0
  9
$DIMEXO
 40
2.0
  9
$DIMDLI
 40
0.38
  9
$DIMRND
 40
0.0
  9
$DIMDLE
 40
0.0
  9
$DIMEXE
 40
2.0
  9
$DIMTP
 40
0.0
  9
$DIMTM
 40
0.0
  9
$DIMTXT
 40
3.0
  9
$DIMCEN
 40
0.0
  9
$DIMTSZ
 40
0.0
  9
$DIMTOL
 70
     0
  9
$DIMLIM
 70
     0
  9
$DIMTIH
 70
     0
  9
$DIMTOH
 70
     0
  9
$DIMSE1
 70
     0
  9
$DIMSE2
 70
     0
  9
$DIMTAD
 70
     1
  9
$DIMZIN
 70
     0
  9
$DIMBLK
  1

  9
$DIMASO
 70
     0
  9
$DIMSHO
 70
     0
  9
$DIMPOST
  1

  9
$DIMAPOST
  1

  9
$DIMALT
 70
     0
  9
$DIMALTD
 70
     2
  9
$DIMALTF
 40
25.399999999999999
  9
$DIMLFAC
 40
1.0
  9
$DIMTOFL
 70
     0
  9
$DIMTVP
 40
1.6000000000000001
  9
$DIMTIX
 70
     1
  9
$DIMSOXD
 70
     0
  9
$DIMSAH
 70
     0
  9
$DIMBLK1
  1

  9
$DIMBLK2
  1

  9
$DIMSTYLE
  2
STANDARD
  9
$DIMCLRD
 70
     0
  9
$DIMCLRE
 70
     0
  9
$DIMCLRT
 70
     0
  9
$DIMTFAC
 40
1.0
  9
$DIMGAP
 40
0.09
  9
$LUNITS
 70
     2
  9
$LUPREC
 70
     4
  9
$SKETCHINC
 40
0.1
  9
$FILLETRAD
 40
1.25
  9
$AUNITS
 70
     0
  9
$AUPREC
 70
     0
  9
$MENU
  1
E:\r13\win\SUPPORT\ACAD
  9
$ELEVATION
 40
0.0
  9
$PELEVATION
 40
0.0
  9
$THICKNESS
 40
0.0
  9
$LIMCHECK
 70
     0
  9
$BLIPMODE
 70
     0
  9
$CHAMFERA
 40
0.0
  9
$CHAMFERB
 40
0.0
  9
$SKPOLY
 70
     0
  9
$TDCREATE
 40
2449840.6143865739
  9
$TDUPDATE
 40
2458820.7245894098
  9
$TDINDWG
 40
0.4023768866
  9
$TDUSRTIMER
 40
0.4023768866
  9
$USRTIMER
 70
     1
  9
$ANGBASE
 50
0.0
  9
$ANGDIR
 70
     0
  9
$PDMODE
 70
     0
  9
$PDSIZE
 40
0.0
  9
$PLINEWID
 40
0.0
  9
$COORDS
 70
     1
  9
$SPLFRAME
 70
     0
  9
$SPLINETYPE
 70
     6
  9
$SPLINESEGS
 70
     8
  9
$ATTDIA
 70
     0
  9
$ATTREQ
 70
     1
  9
$HANDLING
 70
     1
  9
$HANDSEED
  5
2CED
  9
$SURFTAB1
 70
     6
  9
$SURFTAB2
 70
     6
  9
$SURFTYPE
 70
     6
  9
$SURFU
 70
     6
  9
$SURFV
 70
     6
  9
$UCSNAME
  2

  9
$UCSORG
 10
0.0
 20
0.0
 30
0.0
  9
$UCSXDIR
 10
1.0
 20
0.0
 30
0.0
  9
$UCSYDIR
 10
0.0
 20
1.0
 30
0.0
  9
$PUCSNAME
  2

  9
$PUCSORG
 10
0.0
 20
0.0
 30
0.0
  9
$PUCSXDIR
 10
1.0
 20
0.0
 30
0.0
  9
$PUCSYDIR
 10
0.0
 20
1.0
 30
0.0
  9
$USERI1
 70
     0
  9
$USERI2
 70
     1
  9
$USERI3
 70
     1
  9
$USERI4
 70
     0
  9
$USERI5
 70
     0
  9
$USERR1
 40
0.0
  9
$USERR2
 40
0.0
  9
$USERR3
 40
0.0
  9
$USERR4
 40
0.0
  9
$USERR5
 40
0.0
  9
$WORLDVIEW
 70
     1
  9
$SHADEDGE
 70
     3
  9
$SHADEDIF
 70
    70
  9
$TILEMODE
 70
     1
  9
$MAXACTVP
 70
    16
  9
$PLIMCHECK
 70
     0
  9
$PEXTMIN
 10
1.0000000000000000E+020
 20
1.0000000000000000E+020
 30
1.0000000000000000E+020
  9
$PEXTMAX
 10
-1.0000000000000000E+020
 20
-1.0000000000000000E+020
 30
-1.0000000000000000E+020
  9
$PLIMMIN
 10
0.0
 20
0.0
  9
$PLIMMAX
 10
12.0
 20
9.0
  9
$UNITMODE
 70
     0
  9
$VISRETAIN
 70
     0
  9
$PLINEGEN
 70
     0
  9
$PSLTSCALE
 70
     0
  0
ENDSEC
  0
SECTION
  2
TABLES
  0
TABLE
  2
VPORT
 70
     1
  0
VPORT
  2
*ACTIVE
 70
     0
 10
0.0
 20
0.0
 11
1.0
 21
1.0
 12
324.62794082869323
 22
165.69744443789509
 13
0.0
 23
0.0
 14
5.0
 24
5.0
 15
5.0
 25
5.0
 16
0.0
 26
0.0
 36
1.0
 17
0.0
 27
0.0
 37
0.0
 40
340.28237280191189
 41
2.415644171779141
 42
50.0
 43
0.0
 44
0.0
 50
0.0
 51
0.0
 71
     0
 72
   100
 73
     1
 74
     0
 75
     0
 76
     0
 77
     0
 78
     0
  0
ENDTAB
  0
TABLE
  2
LTYPE
 70
     3
  0
LTYPE
  2
CONTINUOUS
 70
     0
  3
Solid Line
 72
    65
 73
     0
 40
0.0
  0
LTYPE
  2
CENTER
 70
     0
  3
____ _ ____ _ ____ _ ____ _ ____ _ ____ _ ____
 72
    65
 73
     4
 40
2.0
 49
1.25
 49
-0.25
 49
0.25
 49
-0.25
  0
LTYPE
  2
PHANTOM2
 70
     0
  3
___ _ _ ___ _ _ ___ _ _ ___ _ _
 72
    65
 73
     6
 40
1.25
 49
0.625
 49
-0.125
 49
0.125
 49
-0.125
 49
0.125
 49
-0.125
  0
ENDTAB
  0
TABLE
  2
LAYER
 70
     4
  0
LAYER
  2
0
 70
     0
 62
     7
  6
CONTINUOUS
  0
LAYER
  2
1
 70
     0
 62
     1
  6
CENTER
  0
LAYER
  2
3
 70
     0
 62
     3
  6
CONTINUOUS
  0
LAYER
  2
DEFPOINTS
 70
     0
 62
     7
  6
CONTINUOUS
  0
ENDTAB
  0
TABLE
  2
STYLE
 70
     2
  0
STYLE
  2
STANDARD
 70
     0
 40
0.0
 41
1.0
 50
0.0
 71
     0
 42
4.0
  3
TXT
  4
BIGFONT
  0
STYLE
  2
STANDARD1
 70
     0
 40
0.0
 41
1.0
 50
0.0
 71
     0
 42
3.0
  3
txt
  4

  0
ENDTAB
  0
TABLE
  2
VIEW
 70
     1
  0
VIEW
  2
ALL
 70
     0
 40
179.66152299999999
 10
141.903918
 20
89.830760999999995
 41
0.0
 11
0.0
 21
0.0
 31
1.0
 12
0.0
 22
0.0
 32
0.0
 42
0.0
 43
0.0
 44
0.0
 50
0.0
 71
     0
  0
ENDTAB
  0
TABLE
  2
UCS
 70
     0
  0
ENDTAB
  0
TABLE
  2
APPID
 70
     5
  0
APPID
  2
ACAD
 70
     0
  0
APPID
  2
DCO15
 70
     0
  0
APPID
  2
ACAD_MLEADERVER
 70
     0
  0
APPID
  2
ACAD_NAV_VCDISPLAY
 70
     0
  0
APPID
  2
ACAD_EXEMPT_FROM_CAD_STANDARDS
 70
     0
  0
ENDTAB
  0
TABLE
  2
DIMSTYLE
 70
     1
  0
DIMSTYLE
  2
STANDARD
 70
     0
  3

  4

  5

  6

  7

 40
1.0
 41
0.18
 42
0.0625
 43
0.38
 44
0.18
 45
0.0
 46
0.0
 47
0.0
 48
0.0
140
0.18
141
0.09
142
0.0
143
25.399999999999999
144
1.0
145
0.0
146
1.0
147
0.09
 71
     0
 72
     0
 73
     1
 74
     1
 75
     0
 76
     0
 77
     0
 78
     0
170
     0
171
     2
172
     0
173
     0
174
     0
175
     0
176
     0
177
     0
178
     0
  0
ENDTAB
  0
ENDSEC
  0
SECTION
  2
BLOCKS
  0
BLOCK
  8
0
  2
$MODEL_SPACE
 70
     0
 10
0.0
 20
0.0
 30
0.0
  3
$MODEL_SPACE
  1

  0
ENDBLK
  5
1BD
  8
0
  0
BLOCK
 67
     1
  8
0
  2
$PAPER_SPACE
 70
     0
 10
0.0
 20
0.0
 30
0.0
  3
$PAPER_SPACE
  1

  0
ENDBLK
  5
1BB
 67
     1
  8
0
  0
ENDSEC
  0
SECTION
  2
ENTITIES
  0
TEXT
  5
10A0
  8
0
 62
     3
 10
0.0
 20
0.0
 30
0.0
 40
10.0
  1
HD-FKR10X35
  7
STANDARD1
  0
LINE
  5
2012
  8
1
 10
150.0
 20
251.01365481360531
 30
0.0
 11
150.0
 21
147.44999999999999
 31
0.0
  0
LINE
  5
202B
  8
1
 10
236.5
 20
316.89999999999998
 30
0.0
 11
132.59999999999999
 21
316.89999999999998
 31
0.0
  0
CIRCLE
  5
202C
  8
0
 10
150.0
 20
100.0
 30
0.0
 40
11.15
  0
CIRCLE
  5
2030
  8
0
 10
150.0
 20
100.0
 30
0.0
 40
5.0
  0
CIRCLE
  5
2031
  8
3
 10
150.0
 20
100.0
 30
0.0
 40
4.0799999999999841
  0
CIRCLE
  5
2034
  8
0
 10
150.0
 20
100.0
 30
0.0
 40
11.800000000000001
  0
LINE
  5
20C2
  8
0
 10
77.987287390699976
 20
199.84999999999999
 30
0.0
 11
77.987287390699976
 21
199.94999999999999
 31
0.0
  0
LINE
  5
20C3
  8
0
 10
62.012712609299911
 20
199.94999999999999
 30
0.0
 11
62.012712609299911
 21
199.84999999999999
 31
0.0
  0
ARC
  5
20C4
  8
0
 10
62.11271260930004
 20
199.84999999999999
 30
0.0
 40
0.1000000000000125
 50
180.0
 51
260.0999999859967
  0
ARC
  5
20C5
  8
0
 10
77.887287390699953
 20
199.84999999999999
 30
0.0
 40
0.1000000000000227
 50
279.9000000140033
 51
0.0
  0
LINE
  5
20C6
  8
0
 10
62.095519699599997
 20
199.75148906730001
 30
0.0
 11
63.25
 21
199.55000000000001
 31
0.0
  0
LINE
  5
20C7
  8
0
 10
76.75
 20
199.55000000000001
 30
0.0
 11
77.90448030050004
 21
199.75148906730001
 31
0.0
  0
LINE
  5
20E2
  8
0
 10
63.25
 20
199.55000000000001
 30
0.0
 11
76.75
 21
199.55000000000001
 31
0.0
  0
LINE
  5
21C8
  8
1
 10
150.0
 20
334.35000000000008
 30
0.0
 11
150.0
 21
299.44999999999999
 31
0.0
  0
LINE
  5
21C9
  8
1
 10
236.5
 20
100.0
 30
0.0
 11
132.59999999999999
 21
100.0
 31
0.0
  0
LINE
  5
21CA
  8
1
 10
150.0
 20
117.45
 30
0.0
 11
150.0
 21
82.549999999999969
 31
0.0
  0
LINE
  5
21CC
  8
1
 10
70.0
 20
269.4500000000001
 30
0.0
 11
70.0
 21
147.44999999999999
 31
0.0
  0
LINE
  5
21CF
  8
1
 10
270.0
 20
269.4500000000001
 30
0.0
 11
270.0
 21
147.44999999999999
 31
0.0
  0
LINE
  5
22C2
  8
0
 10
76.75
 20
194.15000000000001
 30
0.0
 11
76.75
 21
199.55000000000001
 31
0.0
  0
LINE
  5
22C3
  8
0
 10
63.25
 20
199.55000000000001
 30
0.0
 11
63.25
 21
194.15000000000001
 31
0.0
  0
ARC
  5
22C4
  8
0
 10
79.75
 20
194.15000000000001
 30
0.0
 40
3.0000000000000022
 50
180.0
 51
225.0286611037962
  0
ARC
  5
22C5
  8
0
 10
60.249999999999993
 20
194.15000000000001
 30
0.0
 40
3.0000000000000062
 50
314.9713388962038
 51
0.0
  0
LINE
  5
22C6
  8
0
 10
62.370258928785482
 20
192.02761877248571
 30
0.0
 11
59.069935267803629
 21
188.7305953068786
 31
0.0
  0
LINE
  5
22C7
  8
0
 10
80.930064732196357
 20
188.7305953068786
 30
0.0
 11
77.629741071214525
 21
192.02761877248571
 31
0.0
  0
LINE
  5
22C8
  8
0
 10
59.600000000000001
 20
187.44999999999999
 30
0.0
 11
80.400000000000006
 21
187.44999999999999
 31
0.0
  0
ARC
  5
22C9
  8
0
 10
80.400000000000006
 20
188.19999999999999
 30
0.0
 40
0.7500000000000006
 50
270.0
 51
45.028661103796203
  0
ARC
  5
22CA
  8
0
 10
59.600000000000001
 20
188.19999999999999
 30
0.0
 40
0.75
 50
134.9713388962038
 51
270.0
  0
LINE
  5
22D0
  8
0
 10
157.9872873907
 20
199.84999999999999
 30
0.0
 11
157.9872873907
 21
199.94999999999999
 31
0.0
  0
LINE
  5
22D1
  8
0
 10
142.01271260929991
 20
199.94999999999999
 30
0.0
 11
142.01271260929991
 21
199.84999999999999
 31
0.0
  0
ARC
  5
22D2
  8
0
 10
142.11271260929999
 20
199.84999999999999
 30
0.0
 40
0.1000000000000125
 50
180.0
 51
260.0999999859967
  0
ARC
  5
22D3
  8
0
 10
157.8872873906999
 20
199.84999999999999
 30
0.0
 40
0.1000000000000227
 50
279.9000000140033
 51
0.0
  0
LINE
  5
22D4
  8
0
 10
142.0955196996
 20
199.75148906730001
 30
0.0
 11
143.25
 21
199.55000000000001
 31
0.0
  0
LINE
  5
22D5
  8
0
 10
156.75
 20
199.55000000000001
 30
0.0
 11
157.90448030050001
 21
199.75148906730001
 31
0.0
  0
LINE
  5
22D6
  8
0
 10
143.25
 20
199.55000000000001
 30
0.0
 11
156.75
 21
199.55000000000001
 31
0.0
  0
LINE
  5
22DF
  8
0
 10
156.75
 20
194.15000000000001
 30
0.0
 11
156.75
 21
199.55000000000001
 31
0.0
  0
LINE
  5
22E0
  8
0
 10
143.25
 20
199.55000000000001
 30
0.0
 11
143.25
 21
194.15000000000001
 31
0.0
  0
ARC
  5
22E1
  8
0
 10
159.75
 20
194.15000000000001
 30
0.0
 40
3.0000000000000022
 50
180.0
 51
225.0286611037962
  0
ARC
  5
22E2
  8
0
 10
140.25
 20
194.15000000000001
 30
0.0
 40
3.0000000000000062
 50
314.97133889620369
 51
0.0
  0
LINE
  5
22E3
  8
0
 10
142.37025892878549
 20
192.02761877248571
 30
0.0
 11
139.0699352678036
 21
188.7305953068786
 31
0.0
  0
LINE
  5
22E4
  8
0
 10
160.9300647321964
 20
188.7305953068786
 30
0.0
 11
157.62974107121451
 21
192.02761877248571
 31
0.0
  0
LINE
  5
22E5
  8
0
 10
139.59999999999999
 20
187.44999999999999
 30
0.0
 11
160.40000000000001
 21
187.44999999999999
 31
0.0
  0
ARC
  5
22E6
  8
0
 10
160.40000000000001
 20
188.19999999999999
 30
0.0
 40
0.7500000000000006
 50
270.0
 51
45.02866110379621
  0
ARC
  5
22E7
  8
0
 10
139.59999999999999
 20
188.19999999999999
 30
0.0
 40
0.75
 50
134.9713388962038
 51
270.0
  0
LINE
  5
22EC
  8
0
 10
277.98728739069998
 20
199.84999999999999
 30
0.0
 11
277.98728739069998
 21
199.94999999999999
 31
0.0
  0
LINE
  5
22ED
  8
0
 10
262.01271260929991
 20
199.94999999999999
 30
0.0
 11
262.01271260929991
 21
199.84999999999999
 31
0.0
  0
ARC
  5
22EE
  8
0
 10
262.11271260929999
 20
199.84999999999999
 30
0.0
 40
0.1000000000000125
 50
180.0
 51
260.0999999859967
  0
ARC
  5
22EF
  8
0
 10
277.8872873906999
 20
199.84999999999999
 30
0.0
 40
0.1000000000000227
 50
279.9000000140033
 51
0.0
  0
LINE
  5
22F0
  8
0
 10
262.0955196996
 20
199.75148906730001
 30
0.0
 11
263.25
 21
199.55000000000001
 31
0.0
  0
LINE
  5
22F1
  8
0
 10
276.75
 20
199.55000000000001
 30
0.0
 11
277.9044803005001
 21
199.75148906730001
 31
0.0
  0
LINE
  5
22F2
  8
0
 10
263.25
 20
199.55000000000001
 30
0.0
 11
276.75
 21
199.55000000000001
 31
0.0
  0
LINE
  5
22FB
  8
0
 10
276.75
 20
194.15000000000001
 30
0.0
 11
276.75
 21
199.55000000000001
 31
0.0
  0
LINE
  5
22FC
  8
0
 10
263.25
 20
199.55000000000001
 30
0.0
 11
263.25
 21
194.15000000000001
 31
0.0
  0
ARC
  5
22FD
  8
0
 10
279.75
 20
194.15000000000001
 30
0.0
 40
3.0000000000000022
 50
180.0
 51
225.0286611037956
  0
ARC
  5
22FE
  8
0
 10
260.25
 20
194.15000000000001
 30
0.0
 40
3.0000000000000062
 50
314.97133889620432
 51
0.0
  0
LINE
  5
22FF
  8
0
 10
262.37025892878552
 20
192.02761877248571
 30
0.0
 11
259.0699352678036
 21
188.7305953068786
 31
0.0
  0
LINE
  5
2300
  8
0
 10
280.93006473219629
 20
188.7305953068786
 30
0.0
 11
277.6297410712146
 21
192.02761877248571
 31
0.0
  0
LINE
  5
2301
  8
0
 10
259.60000000000002
 20
187.44999999999999
 30
0.0
 11
280.39999999999998
 21
187.44999999999999
 31
0.0
  0
ARC
  5
2302
  8
0
 10
280.39999999999998
 20
188.19999999999999
 30
0.0
 40
0.7500000000000006
 50
270.0
 51
45.028661103795628
  0
ARC
  5
2303
  8
0
 10
259.60000000000002
 20
188.19999999999999
 30
0.0
 40
0.75
 50
134.9713388962044
 51
270.0
  0
LINE
  5
2378
  8
0
 10
73.849999999999994
 20
184.65621778264909
 30
0.0
 11
73.849999999999994
 21
185.44999999999999
 31
0.0
  0
LINE
  5
2379
  8
0
 10
66.150000000000006
 20
185.44999999999999
 30
0.0
 11
66.150000000000006
 21
184.65621778264909
 31
0.0
  0
LINE
  5
237A
  8
0
 10
66.150000000000006
 20
184.65621778264909
 30
0.0
 11
73.849999999999994
 21
184.65621778264909
 31
0.0
  0
ARC
  5
237B
  8
0
 10
74.650000000000006
 20
184.65621778264909
 30
0.0
 40
0.8000000000000099
 50
180.0
 51
209.9999999999998
  0
ARC
  5
237C
  8
0
 10
65.349999999999994
 20
184.65621778264909
 30
0.0
 40
0.8000000000000047
 50
329.99999999999977
 51
0.0
  0
LINE
  5
237D
  8
0
 10
66.150000000000006
 20
185.44999999999999
 30
0.0
 11
73.849999999999994
 21
185.44999999999999
 31
0.0
  0
ARC
  5
237E
  8
0
 10
74.650000000000006
 20
185.44999999999999
 30
0.0
 40
0.7999999999999999
 50
90.0
 51
180.0
  0
ARC
  5
237F
  8
0
 10
65.349999999999994
 20
185.44999999999999
 30
0.0
 40
0.7999999999999994
 50
0.0
 51
90.0
  0
LINE
  5
2380
  8
0
 10
75.0
 20
153.37
 30
0.0
 11
75.0
 21
182.44999999999999
 31
0.0
  0
LINE
  5
2381
  8
0
 10
65.0
 20
182.44999999999999
 30
0.0
 11
65.0
 21
153.37
 31
0.0
  0
LINE
  5
2382
  8
0
 10
65.0
 20
153.37
 30
0.0
 11
75.0
 21
153.37
 31
0.0
  0
LINE
  5
2383
  8
0
 10
65.920000000000002
 20
152.44999999999999
 30
0.0
 11
74.079999999999998
 21
152.44999999999999
 31
0.0
  0
LINE
  5
2384
  8
0
 10
74.079999999999998
 20
152.44999999999999
 30
0.0
 11
75.0
 21
153.37
 31
0.0
  0
LINE
  5
2385
  8
0
 10
65.0
 20
153.37
 30
0.0
 11
65.920000000000002
 21
152.44999999999999
 31
0.0
  0
LINE
  5
2386
  8
0
 10
66.042820323027556
 20
184.25621778264909
 30
0.0
 11
73.957179676972444
 21
184.25621778264909
 31
0.0
  0
LINE
  5
2387
  8
0
 10
65.0
 20
182.44999999999999
 30
0.0
 11
75.0
 21
182.44999999999999
 31
0.0
  0
LINE
  5
2388
  8
0
 10
66.042820323027556
 20
184.25621778264909
 30
0.0
 11
65.0
 21
182.44999999999999
 31
0.0
  0
LINE
  5
2389
  8
0
 10
75.0
 20
182.44999999999999
 30
0.0
 11
73.957179676972444
 21
184.25621778264909
 31
0.0
  0
LINE
  5
238A
  8
0
 10
65.0
 20
186.25
 30
0.0
 11
75.0
 21
186.25
 31
0.0
  0
LINE
  5
238B
  8
0
 10
75.0
 20
186.25
 30
0.0
 11
75.0
 21
187.44999999999999
 31
0.0
  0
LINE
  5
238C
  8
0
 10
65.0
 20
187.44999999999999
 30
0.0
 11
65.0
 21
186.25
 31
0.0
  0
LINE
  5
238D
  8
3
 10
65.920000000000002
 20
152.44999999999999
 30
0.0
 11
65.920000000000002
 21
182.44999999999999
 31
0.0
  0
LINE
  5
238E
  8
3
 10
74.079999999999998
 20
152.44999999999999
 30
0.0
 11
74.079999999999998
 21
182.44999999999999
 31
0.0
  0
POINT
  5
238F
  8
0
 10
65.0
 20
153.37
 30
0.0
  0
POINT
  5
2390
  8
0
 10
75.0
 20
153.37
 30
0.0
  0
POINT
  5
2391
  8
0
 10
70.0
 20
152.44999999999999
 30
0.0
  0
POINT
  5
2392
  8
0
 10
70.0
 20
187.44999999999999
 30
0.0
  0
LINE
  5
2396
  8
0
 10
153.84999999999999
 20
184.65621778264909
 30
0.0
 11
153.84999999999999
 21
185.44999999999999
 31
0.0
  0
LINE
  5
2397
  8
0
 10
146.15000000000001
 20
185.44999999999999
 30
0.0
 11
146.15000000000001
 21
184.65621778264909
 31
0.0
  0
LINE
  5
2398
  8
0
 10
146.15000000000001
 20
184.65621778264909
 30
0.0
 11
153.84999999999999
 21
184.65621778264909
 31
0.0
  0
ARC
  5
2399
  8
0
 10
154.65000000000001
 20
184.65621778264909
 30
0.0
 40
0.8000000000000099
 50
180.0
 51
210.0
  0
ARC
  5
239A
  8
0
 10
145.34999999999999
 20
184.65621778264909
 30
0.0
 40
0.8000000000000047
 50
329.99999999999972
 51
0.0
  0
LINE
  5
239B
  8
0
 10
146.15000000000001
 20
185.44999999999999
 30
0.0
 11
153.84999999999999
 21
185.44999999999999
 31
0.0
  0
ARC
  5
239C
  8
0
 10
154.65000000000001
 20
185.44999999999999
 30
0.0
 40
0.7999999999999999
 50
90.0
 51
180.0
  0
ARC
  5
239D
  8
0
 10
145.34999999999999
 20
185.44999999999999
 30
0.0
 40
0.7999999999999994
 50
0.0
 51
90.0
  0
LINE
  5
239E
  8
0
 10
155.0
 20
153.37
 30
0.0
 11
155.0
 21
182.44999999999999
 31
0.0
  0
LINE
  5
239F
  8
0
 10
145.0
 20
182.44999999999999
 30
0.0
 11
145.0
 21
153.37
 31
0.0
  0
LINE
  5
23A0
  8
0
 10
145.0
 20
153.37
 30
0.0
 11
155.0
 21
153.37
 31
0.0
  0
LINE
  5
23A1
  8
0
 10
145.91999999999999
 20
152.44999999999999
 30
0.0
 11
154.08000000000001
 21
152.44999999999999
 31
0.0
  0
LINE
  5
23A2
  8
0
 10
154.08000000000001
 20
152.44999999999999
 30
0.0
 11
155.0
 21
153.37
 31
0.0
  0
LINE
  5
23A3
  8
0
 10
145.0
 20
153.37
 30
0.0
 11
145.91999999999999
 21
152.44999999999999
 31
0.0
  0
LINE
  5
23A4
  8
0
 10
146.0428203230276
 20
184.25621778264909
 30
0.0
 11
153.9571796769724
 21
184.25621778264909
 31
0.0
  0
LINE
  5
23A5
  8
0
 10
145.0
 20
182.44999999999999
 30
0.0
 11
155.0
 21
182.44999999999999
 31
0.0
  0
LINE
  5
23A6
  8
0
 10
146.0428203230276
 20
184.25621778264909
 30
0.0
 11
145.0
 21
182.44999999999999
 31
0.0
  0
LINE
  5
23A7
  8
0
 10
155.0
 20
182.44999999999999
 30
0.0
 11
153.9571796769724
 21
184.25621778264909
 31
0.0
  0
LINE
  5
23A8
  8
0
 10
145.0
 20
186.25
 30
0.0
 11
155.0
 21
186.25
 31
0.0
  0
LINE
  5
23A9
  8
0
 10
155.0
 20
186.25
 30
0.0
 11
155.0
 21
187.44999999999999
 31
0.0
  0
LINE
  5
23AA
  8
0
 10
145.0
 20
187.44999999999999
 30
0.0
 11
145.0
 21
186.25
 31
0.0
  0
LINE
  5
23AB
  8
3
 10
145.91999999999999
 20
152.44999999999999
 30
0.0
 11
145.91999999999999
 21
182.44999999999999
 31
0.0
  0
LINE
  5
23AC
  8
3
 10
154.08000000000001
 20
152.44999999999999
 30
0.0
 11
154.08000000000001
 21
182.44999999999999
 31
0.0
  0
POINT
  5
23AD
  8
0
 10
145.0
 20
153.37
 30
0.0
  0
POINT
  5
23AE
  8
0
 10
155.0
 20
153.37
 30
0.0
  0
POINT
  5
23AF
  8
0
 10
150.0
 20
152.44999999999999
 30
0.0
  0
POINT
  5
23B0
  8
0
 10
150.0
 20
187.44999999999999
 30
0.0
  0
LINE
  5
23B1
  8
0
 10
273.85000000000002
 20
184.65621778264909
 30
0.0
 11
273.85000000000002
 21
185.44999999999999
 31
0.0
  0
LINE
  5
23B2
  8
0
 10
266.14999999999998
 20
185.44999999999999
 30
0.0
 11
266.14999999999998
 21
184.65621778264909
 31
0.0
  0
LINE
  5
23B3
  8
0
 10
266.14999999999998
 20
184.65621778264909
 30
0.0
 11
273.85000000000002
 21
184.65621778264909
 31
0.0
  0
ARC
  5
23B4
  8
0
 10
274.64999999999998
 20
184.65621778264909
 30
0.0
 40
0.8000000000000099
 50
180.0
 51
209.9999999999996
  0
ARC
  5
23B5
  8
0
 10
265.35000000000002
 20
184.65621778264909
 30
0.0
 40
0.8000000000000047
 50
330.00000000000011
 51
0.0
  0
LINE
  5
23B6
  8
0
 10
266.14999999999998
 20
185.44999999999999
 30
0.0
 11
273.85000000000002
 21
185.44999999999999
 31
0.0
  0
ARC
  5
23B7
  8
0
 10
274.64999999999998
 20
185.44999999999999
 30
0.0
 40
0.7999999999999999
 50
90.0
 51
180.0
  0
ARC
  5
23B8
  8
0
 10
265.35000000000002
 20
185.44999999999999
 30
0.0
 40
0.7999999999999994
 50
0.0
 51
90.0
  0
LINE
  5
23B9
  8
0
 10
275.0
 20
153.37
 30
0.0
 11
275.0
 21
182.44999999999999
 31
0.0
  0
LINE
  5
23BA
  8
0
 10
265.0
 20
182.44999999999999
 30
0.0
 11
265.0
 21
153.37
 31
0.0
  0
LINE
  5
23BB
  8
0
 10
265.0
 20
153.37
 30
0.0
 11
275.0
 21
153.37
 31
0.0
  0
LINE
  5
23BC
  8
0
 10
265.92000000000002
 20
152.44999999999999
 30
0.0
 11
274.07999999999998
 21
152.44999999999999
 31
0.0
  0
LINE
  5
23BD
  8
0
 10
274.07999999999998
 20
152.44999999999999
 30
0.0
 11
275.0
 21
153.37
 31
0.0
  0
LINE
  5
23BE
  8
0
 10
265.0
 20
153.37
 30
0.0
 11
265.92000000000002
 21
152.44999999999999
 31
0.0
  0
LINE
  5
23BF
  8
0
 10
266.04282032302763
 20
184.25621778264909
 30
0.0
 11
273.95717967697237
 21
184.25621778264909
 31
0.0
  0
LINE
  5
23C0
  8
0
 10
265.0
 20
182.44999999999999
 30
0.0
 11
275.0
 21
182.44999999999999
 31
0.0
  0
LINE
  5
23C1
  8
0
 10
266.04282032302763
 20
184.25621778264909
 30
0.0
 11
265.0
 21
182.44999999999999
 31
0.0
  0
LINE
  5
23C2
  8
0
 10
275.0
 20
182.44999999999999
 30
0.0
 11
273.95717967697237
 21
184.25621778264909
 31
0.0
  0
LINE
  5
23C3
  8
0
 10
265.0
 20
186.25
 30
0.0
 11
275.0
 21
186.25
 31
0.0
  0
LINE
  5
23C4
  8
0
 10
275.0
 20
186.25
 30
0.0
 11
275.0
 21
187.44999999999999
 31
0.0
  0
LINE
  5
23C5
  8
0
 10
265.0
 20
187.44999999999999
 30
0.0
 11
265.0
 21
186.25
 31
0.0
  0
LINE
  5
23C6
  8
3
 10
265.92000000000002
 20
152.44999999999999
 30
0.0
 11
265.92000000000002
 21
182.44999999999999
 31
0.0
  0
LINE
  5
23C7
  8
3
 10
274.07999999999998
 20
152.44999999999999
 30
0.0
 11
274.07999999999998
 21
182.44999999999999
 31
0.0
  0
POINT
  5
23C8
  8
0
 10
265.0
 20
153.37
 30
0.0
  0
POINT
  5
23C9
  8
0
 10
275.0
 20
153.37
 30
0.0
  0
POINT
  5
23CA
  8
0
 10
270.0
 20
152.44999999999999
 30
0.0
  0
POINT
  5
23CB
  8
0
 10
270.0
 20
187.44999999999999
 30
0.0
  0
LINE
  5
26C5
  8
0
 10
231.5
 20
315.72822956810018
 30
0.0
 11
231.5
 21
318.07177043190018
 31
0.0
  0
ARC
  5
26C6
  8
0
 10
172.93181448050009
 20
372.39882473590018
 30
0.0
 40
47.599999999999888
 50
261.86970562440149
 51
278.78302068610179
  0
ARC
  5
26C7
  8
0
 10
181.9999999888
 20
314.09999999810009
 30
0.0
 40
11.40000000002386
 50
87.988086801799128
 51
99.084720230303375
  0
LINE
  5
26C8
  8
0
 10
225.80713302780009
 20
324.00000000000023
 30
0.0
 11
182.40022313830011
 21
325.49297245630021
 31
0.0
  0
ARC
  5
26C9
  8
0
 10
224.99265363506541
 20
315.32779388966782
 30
0.0
 40
8.7103694239265934
 50
77.351208749443884
 51
84.634612719725183
  0
ARC
  5
26CA
  8
0
 10
225.60000000000019
 20
318.07177043190018
 30
0.0
 40
5.8999999999997677
 50
0.0
 51
77.27105612689715
  0
ARC
  5
26CB
  8
0
 10
172.93181448050009
 20
261.40117526400007
 30
0.0
 40
47.599999999999653
 50
98.130294375598552
 51
112.39071048560101
  0
ARC
  5
26CC
  8
0
 10
172.93181448050009
 20
372.39882473590018
 30
0.0
 40
47.600000000000207
 50
247.6092895143004
 51
261.86970562440149
  0
LINE
  5
26CD
  8
0
 10
225.80713302780001
 20
309.8000000000003
 30
0.0
 11
182.40022313829991
 21
308.30702754370128
 31
0.0
  0
ARC
  5
26CE
  8
0
 10
224.99265363506541
 20
318.47220611033271
 30
0.0
 40
8.7103694239265934
 50
275.36538728027477
 51
282.64879125055609
  0
ARC
  5
26CF
  8
0
 10
225.60000000000019
 20
315.7282295681004
 30
0.0
 40
5.8999999999997677
 50
282.72894387310288
 51
0.0
  0
ARC
  5
26D0
  8
0
 10
172.93181448050009
 20
261.40117526410017
 30
0.0
 40
47.599999999999888
 50
81.216979313898165
 51
98.130294375598552
  0
ARC
  5
26D1
  8
0
 10
181.9999999888
 20
319.70000000190032
 30
0.0
 40
11.40000000002386
 50
260.91527976969661
 51
272.01191319820077
  0
LINE
  5
26D2
  8
0
 10
137.59999999999999
 20
318.01467484048112
 30
0.0
 11
137.59999999999999
 21
315.78532515951912
 31
0.0
  0
ARC
  5
26D3
  8
0
 10
150.0
 20
316.90000000000009
 30
0.0
 40
12.44999999999999
 50
67.322597121496344
 51
174.86330937005641
  0
ARC
  5
26D4
  8
0
 10
150.0
 20
316.90000000000009
 30
0.0
 40
12.44999999999999
 50
185.1366906299435
 51
292.6774028785037
  0
LINE
  5
26D5
  8
0
 10
231.5
 20
98.828229568100085
 30
0.0
 11
231.5
 21
101.1717704319001
 31
0.0
  0
ARC
  5
26D6
  8
0
 10
172.93181448050009
 20
155.49882473590009
 30
0.0
 40
47.599999999999888
 50
261.86970562440138
 51
278.78302068610179
  0
ARC
  5
26D7
  8
0
 10
181.9999999888
 20
97.199999998100054
 30
0.0
 40
11.40000000002386
 50
87.988086801799128
 51
99.084720230303446
  0
LINE
  5
26D8
  8
0
 10
225.80713302780009
 20
107.10000000000009
 30
0.0
 11
182.40022313830011
 21
108.5929724563
 31
0.0
  0
ARC
  5
26D9
  8
0
 10
224.99265363506541
 20
98.427793889667726
 30
0.0
 40
8.7103694239265934
 50
77.351208749444012
 51
84.634612719725098
  0
ARC
  5
26DA
  8
0
 10
225.60000000000019
 20
101.1717704319001
 30
0.0
 40
5.8999999999997677
 50
0.0
 51
77.271056126897236
  0
ARC
  5
26DB
  8
0
 10
172.93181448050009
 20
44.50117526400004
 30
0.0
 40
47.599999999999653
 50
98.130294375598623
 51
112.39071048560091
  0
ARC
  5
26DC
  8
0
 10
172.93181448050009
 20
155.49882473590009
 30
0.0
 40
47.600000000000207
 50
247.60928951430051
 51
261.86970562440138
  0
LINE
  5
26DD
  8
0
 10
225.80713302780001
 20
92.900000000000247
 30
0.0
 11
182.40022313829991
 21
91.407027543701247
 31
0.0
  0
ARC
  5
26DE
  8
0
 10
224.99265363506541
 20
101.5722061103326
 30
0.0
 40
8.7103694239265934
 50
275.36538728027489
 51
282.64879125055597
  0
ARC
  5
26DF
  8
0
 10
225.60000000000019
 20
98.828229568100255
 30
0.0
 40
5.8999999999997677
 50
282.72894387310282
 51
0.0
  0
ARC
  5
26E0
  8
0
 10
172.93181448050009
 20
44.501175264100077
 30
0.0
 40
47.599999999999888
 50
81.216979313898165
 51
98.130294375598623
  0
ARC
  5
26E1
  8
0
 10
181.9999999888
 20
102.8000000019001
 30
0.0
 40
11.40000000002386
 50
260.91527976969661
 51
272.01191319820077
  0
LINE
  5
26E2
  8
0
 10
137.59999999999999
 20
101.114674840481
 30
0.0
 11
137.59999999999999
 21
98.885325159519027
 31
0.0
  0
ARC
  5
26E3
  8
0
 10
150.0
 20
100.0
 30
0.0
 40
12.44999999999999
 50
67.322597121496273
 51
174.86330937005641
  0
ARC
  5
26E4
  8
0
 10
150.0
 20
100.0
 30
0.0
 40
12.44999999999999
 50
185.1366906299435
 51
292.6774028785037
  0
LINE
  5
26E5
  8
0
 10
140.8000000000001
 20
199.94999999999999
 30
0.0
 11
159.19999999999999
 21
199.94999999999999
 31
0.0
  0
LINE
  5
26E6
  8
0
 10
260.80000000000001
 20
199.94999999999999
 30
0.0
 11
279.2000000000001
 21
199.94999999999999
 31
0.0
  0
LINE
  5
26E7
  8
0
 10
60.799999999999947
 20
199.94999999999999
 30
0.0
 11
79.199999999999932
 21
199.94999999999999
 31
0.0
  0
ARC
  5
26E8
  8
0
 10
168.93332362025521
 20
227.40622077618329
 30
0.0
 40
6.6892848850180187
 50
117.9310937931461
 51
177.6964527022603
  0
LINE
  5
26E9
  8
0
 10
137.75055571089999
 20
227.67508758240001
 30
0.0
 11
138.19999999999999
 21
201.65000000000001
 31
0.0
  0
ARC
  5
26EA
  8
0
 10
139.69999999999999
 20
201.65000000000001
 30
0.0
 40
1.5000000000000191
 50
180.0
 51
260.70461183110172
  0
LINE
  5
26EB
  8
0
 10
139.4577134196
 20
200.16969691850011
 30
0.0
 11
140.8000000000001
 21
199.94999999999999
 31
0.0
  0
LINE
  5
26EC
  8
0
 10
159.19999999999999
 20
199.94999999999999
 30
0.0
 11
160.5422865805001
 21
200.16969691850011
 31
0.0
  0
LINE
  5
26ED
  8
0
 10
137.7505557107001
 20
227.67508758240001
 30
0.0
 11
137.72875054790001
 21
228.9383443376
 31
0.0
  0
LINE
  5
26EE
  8
0
 10
137.60090852779899
 20
236.34472315776441
 30
0.0
 11
137.72875054790001
 21
228.9383443376
 31
0.0
  0
ARC
  5
26EF
  8
0
 10
143.69999999999999
 20
236.44999999999999
 30
0.0
 40
6.1000000000003016
 50
126.1686423476968
 51
180.98888823330091
  0
ARC
  5
26F0
  8
0
 10
229.88408499740009
 20
62.660081180200031
 30
0.0
 40
200.00000000003101
 50
112.05030004679691
 51
116.67444061213411
  0
ARC
  5
26F1
  8
0
 10
249.3774025112001
 20
-4.3033272276999801
 30
0.0
 40
269.7000000001994
 50
104.86234307459959
 51
107.96326284230101
  0
ARC
  5
26F2
  8
0
 10
261.76791955369998
 20
47.652180253100013
 30
0.0
 40
208.99999999999011
 50
112.9717441521985
 51
117.3339908930997
  0
ARC
  5
26F3
  8
0
 10
229.88408499730011
 20
62.660081180300018
 30
0.0
 40
199.9999999999778
 50
108.5674257503033
 51
112.05030004679691
  0
LINE
  5
26F4
  8
0
 10
180.19999999999999
 20
256.37382363500012
 30
0.0
 11
182.40022313830011
 21
256.94779227870009
 31
0.0
  0
LINE
  5
26F5
  8
0
 10
180.19999999999999
 20
240.07794386000009
 30
0.0
 11
182.40022313830011
 21
240.99583483149999
 31
0.0
  0
LINE
  5
26F6
  8
0
 10
225.80713302780009
 20
251.52358963660001
 30
0.0
 11
225.60000000000019
 21
251.44999999999999
 31
0.0
  0
LINE
  5
26F7
  8
0
 10
225.60000000000019
 20
251.44999999999999
 30
0.0
 11
220.69999999999999
 21
249.7001046029001
 31
0.0
  0
ARC
  5
26F8
  8
0
 10
216.40000000000009
 20
261.64999999999998
 30
0.0
 40
12.69999999999998
 50
251.64156292459879
 51
289.79054661400193
  0
ARC
  5
26F9
  8
0
 10
210.18129510099999
 20
242.85193891130001
 30
0.0
 40
7.1000000000034271
 50
71.790426281300071
 51
103.6978758300021
  0
ARC
  5
26FA
  8
0
 10
249.3774025112001
 20
-4.303327227499949
 30
0.0
 40
269.69999999999987
 50
95.013726388001103
 51
104.3792776411988
  0
ARC
  5
26FB
  8
0
 10
261.76791955369998
 20
47.652180253100013
 30
0.0
 40
209.0
 50
104.7659075683988
 51
112.3181820657978
  0
LINE
  5
26FC
  8
0
 10
226.90000000000009
 20
264.44999999999999
 30
0.0
 11
226.8000000000001
 21
264.44999999999999
 31
0.0
  0
ARC
  5
26FD
  8
0
 10
226.90000000000009
 20
259.85000000000002
 30
0.0
 40
4.599999999999965
 50
0.0
 51
90.0
  0
LINE
  5
26FE
  8
0
 10
231.5
 20
259.85000000000002
 30
0.0
 11
231.49020696700009
 21
259.55000000000001
 31
0.0
  0
ARC
  5
26FF
  8
0
 10
222.79132034410009
 20
259.68407232600009
 30
0.0
 40
8.6999197621407802
 50
290.28244866469902
 51
359.11699386499868
  0
LINE
  5
2700
  8
0
 10
226.8000000000001
 20
264.44999999999999
 30
0.0
 11
225.80713302780009
 21
264.3647438127
 31
0.0
  0
LINE
  5
2701
  8
0
 10
262.60140394100011
 20
248.94999999999999
 30
0.0
 11
277.39859605900011
 21
248.94999999999999
 31
0.0
  0
ARC
  5
2702
  8
0
 10
318.38368573108193
 20
222.58593342731211
 30
0.0
 40
36.490860425515699
 50
169.97474511941951
 51
171.98317998789341
  0
ARC
  5
2703
  8
0
 10
221.61631395332191
 20
222.58593337435539
 30
0.0
 40
36.490860745512073
 50
8.0168200253140984
 51
10.02525487619836
  0
ARC
  5
2704
  8
0
 10
259.69999999999999
 20
201.65000000000001
 30
0.0
 40
1.500000000000024
 50
180.98888823330091
 51
260.70461183110172
  0
ARC
  5
2705
  8
0
 10
280.30000000000013
 20
201.65000000000001
 30
0.0
 40
1.500000000000024
 50
279.29538816889828
 51
359.01111176669912
  0
LINE
  5
2706
  8
0
 10
259.45771341960011
 20
200.16969691850011
 30
0.0
 11
260.80000000000001
 21
199.94999999999999
 31
0.0
  0
LINE
  5
2707
  8
0
 10
279.2000000000001
 20
199.94999999999999
 30
0.0
 11
280.5422865805001
 21
200.16969691850011
 31
0.0
  0
LINE
  5
2708
  8
0
 10
257.55000000000013
 20
246.01198384720001
 30
0.0
 11
257.55000000000013
 21
228.9383443376
 31
0.0
  0
LINE
  5
2709
  8
0
 10
282.44999999999999
 20
228.9383443376
 30
0.0
 11
282.44999999999999
 21
246.0096995987
 31
0.0
  0
LINE
  5
270A
  8
0
 10
276.92676825990009
 20
264.44999999999999
 30
0.0
 11
263.07323174020007
 21
264.44999999999999
 31
0.0
  0
LINE
  5
270B
  8
0
 10
276.9484476775001
 20
264.44999999999999
 30
0.0
 11
276.92676825990009
 21
264.44999999999999
 31
0.0
  0
LINE
  5
270C
  8
0
 10
277.10000000000002
 20
264.34204412979568
 30
0.0
 11
276.9484476775001
 21
264.44999999999999
 31
0.0
  0
LINE
  5
270D
  8
0
 10
277.10000000000002
 20
251.2000149438272
 30
0.0
 11
277.10000000000002
 21
264.34204412979568
 31
0.0
  0
LINE
  5
270E
  8
0
 10
263.05155232250007
 20
264.44999999999999
 30
0.0
 11
262.89999999999998
 21
264.3420441297053
 31
0.0
  0
LINE
  5
270F
  8
0
 10
263.07323174020007
 20
264.44999999999999
 30
0.0
 11
263.05155232250007
 21
264.44999999999999
 31
0.0
  0
LINE
  5
2710
  8
0
 10
262.89999999999998
 20
264.34204412970541
 30
0.0
 11
262.89999999999998
 21
251.2000149431251
 31
0.0
  0
POLYLINE
  5
2711
  8
0
 10
278.60000000000002
 20
240.91359320362199
 30
0.0
 66
     1
 70
     8
  0
VERTEX
  8
0
  5
27D9
 10
278.600
 20
240.914
 30
0.000000
  70
    32
  0
VERTEX
  8
0
  5
27DA
 10
278.593
 20
240.996
 30
0.000000
  70
    32
  0
VERTEX
  8
0
  5
27DB
 10
278.586
 20
241.078
 30
0.000000
  70
    32
  0
VERTEX
  8
0
  5
27DC
 10
278.579
 20
241.160
 30
0.000000
  70
    32
  0
VERTEX
  8
0
  5
27DD
 10
278.572
 20
241.242
 30
0.000000
  70
    32
  0
VERTEX
  8
0
  5
27DE
 10
278.565
 20
241.324
 30
0.000000
  70
    32
  0
VERTEX
  8
0
  5
27DF
 10
278.558
 20
241.405
 30
0.000000
  70
    32
  0
VERTEX
  8
0
  5
27E0
 10
278.551
 20
241.487
 30
0.000000
  70
    32
  0
VERTEX
  8
0
  5
27E1
 10
278.544
 20
241.568
 30
0.000000
  70
    32
  0
VERTEX
  8
0
  5
27E2
 10
278.536
 20
241.648
 30
0.000000
  70
    32
  0
VERTEX
  8
0
  5
27E3
 10
278.529
 20
241.729
 30
0.000000
  70
    32
  0
VERTEX
  8
0
  5
27E4
 10
278.522
 20
241.809
 30
0.000000
  70
    32
  0
VERTEX
  8
0
  5
27E5
 10
278.515
 20
241.890
 30
0.000000
  70
    32
  0
VERTEX
  8
0
  5
27E6
 10
278.508
 20
241.970
 30
0.000000
  70
    32
  0
VERTEX
  8
0
  5
27E7
 10
278.501
 20
242.049
 30
0.000000
  70
    32
  0
VERTEX
  8
0
  5
27E8
 10
278.494
 20
242.129
 30
0.000000
  70
    32
  0
VERTEX
  8
0
  5
27E9
 10
278.487
 20
242.208
 30
0.000000
  70
    32
  0
VERTEX
  8
0
  5
27EA
 10
278.480
 20
242.287
 30
0.000000
  70
    32
  0
VERTEX
  8
0
  5
27EB
 10
278.473
 20
242.366
 30
0.000000
  70
    32
  0
VERTEX
  8
0
  5
27EC
 10
278.466
 20
242.445
 30
0.000000
  70
    32
  0
VERTEX
  8
0
  5
27ED
 10
278.458
 20
242.523
 30
0.000000
  70
    32
  0
VERTEX
  8
0
  5
27EE
 10
278.451
 20
242.602
 30
0.000000
  70
    32
  0
VERTEX
  8
0
  5
27EF
 10
278.444
 20
242.680
 30
0.000000
  70
    32
  0
VERTEX
  8
0
  5
27F0
 10
278.437
 20
242.758
 30
0.000000
  70
    32
  0
VERTEX
  8
0
  5
27F1
 10
278.430
 20
242.835
 30
0.000000
  70
    32
  0
VERTEX
  8
0
  5
27F2
 10
278.423
 20
242.913
 30
0.000000
  70
    32
  0
VERTEX
  8
0
  5
27F3
 10
278.416
 20
242.990
 30
0.000000
  70
    32
  0
VERTEX
  8
0
  5
27F4
 10
278.409
 20
243.067
 30
0.000000
  70
    32
  0
VERTEX
  8
0
  5
27F5
 10
278.402
 20
243.144
 30
0.000000
  70
    32
  0
VERTEX
  8
0
  5
27F6
 10
278.394
 20
243.221
 30
0.000000
  70
    32
  0
VERTEX
  8
0
  5
27F7
 10
278.387
 20
243.297
 30
0.000000
  70
    32
  0
VERTEX
  8
0
  5
27F8
 10
278.380
 20
243.373
 30
0.000000
  70
    32
  0
VERTEX
  8
0
  5
27F9
 10
278.373
 20
243.449
 30
0.000000
  70
    32
  0
VERTEX
  8
0
  5
27FA
 10
278.366
 20
243.525
 30
0.000000
  70
    32
  0
VERTEX
  8
0
  5
27FB
 10
278.359
 20
243.600
 30
0.000000
  70
    32
  0
VERTEX
  8
0
  5
27FC
 10
278.352
 20
243.676
 30
0.000000
  70
    32
  0
VERTEX
  8
0
  5
27FD
 10
278.344
 20
243.751
 30
0.000000
  70
    32
  0
VERTEX
  8
0
  5
27FE
 10
278.337
 20
243.826
 30
0.000000
  70
    32
  0
VERTEX
  8
0
  5
27FF
 10
278.330
 20
243.901
 30
0.000000
  70
    32
  0
VERTEX
  8
0
  5
2800
 10
278.323
 20
243.975
 30
0.000000
  70
    32
  0
VERTEX
  8
0
  5
2801
 10
278.316
 20
244.049
 30
0.000000
  70
    32
  0
VERTEX
  8
0
  5
2802
 10
278.309
 20
244.123
 30
0.000000
  70
    32
  0
VERTEX
  8
0
  5
2803
 10
278.302
 20
244.197
 30
0.000000
  70
    32
  0
VERTEX
  8
0
  5
2804
 10
278.294
 20
244.271
 30
0.000000
  70
    32
  0
VERTEX
  8
0
  5
2805
 10
278.287
 20
244.344
 30
0.000000
  70
    32
  0
VERTEX
  8
0
  5
2806
 10
278.280
 20
244.418
 30
0.000000
  70
    32
  0
VERTEX
  8
0
  5
2807
 10
278.273
 20
244.491
 30
0.000000
  70
    32
  0
VERTEX
  8
0
  5
2808
 10
278.266
 20
244.563
 30
0.000000
  70
    32
  0
VERTEX
  8
0
  5
2809
 10
278.258
 20
244.636
 30
0.000000
  70
    32
  0
VERTEX
  8
0
  5
280A
 10
278.251
 20
244.708
 30
0.000000
  70
    32
  0
VERTEX
  8
0
  5
280B
 10
278.244
 20
244.781
 30
0.000000
  70
    32
  0
VERTEX
  8
0
  5
280C
 10
278.237
 20
244.853
 30
0.000000
  70
    32
  0
VERTEX
  8
0
  5
280D
 10
278.230
 20
244.924
 30
0.000000
  70
    32
  0
VERTEX
  8
0
  5
280E
 10
278.223
 20
244.996
 30
0.000000
  70
    32
  0
VERTEX
  8
0
  5
280F
 10
278.215
 20
245.067
 30
0.000000
  70
    32
  0
VERTEX
  8
0
  5
2810
 10
278.208
 20
245.138
 30
0.000000
  70
    32
  0
VERTEX
  8
0
  5
2811
 10
278.201
 20
245.209
 30
0.000000
  70
    32
  0
VERTEX
  8
0
  5
2812
 10
278.194
 20
245.280
 30
0.000000
  70
    32
  0
VERTEX
  8
0
  5
2813
 10
278.187
 20
245.350
 30
0.000000
  70
    32
  0
VERTEX
  8
0
  5
2814
 10
278.179
 20
245.421
 30
0.000000
  70
    32
  0
VERTEX
  8
0
  5
2815
 10
278.172
 20
245.491
 30
0.000000
  70
    32
  0
VERTEX
  8
0
  5
2816
 10
278.165
 20
245.560
 30
0.000000
  70
    32
  0
VERTEX
  8
0
  5
2817
 10
278.158
 20
245.630
 30
0.000000
  70
    32
  0
VERTEX
  8
0
  5
2818
 10
278.150
 20
245.699
 30
0.000000
  70
    32
  0
VERTEX
  8
0
  5
2819
 10
278.143
 20
245.769
 30
0.000000
  70
    32
  0
VERTEX
  8
0
  5
281A
 10
278.136
 20
245.838
 30
0.000000
  70
    32
  0
VERTEX
  8
0
  5
281B
 10
278.129
 20
245.906
 30
0.000000
  70
    32
  0
VERTEX
  8
0
  5
281C
 10
278.122
 20
245.975
 30
0.000000
  70
    32
  0
VERTEX
  8
0
  5
281D
 10
278.114
 20
246.043
 30
0.000000
  70
    32
  0
VERTEX
  8
0
  5
281E
 10
278.107
 20
246.111
 30
0.000000
  70
    32
  0
VERTEX
  8
0
  5
281F
 10
278.100
 20
246.179
 30
0.000000
  70
    32
  0
VERTEX
  8
0
  5
2820
 10
278.093
 20
246.247
 30
0.000000
  70
    32
  0
VERTEX
  8
0
  5
2821
 10
278.085
 20
246.315
 30
0.000000
  70
    32
  0
VERTEX
  8
0
  5
2822
 10
278.078
 20
246.382
 30
0.000000
  70
    32
  0
VERTEX
  8
0
  5
2823
 10
278.071
 20
246.449
 30
0.000000
  70
    32
  0
VERTEX
  8
0
  5
2824
 10
278.064
 20
246.516
 30
0.000000
  70
    32
  0
VERTEX
  8
0
  5
2825
 10
278.056
 20
246.582
 30
0.000000
  70
    32
  0
VERTEX
  8
0
  5
2826
 10
278.049
 20
246.649
 30
0.000000
  70
    32
  0
VERTEX
  8
0
  5
2827
 10
278.042
 20
246.715
 30
0.000000
  70
    32
  0
VERTEX
  8
0
  5
2828
 10
278.035
 20
246.781
 30
0.000000
  70
    32
  0
VERTEX
  8
0
  5
2829
 10
278.027
 20
246.847
 30
0.000000
  70
    32
  0
VERTEX
  8
0
  5
282A
 10
278.020
 20
246.912
 30
0.000000
  70
    32
  0
VERTEX
  8
0
  5
282B
 10
278.013
 20
246.978
 30
0.000000
  70
    32
  0
VERTEX
  8
0
  5
282C
 10
278.006
 20
247.043
 30
0.000000
  70
    32
  0
VERTEX
  8
0
  5
282D
 10
277.998
 20
247.108
 30
0.000000
  70
    32
  0
VERTEX
  8
0
  5
282E
 10
277.991
 20
247.172
 30
0.000000
  70
    32
  0
VERTEX
  8
0
  5
282F
 10
277.984
 20
247.237
 30
0.000000
  70
    32
  0
VERTEX
  8
0
  5
2830
 10
277.976
 20
247.301
 30
0.000000
  70
    32
  0
VERTEX
  8
0
  5
2831
 10
277.969
 20
247.365
 30
0.000000
  70
    32
  0
VERTEX
  8
0
  5
2832
 10
277.962
 20
247.429
 30
0.000000
  70
    32
  0
VERTEX
  8
0
  5
2833
 10
277.955
 20
247.493
 30
0.000000
  70
    32
  0
VERTEX
  8
0
  5
2834
 10
277.947
 20
247.556
 30
0.000000
  70
    32
  0
VERTEX
  8
0
  5
2835
 10
277.940
 20
247.619
 30
0.000000
  70
    32
  0
VERTEX
  8
0
  5
2836
 10
277.933
 20
247.682
 30
0.000000
  70
    32
  0
VERTEX
  8
0
  5
2837
 10
277.925
 20
247.745
 30
0.000000
  70
    32
  0
VERTEX
  8
0
  5
2838
 10
277.918
 20
247.807
 30
0.000000
  70
    32
  0
VERTEX
  8
0
  5
2839
 10
277.911
 20
247.870
 30
0.000000
  70
    32
  0
VERTEX
  8
0
  5
283A
 10
277.904
 20
247.932
 30
0.000000
  70
    32
  0
VERTEX
  8
0
  5
283B
 10
277.896
 20
247.994
 30
0.000000
  70
    32
  0
VERTEX
  8
0
  5
283C
 10
277.889
 20
248.055
 30
0.000000
  70
    32
  0
VERTEX
  8
0
  5
283D
 10
277.882
 20
248.117
 30
0.000000
  70
    32
  0
VERTEX
  8
0
  5
283E
 10
277.874
 20
248.178
 30
0.000000
  70
    32
  0
VERTEX
  8
0
  5
283F
 10
277.867
 20
248.239
 30
0.000000
  70
    32
  0
VERTEX
  8
0
  5
2840
 10
277.860
 20
248.300
 30
0.000000
  70
    32
  0
VERTEX
  8
0
  5
2841
 10
277.852
 20
248.361
 30
0.000000
  70
    32
  0
VERTEX
  8
0
  5
2842
 10
277.845
 20
248.421
 30
0.000000
  70
    32
  0
VERTEX
  8
0
  5
2843
 10
277.838
 20
248.481
 30
0.000000
  70
    32
  0
VERTEX
  8
0
  5
2844
 10
277.830
 20
248.541
 30
0.000000
  70
    32
  0
VERTEX
  8
0
  5
2845
 10
277.823
 20
248.601
 30
0.000000
  70
    32
  0
VERTEX
  8
0
  5
2846
 10
277.816
 20
248.660
 30
0.000000
  70
    32
  0
VERTEX
  8
0
  5
2847
 10
277.808
 20
248.720
 30
0.000000
  70
    32
  0
VERTEX
  8
0
  5
2848
 10
277.801
 20
248.779
 30
0.000000
  70
    32
  0
VERTEX
  8
0
  5
2849
 10
277.794
 20
248.838
 30
0.000000
  70
    32
  0
VERTEX
  8
0
  5
284A
 10
277.786
 20
248.896
 30
0.000000
  70
    32
  0
VERTEX
  8
0
  5
284B
 10
277.779
 20
248.955
 30
0.000000
  70
    32
  0
VERTEX
  8
0
  5
284C
 10
277.772
 20
249.013
 30
0.000000
  70
    32
  0
VERTEX
  8
0
  5
284D
 10
277.764
 20
249.071
 30
0.000000
  70
    32
  0
VERTEX
  8
0
  5
284E
 10
277.757
 20
249.129
 30
0.000000
  70
    32
  0
VERTEX
  8
0
  5
284F
 10
277.750
 20
249.186
 30
0.000000
  70
    32
  0
VERTEX
  8
0
  5
2850
 10
277.742
 20
249.244
 30
0.000000
  70
    32
  0
VERTEX
  8
0
  5
2851
 10
277.735
 20
249.301
 30
0.000000
  70
    32
  0
VERTEX
  8
0
  5
2852
 10
277.728
 20
249.358
 30
0.000000
  70
    32
  0
VERTEX
  8
0
  5
2853
 10
277.720
 20
249.414
 30
0.000000
  70
    32
  0
VERTEX
  8
0
  5
2854
 10
277.713
 20
249.471
 30
0.000000
  70
    32
  0
VERTEX
  8
0
  5
2855
 10
277.706
 20
249.527
 30
0.000000
  70
    32
  0
VERTEX
  8
0
  5
2856
 10
277.698
 20
249.583
 30
0.000000
  70
    32
  0
VERTEX
  8
0
  5
2857
 10
277.691
 20
249.639
 30
0.000000
  70
    32
  0
VERTEX
  8
0
  5
2858
 10
277.683
 20
249.695
 30
0.000000
  70
    32
  0
VERTEX
  8
0
  5
2859
 10
277.676
 20
249.750
 30
0.000000
  70
    32
  0
SEQEND
  8
0
  5
285A
  0
POLYLINE
  5
2712
  8
0
 10
277.67611474914946
 20
249.7499999999547
 30
0.0
 66
     1
 70
     8
  0
VERTEX
  8
0
  5
285B
 10
277.676
 20
249.750
 30
0.000000
  70
    32
  0
VERTEX
  8
0
  5
285C
 10
277.675
 20
249.757
 30
0.000000
  70
    32
  0
VERTEX
  8
0
  5
285D
 10
277.674
 20
249.764
 30
0.000000
  70
    32
  0
VERTEX
  8
0
  5
285E
 10
277.673
 20
249.771
 30
0.000000
  70
    32
  0
VERTEX
  8
0
  5
285F
 10
277.672
 20
249.778
 30
0.000000
  70
    32
  0
VERTEX
  8
0
  5
2860
 10
277.671
 20
249.785
 30
0.000000
  70
    32
  0
VERTEX
  8
0
  5
2861
 10
277.670
 20
249.792
 30
0.000000
  70
    32
  0
VERTEX
  8
0
  5
2862
 10
277.669
 20
249.798
 30
0.000000
  70
    32
  0
VERTEX
  8
0
  5
2863
 10
277.668
 20
249.804
 30
0.000000
  70
    32
  0
VERTEX
  8
0
  5
2864
 10
277.667
 20
249.811
 30
0.000000
  70
    32
  0
VERTEX
  8
0
  5
2865
 10
277.666
 20
249.817
 30
0.000000
  70
    32
  0
VERTEX
  8
0
  5
2866
 10
277.664
 20
249.823
 30
0.000000
  70
    32
  0
VERTEX
  8
0
  5
2867
 10
277.663
 20
249.828
 30
0.000000
  70
    32
  0
VERTEX
  8
0
  5
2868
 10
277.662
 20
249.834
 30
0.000000
  70
    32
  0
VERTEX
  8
0
  5
2869
 10
277.661
 20
249.840
 30
0.000000
  70
    32
  0
VERTEX
  8
0
  5
286A
 10
277.660
 20
249.845
 30
0.000000
  70
    32
  0
VERTEX
  8
0
  5
286B
 10
277.659
 20
249.850
 30
0.000000
  70
    32
  0
VERTEX
  8
0
  5
286C
 10
277.658
 20
249.855
 30
0.000000
  70
    32
  0
VERTEX
  8
0
  5
286D
 10
277.657
 20
249.860
 30
0.000000
  70
    32
  0
VERTEX
  8
0
  5
286E
 10
277.656
 20
249.865
 30
0.000000
  70
    32
  0
VERTEX
  8
0
  5
286F
 10
277.655
 20
249.870
 30
0.000000
  70
    32
  0
VERTEX
  8
0
  5
2870
 10
277.654
 20
249.875
 30
0.000000
  70
    32
  0
VERTEX
  8
0
  5
2871
 10
277.653
 20
249.879
 30
0.000000
  70
    32
  0
VERTEX
  8
0
  5
2872
 10
277.652
 20
249.883
 30
0.000000
  70
    32
  0
VERTEX
  8
0
  5
2873
 10
277.651
 20
249.888
 30
0.000000
  70
    32
  0
VERTEX
  8
0
  5
2874
 10
277.649
 20
249.892
 30
0.000000
  70
    32
  0
VERTEX
  8
0
  5
2875
 10
277.648
 20
249.896
 30
0.000000
  70
    32
  0
VERTEX
  8
0
  5
2876
 10
277.647
 20
249.900
 30
0.000000
  70
    32
  0
VERTEX
  8
0
  5
2877
 10
277.646
 20
249.903
 30
0.000000
  70
    32
  0
VERTEX
  8
0
  5
2878
 10
277.645
 20
249.907
 30
0.000000
  70
    32
  0
VERTEX
  8
0
  5
2879
 10
277.644
 20
249.910
 30
0.000000
  70
    32
  0
VERTEX
  8
0
  5
287A
 10
277.643
 20
249.913
 30
0.000000
  70
    32
  0
VERTEX
  8
0
  5
287B
 10
277.642
 20
249.917
 30
0.000000
  70
    32
  0
VERTEX
  8
0
  5
287C
 10
277.641
 20
249.920
 30
0.000000
  70
    32
  0
VERTEX
  8
0
  5
287D
 10
277.640
 20
249.922
 30
0.000000
  70
    32
  0
VERTEX
  8
0
  5
287E
 10
277.639
 20
249.925
 30
0.000000
  70
    32
  0
VERTEX
  8
0
  5
287F
 10
277.638
 20
249.928
 30
0.000000
  70
    32
  0
VERTEX
  8
0
  5
2880
 10
277.637
 20
249.930
 30
0.000000
  70
    32
  0
VERTEX
  8
0
  5
2881
 10
277.635
 20
249.933
 30
0.000000
  70
    32
  0
VERTEX
  8
0
  5
2882
 10
277.634
 20
249.935
 30
0.000000
  70
    32
  0
VERTEX
  8
0
  5
2883
 10
277.633
 20
249.937
 30
0.000000
  70
    32
  0
VERTEX
  8
0
  5
2884
 10
277.632
 20
249.939
 30
0.000000
  70
    32
  0
VERTEX
  8
0
  5
2885
 10
277.631
 20
249.941
 30
0.000000
  70
    32
  0
VERTEX
  8
0
  5
2886
 10
277.630
 20
249.942
 30
0.000000
  70
    32
  0
VERTEX
  8
0
  5
2887
 10
277.629
 20
249.944
 30
0.000000
  70
    32
  0
VERTEX
  8
0
  5
2888
 10
277.628
 20
249.945
 30
0.000000
  70
    32
  0
VERTEX
  8
0
  5
2889
 10
277.627
 20
249.947
 30
0.000000
  70
    32
  0
VERTEX
  8
0
  5
288A
 10
277.626
 20
249.948
 30
0.000000
  70
    32
  0
VERTEX
  8
0
  5
288B
 10
277.625
 20
249.949
 30
0.000000
  70
    32
  0
VERTEX
  8
0
  5
288C
 10
277.624
 20
249.950
 30
0.000000
  70
    32
  0
VERTEX
  8
0
  5
288D
 10
277.622
 20
249.950
 30
0.000000
  70
    32
  0
VERTEX
  8
0
  5
288E
 10
277.621
 20
249.951
 30
0.000000
  70
    32
  0
VERTEX
  8
0
  5
288F
 10
277.620
 20
249.951
 30
0.000000
  70
    32
  0
VERTEX
  8
0
  5
2890
 10
277.619
 20
249.952
 30
0.000000
  70
    32
  0
VERTEX
  8
0
  5
2891
 10
277.618
 20
249.952
 30
0.000000
  70
    32
  0
VERTEX
  8
0
  5
2892
 10
277.617
 20
249.952
 30
0.000000
  70
    32
  0
VERTEX
  8
0
  5
2893
 10
277.616
 20
249.952
 30
0.000000
  70
    32
  0
VERTEX
  8
0
  5
2894
 10
277.615
 20
249.952
 30
0.000000
  70
    32
  0
VERTEX
  8
0
  5
2895
 10
277.614
 20
249.951
 30
0.000000
  70
    32
  0
VERTEX
  8
0
  5
2896
 10
277.613
 20
249.951
 30
0.000000
  70
    32
  0
VERTEX
  8
0
  5
2897
 10
277.612
 20
249.950
 30
0.000000
  70
    32
  0
VERTEX
  8
0
  5
2898
 10
277.610
 20
249.949
 30
0.000000
  70
    32
  0
VERTEX
  8
0
  5
2899
 10
277.609
 20
249.949
 30
0.000000
  70
    32
  0
VERTEX
  8
0
  5
289A
 10
277.608
 20
249.948
 30
0.000000
  70
    32
  0
VERTEX
  8
0
  5
289B
 10
277.607
 20
249.946
 30
0.000000
  70
    32
  0
VERTEX
  8
0
  5
289C
 10
277.606
 20
249.945
 30
0.000000
  70
    32
  0
VERTEX
  8
0
  5
289D
 10
277.605
 20
249.944
 30
0.000000
  70
    32
  0
VERTEX
  8
0
  5
289E
 10
277.604
 20
249.942
 30
0.000000
  70
    32
  0
VERTEX
  8
0
  5
289F
 10
277.603
 20
249.940
 30
0.000000
  70
    32
  0
VERTEX
  8
0
  5
28A0
 10
277.602
 20
249.939
 30
0.000000
  70
    32
  0
VERTEX
  8
0
  5
28A1
 10
277.601
 20
249.937
 30
0.000000
  70
    32
  0
VERTEX
  8
0
  5
28A2
 10
277.600
 20
249.935
 30
0.000000
  70
    32
  0
VERTEX
  8
0
  5
28A3
 10
277.599
 20
249.932
 30
0.000000
  70
    32
  0
VERTEX
  8
0
  5
28A4
 10
277.597
 20
249.930
 30
0.000000
  70
    32
  0
VERTEX
  8
0
  5
28A5
 10
277.596
 20
249.928
 30
0.000000
  70
    32
  0
VERTEX
  8
0
  5
28A6
 10
277.595
 20
249.925
 30
0.000000
  70
    32
  0
VERTEX
  8
0
  5
28A7
 10
277.594
 20
249.922
 30
0.000000
  70
    32
  0
VERTEX
  8
0
  5
28A8
 10
277.593
 20
249.919
 30
0.000000
  70
    32
  0
VERTEX
  8
0
  5
28A9
 10
277.592
 20
249.916
 30
0.000000
  70
    32
  0
VERTEX
  8
0
  5
28AA
 10
277.591
 20
249.913
 30
0.000000
  70
    32
  0
VERTEX
  8
0
  5
28AB
 10
277.590
 20
249.910
 30
0.000000
  70
    32
  0
VERTEX
  8
0
  5
28AC
 10
277.589
 20
249.906
 30
0.000000
  70
    32
  0
VERTEX
  8
0
  5
28AD
 10
277.588
 20
249.903
 30
0.000000
  70
    32
  0
VERTEX
  8
0
  5
28AE
 10
277.587
 20
249.899
 30
0.000000
  70
    32
  0
VERTEX
  8
0
  5
28AF
 10
277.586
 20
249.895
 30
0.000000
  70
    32
  0
VERTEX
  8
0
  5
28B0
 10
277.585
 20
249.891
 30
0.000000
  70
    32
  0
VERTEX
  8
0
  5
28B1
 10
277.583
 20
249.887
 30
0.000000
  70
    32
  0
VERTEX
  8
0
  5
28B2
 10
277.582
 20
249.883
 30
0.000000
  70
    32
  0
VERTEX
  8
0
  5
28B3
 10
277.581
 20
249.879
 30
0.000000
  70
    32
  0
VERTEX
  8
0
  5
28B4
 10
277.580
 20
249.874
 30
0.000000
  70
    32
  0
VERTEX
  8
0
  5
28B5
 10
277.579
 20
249.870
 30
0.000000
  70
    32
  0
VERTEX
  8
0
  5
28B6
 10
277.578
 20
249.865
 30
0.000000
  70
    32
  0
VERTEX
  8
0
  5
28B7
 10
277.577
 20
249.860
 30
0.000000
  70
    32
  0
VERTEX
  8
0
  5
28B8
 10
277.576
 20
249.855
 30
0.000000
  70
    32
  0
VERTEX
  8
0
  5
28B9
 10
277.575
 20
249.850
 30
0.000000
  70
    32
  0
VERTEX
  8
0
  5
28BA
 10
277.574
 20
249.844
 30
0.000000
  70
    32
  0
VERTEX
  8
0
  5
28BB
 10
277.573
 20
249.839
 30
0.000000
  70
    32
  0
VERTEX
  8
0
  5
28BC
 10
277.572
 20
249.833
 30
0.000000
  70
    32
  0
VERTEX
  8
0
  5
28BD
 10
277.571
 20
249.828
 30
0.000000
  70
    32
  0
VERTEX
  8
0
  5
28BE
 10
277.570
 20
249.822
 30
0.000000
  70
    32
  0
VERTEX
  8
0
  5
28BF
 10
277.568
 20
249.816
 30
0.000000
  70
    32
  0
VERTEX
  8
0
  5
28C0
 10
277.567
 20
249.810
 30
0.000000
  70
    32
  0
VERTEX
  8
0
  5
28C1
 10
277.566
 20
249.804
 30
0.000000
  70
    32
  0
VERTEX
  8
0
  5
28C2
 10
277.565
 20
249.797
 30
0.000000
  70
    32
  0
VERTEX
  8
0
  5
28C3
 10
277.564
 20
249.791
 30
0.000000
  70
    32
  0
VERTEX
  8
0
  5
28C4
 10
277.563
 20
249.784
 30
0.000000
  70
    32
  0
VERTEX
  8
0
  5
28C5
 10
277.562
 20
249.778
 30
0.000000
  70
    32
  0
VERTEX
  8
0
  5
28C6
 10
277.561
 20
249.771
 30
0.000000
  70
    32
  0
VERTEX
  8
0
  5
28C7
 10
277.560
 20
249.764
 30
0.000000
  70
    32
  0
VERTEX
  8
0
  5
28C8
 10
277.559
 20
249.757
 30
0.000000
  70
    32
  0
VERTEX
  8
0
  5
28C9
 10
277.558
 20
249.749
 30
0.000000
  70
    32
  0
VERTEX
  8
0
  5
28CA
 10
277.557
 20
249.742
 30
0.000000
  70
    32
  0
VERTEX
  8
0
  5
28CB
 10
277.556
 20
249.734
 30
0.000000
  70
    32
  0
VERTEX
  8
0
  5
28CC
 10
277.555
 20
249.727
 30
0.000000
  70
    32
  0
VERTEX
  8
0
  5
28CD
 10
277.554
 20
249.719
 30
0.000000
  70
    32
  0
VERTEX
  8
0
  5
28CE
 10
277.553
 20
249.711
 30
0.000000
  70
    32
  0
VERTEX
  8
0
  5
28CF
 10
277.552
 20
249.703
 30
0.000000
  70
    32
  0
VERTEX
  8
0
  5
28D0
 10
277.551
 20
249.695
 30
0.000000
  70
    32
  0
VERTEX
  8
0
  5
28D1
 10
277.549
 20
249.686
 30
0.000000
  70
    32
  0
VERTEX
  8
0
  5
28D2
 10
277.548
 20
249.678
 30
0.000000
  70
    32
  0
VERTEX
  8
0
  5
28D3
 10
277.547
 20
249.669
 30
0.000000
  70
    32
  0
VERTEX
  8
0
  5
28D4
 10
277.546
 20
249.661
 30
0.000000
  70
    32
  0
VERTEX
  8
0
  5
28D5
 10
277.545
 20
249.652
 30
0.000000
  70
    32
  0
VERTEX
  8
0
  5
28D6
 10
277.544
 20
249.643
 30
0.000000
  70
    32
  0
VERTEX
  8
0
  5
28D7
 10
277.543
 20
249.634
 30
0.000000
  70
    32
  0
VERTEX
  8
0
  5
28D8
 10
277.542
 20
249.625
 30
0.000000
  70
    32
  0
VERTEX
  8
0
  5
28D9
 10
277.541
 20
249.615
 30
0.000000
  70
    32
  0
VERTEX
  8
0
  5
28DA
 10
277.540
 20
249.606
 30
0.000000
  70
    32
  0
VERTEX
  8
0
  5
28DB
 10
277.539
 20
249.596
 30
0.000000
  70
    32
  0
SEQEND
  8
0
  5
28DC
  0
POLYLINE
  5
2713
  8
0
 10
277.24754158216996
 20
249.70010460296967
 30
0.0
 66
     1
 70
     8
  0
VERTEX
  8
0
  5
28DD
 10
277.248
 20
249.700
 30
0.000000
  70
    32
  0
VERTEX
  8
0
  5
28DE
 10
277.250
 20
249.678
 30
0.000000
  70
    32
  0
VERTEX
  8
0
  5
28DF
 10
277.252
 20
249.656
 30
0.000000
  70
    32
  0
VERTEX
  8
0
  5
28E0
 10
277.254
 20
249.634
 30
0.000000
  70
    32
  0
VERTEX
  8
0
  5
28E1
 10
277.256
 20
249.613
 30
0.000000
  70
    32
  0
VERTEX
  8
0
  5
28E2
 10
277.259
 20
249.592
 30
0.000000
  70
    32
  0
VERTEX
  8
0
  5
28E3
 10
277.261
 20
249.572
 30
0.000000
  70
    32
  0
VERTEX
  8
0
  5
28E4
 10
277.263
 20
249.551
 30
0.000000
  70
    32
  0
VERTEX
  8
0
  5
28E5
 10
277.265
 20
249.532
 30
0.000000
  70
    32
  0
VERTEX
  8
0
  5
28E6
 10
277.267
 20
249.512
 30
0.000000
  70
    32
  0
VERTEX
  8
0
  5
28E7
 10
277.270
 20
249.493
 30
0.000000
  70
    32
  0
VERTEX
  8
0
  5
28E8
 10
277.272
 20
249.474
 30
0.000000
  70
    32
  0
VERTEX
  8
0
  5
28E9
 10
277.274
 20
249.455
 30
0.000000
  70
    32
  0
VERTEX
  8
0
  5
28EA
 10
277.276
 20
249.437
 30
0.000000
  70
    32
  0
VERTEX
  8
0
  5
28EB
 10
277.278
 20
249.419
 30
0.000000
  70
    32
  0
VERTEX
  8
0
  5
28EC
 10
277.281
 20
249.401
 30
0.000000
  70
    32
  0
VERTEX
  8
0
  5
28ED
 10
277.283
 20
249.384
 30
0.000000
  70
    32
  0
VERTEX
  8
0
  5
28EE
 10
277.285
 20
249.367
 30
0.000000
  70
    32
  0
VERTEX
  8
0
  5
28EF
 10
277.287
 20
249.350
 30
0.000000
  70
    32
  0
VERTEX
  8
0
  5
28F0
 10
277.290
 20
249.334
 30
0.000000
  70
    32
  0
VERTEX
  8
0
  5
28F1
 10
277.292
 20
249.318
 30
0.000000
  70
    32
  0
VERTEX
  8
0
  5
28F2
 10
277.294
 20
249.303
 30
0.000000
  70
    32
  0
VERTEX
  8
0
  5
28F3
 10
277.296
 20
249.287
 30
0.000000
  70
    32
  0
VERTEX
  8
0
  5
28F4
 10
277.299
 20
249.272
 30
0.000000
  70
    32
  0
VERTEX
  8
0
  5
28F5
 10
277.301
 20
249.258
 30
0.000000
  70
    32
  0
VERTEX
  8
0
  5
28F6
 10
277.303
 20
249.243
 30
0.000000
  70
    32
  0
VERTEX
  8
0
  5
28F7
 10
277.306
 20
249.229
 30
0.000000
  70
    32
  0
VERTEX
  8
0
  5
28F8
 10
277.308
 20
249.216
 30
0.000000
  70
    32
  0
VERTEX
  8
0
  5
28F9
 10
277.310
 20
249.203
 30
0.000000
  70
    32
  0
VERTEX
  8
0
  5
28FA
 10
277.312
 20
249.190
 30
0.000000
  70
    32
  0
VERTEX
  8
0
  5
28FB
 10
277.315
 20
249.177
 30
0.000000
  70
    32
  0
VERTEX
  8
0
  5
28FC
 10
277.317
 20
249.165
 30
0.000000
  70
    32
  0
VERTEX
  8
0
  5
28FD
 10
277.319
 20
249.153
 30
0.000000
  70
    32
  0
VERTEX
  8
0
  5
28FE
 10
277.321
 20
249.141
 30
0.000000
  70
    32
  0
VERTEX
  8
0
  5
28FF
 10
277.324
 20
249.130
 30
0.000000
  70
    32
  0
VERTEX
  8
0
  5
2900
 10
277.326
 20
249.119
 30
0.000000
  70
    32
  0
VERTEX
  8
0
  5
2901
 10
277.328
 20
249.108
 30
0.000000
  70
    32
  0
VERTEX
  8
0
  5
2902
 10
277.331
 20
249.098
 30
0.000000
  70
    32
  0
VERTEX
  8
0
  5
2903
 10
277.333
 20
249.088
 30
0.000000
  70
    32
  0
VERTEX
  8
0
  5
2904
 10
277.335
 20
249.079
 30
0.000000
  70
    32
  0
VERTEX
  8
0
  5
2905
 10
277.338
 20
249.070
 30
0.000000
  70
    32
  0
VERTEX
  8
0
  5
2906
 10
277.340
 20
249.061
 30
0.000000
  70
    32
  0
VERTEX
  8
0
  5
2907
 10
277.342
 20
249.052
 30
0.000000
  70
    32
  0
VERTEX
  8
0
  5
2908
 10
277.344
 20
249.044
 30
0.000000
  70
    32
  0
VERTEX
  8
0
  5
2909
 10
277.347
 20
249.036
 30
0.000000
  70
    32
  0
VERTEX
  8
0
  5
290A
 10
277.349
 20
249.029
 30
0.000000
  70
    32
  0
VERTEX
  8
0
  5
290B
 10
277.351
 20
249.021
 30
0.000000
  70
    32
  0
VERTEX
  8
0
  5
290C
 10
277.354
 20
249.015
 30
0.000000
  70
    32
  0
VERTEX
  8
0
  5
290D
 10
277.356
 20
249.008
 30
0.000000
  70
    32
  0
VERTEX
  8
0
  5
290E
 10
277.358
 20
249.002
 30
0.000000
  70
    32
  0
VERTEX
  8
0
  5
290F
 10
277.361
 20
248.996
 30
0.000000
  70
    32
  0
VERTEX
  8
0
  5
2910
 10
277.363
 20
248.991
 30
0.000000
  70
    32
  0
VERTEX
  8
0
  5
2911
 10
277.365
 20
248.986
 30
0.000000
  70
    32
  0
VERTEX
  8
0
  5
2912
 10
277.368
 20
248.981
 30
0.000000
  70
    32
  0
VERTEX
  8
0
  5
2913
 10
277.370
 20
248.976
 30
0.000000
  70
    32
  0
VERTEX
  8
0
  5
2914
 10
277.372
 20
248.972
 30
0.000000
  70
    32
  0
VERTEX
  8
0
  5
2915
 10
277.374
 20
248.969
 30
0.000000
  70
    32
  0
VERTEX
  8
0
  5
2916
 10
277.377
 20
248.965
 30
0.000000
  70
    32
  0
VERTEX
  8
0
  5
2917
 10
277.379
 20
248.962
 30
0.000000
  70
    32
  0
VERTEX
  8
0
  5
2918
 10
277.381
 20
248.959
 30
0.000000
  70
    32
  0
VERTEX
  8
0
  5
2919
 10
277.384
 20
248.957
 30
0.000000
  70
    32
  0
VERTEX
  8
0
  5
291A
 10
277.386
 20
248.955
 30
0.000000
  70
    32
  0
VERTEX
  8
0
  5
291B
 10
277.388
 20
248.953
 30
0.000000
  70
    32
  0
VERTEX
  8
0
  5
291C
 10
277.391
 20
248.952
 30
0.000000
  70
    32
  0
VERTEX
  8
0
  5
291D
 10
277.393
 20
248.951
 30
0.000000
  70
    32
  0
VERTEX
  8
0
  5
291E
 10
277.395
 20
248.950
 30
0.000000
  70
    32
  0
VERTEX
  8
0
  5
291F
 10
277.398
 20
248.950
 30
0.000000
  70
    32
  0
VERTEX
  8
0
  5
2920
 10
277.400
 20
248.950
 30
0.000000
  70
    32
  0
VERTEX
  8
0
  5
2921
 10
277.402
 20
248.950
 30
0.000000
  70
    32
  0
VERTEX
  8
0
  5
2922
 10
277.405
 20
248.951
 30
0.000000
  70
    32
  0
VERTEX
  8
0
  5
2923
 10
277.407
 20
248.952
 30
0.000000
  70
    32
  0
VERTEX
  8
0
  5
2924
 10
277.409
 20
248.954
 30
0.000000
  70
    32
  0
VERTEX
  8
0
  5
2925
 10
277.412
 20
248.955
 30
0.000000
  70
    32
  0
VERTEX
  8
0
  5
2926
 10
277.414
 20
248.957
 30
0.000000
  70
    32
  0
VERTEX
  8
0
  5
2927
 10
277.416
 20
248.960
 30
0.000000
  70
    32
  0
VERTEX
  8
0
  5
2928
 10
277.419
 20
248.963
 30
0.000000
  70
    32
  0
VERTEX
  8
0
  5
2929
 10
277.421
 20
248.966
 30
0.000000
  70
    32
  0
VERTEX
  8
0
  5
292A
 10
277.423
 20
248.969
 30
0.000000
  70
    32
  0
VERTEX
  8
0
  5
292B
 10
277.425
 20
248.973
 30
0.000000
  70
    32
  0
VERTEX
  8
0
  5
292C
 10
277.428
 20
248.977
 30
0.000000
  70
    32
  0
VERTEX
  8
0
  5
292D
 10
277.430
 20
248.982
 30
0.000000
  70
    32
  0
VERTEX
  8
0
  5
292E
 10
277.432
 20
248.987
 30
0.000000
  70
    32
  0
VERTEX
  8
0
  5
292F
 10
277.435
 20
248.992
 30
0.000000
  70
    32
  0
VERTEX
  8
0
  5
2930
 10
277.437
 20
248.997
 30
0.000000
  70
    32
  0
VERTEX
  8
0
  5
2931
 10
277.439
 20
249.003
 30
0.000000
  70
    32
  0
VERTEX
  8
0
  5
2932
 10
277.442
 20
249.009
 30
0.000000
  70
    32
  0
VERTEX
  8
0
  5
2933
 10
277.444
 20
249.016
 30
0.000000
  70
    32
  0
VERTEX
  8
0
  5
2934
 10
277.446
 20
249.023
 30
0.000000
  70
    32
  0
VERTEX
  8
0
  5
2935
 10
277.449
 20
249.030
 30
0.000000
  70
    32
  0
VERTEX
  8
0
  5
2936
 10
277.451
 20
249.038
 30
0.000000
  70
    32
  0
VERTEX
  8
0
  5
2937
 10
277.453
 20
249.046
 30
0.000000
  70
    32
  0
VERTEX
  8
0
  5
2938
 10
277.456
 20
249.054
 30
0.000000
  70
    32
  0
VERTEX
  8
0
  5
2939
 10
277.458
 20
249.062
 30
0.000000
  70
    32
  0
VERTEX
  8
0
  5
293A
 10
277.460
 20
249.071
 30
0.000000
  70
    32
  0
VERTEX
  8
0
  5
293B
 10
277.462
 20
249.081
 30
0.000000
  70
    32
  0
VERTEX
  8
0
  5
293C
 10
277.465
 20
249.090
 30
0.000000
  70
    32
  0
VERTEX
  8
0
  5
293D
 10
277.467
 20
249.100
 30
0.000000
  70
    32
  0
VERTEX
  8
0
  5
293E
 10
277.469
 20
249.111
 30
0.000000
  70
    32
  0
VERTEX
  8
0
  5
293F
 10
277.472
 20
249.121
 30
0.000000
  70
    32
  0
VERTEX
  8
0
  5
2940
 10
277.474
 20
249.132
 30
0.000000
  70
    32
  0
VERTEX
  8
0
  5
2941
 10
277.476
 20
249.143
 30
0.000000
  70
    32
  0
VERTEX
  8
0
  5
2942
 10
277.478
 20
249.155
 30
0.000000
  70
    32
  0
VERTEX
  8
0
  5
2943
 10
277.481
 20
249.167
 30
0.000000
  70
    32
  0
VERTEX
  8
0
  5
2944
 10
277.483
 20
249.179
 30
0.000000
  70
    32
  0
VERTEX
  8
0
  5
2945
 10
277.485
 20
249.192
 30
0.000000
  70
    32
  0
VERTEX
  8
0
  5
2946
 10
277.488
 20
249.205
 30
0.000000
  70
    32
  0
VERTEX
  8
0
  5
2947
 10
277.490
 20
249.218
 30
0.000000
  70
    32
  0
VERTEX
  8
0
  5
2948
 10
277.492
 20
249.232
 30
0.000000
  70
    32
  0
VERTEX
  8
0
  5
2949
 10
277.494
 20
249.246
 30
0.000000
  70
    32
  0
VERTEX
  8
0
  5
294A
 10
277.497
 20
249.261
 30
0.000000
  70
    32
  0
VERTEX
  8
0
  5
294B
 10
277.499
 20
249.275
 30
0.000000
  70
    32
  0
VERTEX
  8
0
  5
294C
 10
277.501
 20
249.290
 30
0.000000
  70
    32
  0
VERTEX
  8
0
  5
294D
 10
277.503
 20
249.306
 30
0.000000
  70
    32
  0
VERTEX
  8
0
  5
294E
 10
277.506
 20
249.321
 30
0.000000
  70
    32
  0
VERTEX
  8
0
  5
294F
 10
277.508
 20
249.337
 30
0.000000
  70
    32
  0
VERTEX
  8
0
  5
2950
 10
277.510
 20
249.354
 30
0.000000
  70
    32
  0
VERTEX
  8
0
  5
2951
 10
277.512
 20
249.370
 30
0.000000
  70
    32
  0
VERTEX
  8
0
  5
2952
 10
277.515
 20
249.387
 30
0.000000
  70
    32
  0
VERTEX
  8
0
  5
2953
 10
277.517
 20
249.405
 30
0.000000
  70
    32
  0
VERTEX
  8
0
  5
2954
 10
277.519
 20
249.422
 30
0.000000
  70
    32
  0
VERTEX
  8
0
  5
2955
 10
277.521
 20
249.440
 30
0.000000
  70
    32
  0
VERTEX
  8
0
  5
2956
 10
277.524
 20
249.459
 30
0.000000
  70
    32
  0
VERTEX
  8
0
  5
2957
 10
277.526
 20
249.477
 30
0.000000
  70
    32
  0
VERTEX
  8
0
  5
2958
 10
277.528
 20
249.496
 30
0.000000
  70
    32
  0
VERTEX
  8
0
  5
2959
 10
277.530
 20
249.516
 30
0.000000
  70
    32
  0
VERTEX
  8
0
  5
295A
 10
277.532
 20
249.535
 30
0.000000
  70
    32
  0
VERTEX
  8
0
  5
295B
 10
277.535
 20
249.555
 30
0.000000
  70
    32
  0
VERTEX
  8
0
  5
295C
 10
277.537
 20
249.576
 30
0.000000
  70
    32
  0
VERTEX
  8
0
  5
295D
 10
277.539
 20
249.596
 30
0.000000
  70
    32
  0
SEQEND
  8
0
  5
295E
  0
LINE
  5
2714
  8
0
 10
277.2475415821001
 20
249.7001046029001
 30
0.0
 11
277.10000000000002
 21
251.2000149438272
 31
0.0
  0
LINE
  5
2715
  8
0
 10
278.60000000000002
 20
257.10534905053709
 30
0.0
 11
278.60000000000002
 21
240.9135932036221
 31
0.0
  0
POLYLINE
  5
2716
  8
0
 10
278.60000000000008
 20
257.10534905053697
 30
0.0
 66
     1
 70
     8
  0
VERTEX
  8
0
  5
295F
 10
278.600
 20
257.105
 30
0.000000
  70
    32
  0
VERTEX
  8
0
  5
2960
 10
278.588
 20
257.188
 30
0.000000
  70
    32
  0
VERTEX
  8
0
  5
2961
 10
278.577
 20
257.271
 30
0.000000
  70
    32
  0
VERTEX
  8
0
  5
2962
 10
278.565
 20
257.353
 30
0.000000
  70
    32
  0
VERTEX
  8
0
  5
2963
 10
278.554
 20
257.435
 30
0.000000
  70
    32
  0
VERTEX
  8
0
  5
2964
 10
278.542
 20
257.516
 30
0.000000
  70
    32
  0
VERTEX
  8
0
  5
2965
 10
278.531
 20
257.597
 30
0.000000
  70
    32
  0
VERTEX
  8
0
  5
2966
 10
278.519
 20
257.678
 30
0.000000
  70
    32
  0
VERTEX
  8
0
  5
2967
 10
278.508
 20
257.758
 30
0.000000
  70
    32
  0
VERTEX
  8
0
  5
2968
 10
278.496
 20
257.838
 30
0.000000
  70
    32
  0
VERTEX
  8
0
  5
2969
 10
278.484
 20
257.917
 30
0.000000
  70
    32
  0
VERTEX
  8
0
  5
296A
 10
278.473
 20
257.996
 30
0.000000
  70
    32
  0
VERTEX
  8
0
  5
296B
 10
278.461
 20
258.074
 30
0.000000
  70
    32
  0
VERTEX
  8
0
  5
296C
 10
278.450
 20
258.152
 30
0.000000
  70
    32
  0
VERTEX
  8
0
  5
296D
 10
278.438
 20
258.230
 30
0.000000
  70
    32
  0
VERTEX
  8
0
  5
296E
 10
278.427
 20
258.307
 30
0.000000
  70
    32
  0
VERTEX
  8
0
  5
296F
 10
278.415
 20
258.384
 30
0.000000
  70
    32
  0
VERTEX
  8
0
  5
2970
 10
278.403
 20
258.461
 30
0.000000
  70
    32
  0
VERTEX
  8
0
  5
2971
 10
278.392
 20
258.537
 30
0.000000
  70
    32
  0
VERTEX
  8
0
  5
2972
 10
278.380
 20
258.612
 30
0.000000
  70
    32
  0
VERTEX
  8
0
  5
2973
 10
278.369
 20
258.687
 30
0.000000
  70
    32
  0
VERTEX
  8
0
  5
2974
 10
278.357
 20
258.762
 30
0.000000
  70
    32
  0
VERTEX
  8
0
  5
2975
 10
278.345
 20
258.836
 30
0.000000
  70
    32
  0
VERTEX
  8
0
  5
2976
 10
278.334
 20
258.910
 30
0.000000
  70
    32
  0
VERTEX
  8
0
  5
2977
 10
278.322
 20
258.984
 30
0.000000
  70
    32
  0
VERTEX
  8
0
  5
2978
 10
278.311
 20
259.057
 30
0.000000
  70
    32
  0
VERTEX
  8
0
  5
2979
 10
278.299
 20
259.130
 30
0.000000
  70
    32
  0
VERTEX
  8
0
  5
297A
 10
278.287
 20
259.202
 30
0.000000
  70
    32
  0
VERTEX
  8
0
  5
297B
 10
278.276
 20
259.274
 30
0.000000
  70
    32
  0
VERTEX
  8
0
  5
297C
 10
278.264
 20
259.345
 30
0.000000
  70
    32
  0
VERTEX
  8
0
  5
297D
 10
278.252
 20
259.416
 30
0.000000
  70
    32
  0
VERTEX
  8
0
  5
297E
 10
278.241
 20
259.487
 30
0.000000
  70
    32
  0
VERTEX
  8
0
  5
297F
 10
278.229
 20
259.557
 30
0.000000
  70
    32
  0
VERTEX
  8
0
  5
2980
 10
278.217
 20
259.627
 30
0.000000
  70
    32
  0
VERTEX
  8
0
  5
2981
 10
278.206
 20
259.696
 30
0.000000
  70
    32
  0
VERTEX
  8
0
  5
2982
 10
278.194
 20
259.765
 30
0.000000
  70
    32
  0
VERTEX
  8
0
  5
2983
 10
278.183
 20
259.833
 30
0.000000
  70
    32
  0
VERTEX
  8
0
  5
2984
 10
278.171
 20
259.901
 30
0.000000
  70
    32
  0
VERTEX
  8
0
  5
2985
 10
278.159
 20
259.969
 30
0.000000
  70
    32
  0
VERTEX
  8
0
  5
2986
 10
278.148
 20
260.036
 30
0.000000
  70
    32
  0
VERTEX
  8
0
  5
2987
 10
278.136
 20
260.103
 30
0.000000
  70
    32
  0
VERTEX
  8
0
  5
2988
 10
278.124
 20
260.170
 30
0.000000
  70
    32
  0
VERTEX
  8
0
  5
2989
 10
278.113
 20
260.236
 30
0.000000
  70
    32
  0
VERTEX
  8
0
  5
298A
 10
278.101
 20
260.301
 30
0.000000
  70
    32
  0
VERTEX
  8
0
  5
298B
 10
278.089
 20
260.366
 30
0.000000
  70
    32
  0
VERTEX
  8
0
  5
298C
 10
278.078
 20
260.431
 30
0.000000
  70
    32
  0
VERTEX
  8
0
  5
298D
 10
278.066
 20
260.496
 30
0.000000
  70
    32
  0
VERTEX
  8
0
  5
298E
 10
278.054
 20
260.559
 30
0.000000
  70
    32
  0
VERTEX
  8
0
  5
298F
 10
278.042
 20
260.623
 30
0.000000
  70
    32
  0
VERTEX
  8
0
  5
2990
 10
278.031
 20
260.686
 30
0.000000
  70
    32
  0
VERTEX
  8
0
  5
2991
 10
278.019
 20
260.749
 30
0.000000
  70
    32
  0
VERTEX
  8
0
  5
2992
 10
278.007
 20
260.811
 30
0.000000
  70
    32
  0
VERTEX
  8
0
  5
2993
 10
277.996
 20
260.873
 30
0.000000
  70
    32
  0
VERTEX
  8
0
  5
2994
 10
277.984
 20
260.934
 30
0.000000
  70
    32
  0
VERTEX
  8
0
  5
2995
 10
277.972
 20
260.995
 30
0.000000
  70
    32
  0
VERTEX
  8
0
  5
2996
 10
277.961
 20
261.056
 30
0.000000
  70
    32
  0
VERTEX
  8
0
  5
2997
 10
277.949
 20
261.116
 30
0.000000
  70
    32
  0
VERTEX
  8
0
  5
2998
 10
277.937
 20
261.176
 30
0.000000
  70
    32
  0
VERTEX
  8
0
  5
2999
 10
277.925
 20
261.235
 30
0.000000
  70
    32
  0
VERTEX
  8
0
  5
299A
 10
277.914
 20
261.294
 30
0.000000
  70
    32
  0
VERTEX
  8
0
  5
299B
 10
277.902
 20
261.352
 30
0.000000
  70
    32
  0
VERTEX
  8
0
  5
299C
 10
277.890
 20
261.411
 30
0.000000
  70
    32
  0
VERTEX
  8
0
  5
299D
 10
277.879
 20
261.468
 30
0.000000
  70
    32
  0
VERTEX
  8
0
  5
299E
 10
277.867
 20
261.525
 30
0.000000
  70
    32
  0
VERTEX
  8
0
  5
299F
 10
277.855
 20
261.582
 30
0.000000
  70
    32
  0
VERTEX
  8
0
  5
29A0
 10
277.843
 20
261.639
 30
0.000000
  70
    32
  0
VERTEX
  8
0
  5
29A1
 10
277.832
 20
261.695
 30
0.000000
  70
    32
  0
VERTEX
  8
0
  5
29A2
 10
277.820
 20
261.750
 30
0.000000
  70
    32
  0
VERTEX
  8
0
  5
29A3
 10
277.808
 20
261.805
 30
0.000000
  70
    32
  0
VERTEX
  8
0
  5
29A4
 10
277.796
 20
261.860
 30
0.000000
  70
    32
  0
VERTEX
  8
0
  5
29A5
 10
277.785
 20
261.914
 30
0.000000
  70
    32
  0
VERTEX
  8
0
  5
29A6
 10
277.773
 20
261.968
 30
0.000000
  70
    32
  0
VERTEX
  8
0
  5
29A7
 10
277.761
 20
262.022
 30
0.000000
  70
    32
  0
VERTEX
  8
0
  5
29A8
 10
277.749
 20
262.075
 30
0.000000
  70
    32
  0
VERTEX
  8
0
  5
29A9
 10
277.738
 20
262.127
 30
0.000000
  70
    32
  0
VERTEX
  8
0
  5
29AA
 10
277.726
 20
262.179
 30
0.000000
  70
    32
  0
VERTEX
  8
0
  5
29AB
 10
277.714
 20
262.231
 30
0.000000
  70
    32
  0
VERTEX
  8
0
  5
29AC
 10
277.702
 20
262.282
 30
0.000000
  70
    32
  0
VERTEX
  8
0
  5
29AD
 10
277.691
 20
262.333
 30
0.000000
  70
    32
  0
VERTEX
  8
0
  5
29AE
 10
277.679
 20
262.384
 30
0.000000
  70
    32
  0
VERTEX
  8
0
  5
29AF
 10
277.667
 20
262.434
 30
0.000000
  70
    32
  0
VERTEX
  8
0
  5
29B0
 10
277.655
 20
262.484
 30
0.000000
  70
    32
  0
VERTEX
  8
0
  5
29B1
 10
277.644
 20
262.533
 30
0.000000
  70
    32
  0
VERTEX
  8
0
  5
29B2
 10
277.632
 20
262.582
 30
0.000000
  70
    32
  0
VERTEX
  8
0
  5
29B3
 10
277.620
 20
262.630
 30
0.000000
  70
    32
  0
VERTEX
  8
0
  5
29B4
 10
277.608
 20
262.678
 30
0.000000
  70
    32
  0
VERTEX
  8
0
  5
29B5
 10
277.596
 20
262.726
 30
0.000000
  70
    32
  0
VERTEX
  8
0
  5
29B6
 10
277.585
 20
262.773
 30
0.000000
  70
    32
  0
VERTEX
  8
0
  5
29B7
 10
277.573
 20
262.820
 30
0.000000
  70
    32
  0
VERTEX
  8
0
  5
29B8
 10
277.561
 20
262.866
 30
0.000000
  70
    32
  0
VERTEX
  8
0
  5
29B9
 10
277.549
 20
262.912
 30
0.000000
  70
    32
  0
VERTEX
  8
0
  5
29BA
 10
277.538
 20
262.957
 30
0.000000
  70
    32
  0
VERTEX
  8
0
  5
29BB
 10
277.526
 20
263.002
 30
0.000000
  70
    32
  0
VERTEX
  8
0
  5
29BC
 10
277.514
 20
263.047
 30
0.000000
  70
    32
  0
VERTEX
  8
0
  5
29BD
 10
277.502
 20
263.091
 30
0.000000
  70
    32
  0
VERTEX
  8
0
  5
29BE
 10
277.490
 20
263.135
 30
0.000000
  70
    32
  0
VERTEX
  8
0
  5
29BF
 10
277.479
 20
263.178
 30
0.000000
  70
    32
  0
VERTEX
  8
0
  5
29C0
 10
277.467
 20
263.221
 30
0.000000
  70
    32
  0
VERTEX
  8
0
  5
29C1
 10
277.455
 20
263.264
 30
0.000000
  70
    32
  0
VERTEX
  8
0
  5
29C2
 10
277.443
 20
263.306
 30
0.000000
  70
    32
  0
VERTEX
  8
0
  5
29C3
 10
277.431
 20
263.347
 30
0.000000
  70
    32
  0
VERTEX
  8
0
  5
29C4
 10
277.419
 20
263.389
 30
0.000000
  70
    32
  0
VERTEX
  8
0
  5
29C5
 10
277.408
 20
263.429
 30
0.000000
  70
    32
  0
VERTEX
  8
0
  5
29C6
 10
277.396
 20
263.470
 30
0.000000
  70
    32
  0
VERTEX
  8
0
  5
29C7
 10
277.384
 20
263.510
 30
0.000000
  70
    32
  0
VERTEX
  8
0
  5
29C8
 10
277.372
 20
263.549
 30
0.000000
  70
    32
  0
VERTEX
  8
0
  5
29C9
 10
277.360
 20
263.588
 30
0.000000
  70
    32
  0
VERTEX
  8
0
  5
29CA
 10
277.349
 20
263.627
 30
0.000000
  70
    32
  0
VERTEX
  8
0
  5
29CB
 10
277.337
 20
263.665
 30
0.000000
  70
    32
  0
VERTEX
  8
0
  5
29CC
 10
277.325
 20
263.703
 30
0.000000
  70
    32
  0
VERTEX
  8
0
  5
29CD
 10
277.313
 20
263.741
 30
0.000000
  70
    32
  0
VERTEX
  8
0
  5
29CE
 10
277.301
 20
263.778
 30
0.000000
  70
    32
  0
VERTEX
  8
0
  5
29CF
 10
277.289
 20
263.814
 30
0.000000
  70
    32
  0
VERTEX
  8
0
  5
29D0
 10
277.278
 20
263.850
 30
0.000000
  70
    32
  0
VERTEX
  8
0
  5
29D1
 10
277.266
 20
263.886
 30
0.000000
  70
    32
  0
VERTEX
  8
0
  5
29D2
 10
277.254
 20
263.921
 30
0.000000
  70
    32
  0
VERTEX
  8
0
  5
29D3
 10
277.242
 20
263.956
 30
0.000000
  70
    32
  0
VERTEX
  8
0
  5
29D4
 10
277.230
 20
263.991
 30
0.000000
  70
    32
  0
VERTEX
  8
0
  5
29D5
 10
277.218
 20
264.025
 30
0.000000
  70
    32
  0
VERTEX
  8
0
  5
29D6
 10
277.207
 20
264.058
 30
0.000000
  70
    32
  0
VERTEX
  8
0
  5
29D7
 10
277.195
 20
264.092
 30
0.000000
  70
    32
  0
VERTEX
  8
0
  5
29D8
 10
277.183
 20
264.124
 30
0.000000
  70
    32
  0
VERTEX
  8
0
  5
29D9
 10
277.171
 20
264.157
 30
0.000000
  70
    32
  0
VERTEX
  8
0
  5
29DA
 10
277.159
 20
264.189
 30
0.000000
  70
    32
  0
VERTEX
  8
0
  5
29DB
 10
277.147
 20
264.220
 30
0.000000
  70
    32
  0
VERTEX
  8
0
  5
29DC
 10
277.136
 20
264.251
 30
0.000000
  70
    32
  0
VERTEX
  8
0
  5
29DD
 10
277.124
 20
264.282
 30
0.000000
  70
    32
  0
VERTEX
  8
0
  5
29DE
 10
277.112
 20
264.312
 30
0.000000
  70
    32
  0
VERTEX
  8
0
  5
29DF
 10
277.100
 20
264.342
 30
0.000000
  70
    32
  0
SEQEND
  8
0
  5
29E0
  0
POLYLINE
  5
2717
  8
0
 10
262.32388525169745
 20
249.7499999998833
 30
0.0
 66
     1
 70
     8
  0
VERTEX
  8
0
  5
29E1
 10
262.324
 20
249.750
 30
0.000000
  70
    32
  0
VERTEX
  8
0
  5
29E2
 10
262.317
 20
249.695
 30
0.000000
  70
    32
  0
VERTEX
  8
0
  5
29E3
 10
262.309
 20
249.639
 30
0.000000
  70
    32
  0
VERTEX
  8
0
  5
29E4
 10
262.302
 20
249.583
 30
0.000000
  70
    32
  0
VERTEX
  8
0
  5
29E5
 10
262.294
 20
249.527
 30
0.000000
  70
    32
  0
VERTEX
  8
0
  5
29E6
 10
262.287
 20
249.471
 30
0.000000
  70
    32
  0
VERTEX
  8
0
  5
29E7
 10
262.280
 20
249.414
 30
0.000000
  70
    32
  0
VERTEX
  8
0
  5
29E8
 10
262.272
 20
249.358
 30
0.000000
  70
    32
  0
VERTEX
  8
0
  5
29E9
 10
262.265
 20
249.301
 30
0.000000
  70
    32
  0
VERTEX
  8
0
  5
29EA
 10
262.258
 20
249.244
 30
0.000000
  70
    32
  0
VERTEX
  8
0
  5
29EB
 10
262.250
 20
249.186
 30
0.000000
  70
    32
  0
VERTEX
  8
0
  5
29EC
 10
262.243
 20
249.129
 30
0.000000
  70
    32
  0
VERTEX
  8
0
  5
29ED
 10
262.236
 20
249.071
 30
0.000000
  70
    32
  0
VERTEX
  8
0
  5
29EE
 10
262.228
 20
249.013
 30
0.000000
  70
    32
  0
VERTEX
  8
0
  5
29EF
 10
262.221
 20
248.955
 30
0.000000
  70
    32
  0
VERTEX
  8
0
  5
29F0
 10
262.214
 20
248.896
 30
0.000000
  70
    32
  0
VERTEX
  8
0
  5
29F1
 10
262.206
 20
248.838
 30
0.000000
  70
    32
  0
VERTEX
  8
0
  5
29F2
 10
262.199
 20
248.779
 30
0.000000
  70
    32
  0
VERTEX
  8
0
  5
29F3
 10
262.192
 20
248.720
 30
0.000000
  70
    32
  0
VERTEX
  8
0
  5
29F4
 10
262.184
 20
248.660
 30
0.000000
  70
    32
  0
VERTEX
  8
0
  5
29F5
 10
262.177
 20
248.601
 30
0.000000
  70
    32
  0
VERTEX
  8
0
  5
29F6
 10
262.170
 20
248.541
 30
0.000000
  70
    32
  0
VERTEX
  8
0
  5
29F7
 10
262.162
 20
248.481
 30
0.000000
  70
    32
  0
VERTEX
  8
0
  5
29F8
 10
262.155
 20
248.421
 30
0.000000
  70
    32
  0
VERTEX
  8
0
  5
29F9
 10
262.148
 20
248.361
 30
0.000000
  70
    32
  0
VERTEX
  8
0
  5
29FA
 10
262.140
 20
248.300
 30
0.000000
  70
    32
  0
VERTEX
  8
0
  5
29FB
 10
262.133
 20
248.239
 30
0.000000
  70
    32
  0
VERTEX
  8
0
  5
29FC
 10
262.126
 20
248.178
 30
0.000000
  70
    32
  0
VERTEX
  8
0
  5
29FD
 10
262.118
 20
248.117
 30
0.000000
  70
    32
  0
VERTEX
  8
0
  5
29FE
 10
262.111
 20
248.055
 30
0.000000
  70
    32
  0
VERTEX
  8
0
  5
29FF
 10
262.104
 20
247.994
 30
0.000000
  70
    32
  0
VERTEX
  8
0
  5
2A00
 10
262.096
 20
247.932
 30
0.000000
  70
    32
  0
VERTEX
  8
0
  5
2A01
 10
262.089
 20
247.870
 30
0.000000
  70
    32
  0
VERTEX
  8
0
  5
2A02
 10
262.082
 20
247.807
 30
0.000000
  70
    32
  0
VERTEX
  8
0
  5
2A03
 10
262.075
 20
247.745
 30
0.000000
  70
    32
  0
VERTEX
  8
0
  5
2A04
 10
262.067
 20
247.682
 30
0.000000
  70
    32
  0
VERTEX
  8
0
  5
2A05
 10
262.060
 20
247.619
 30
0.000000
  70
    32
  0
VERTEX
  8
0
  5
2A06
 10
262.053
 20
247.556
 30
0.000000
  70
    32
  0
VERTEX
  8
0
  5
2A07
 10
262.045
 20
247.493
 30
0.000000
  70
    32
  0
VERTEX
  8
0
  5
2A08
 10
262.038
 20
247.429
 30
0.000000
  70
    32
  0
VERTEX
  8
0
  5
2A09
 10
262.031
 20
247.365
 30
0.000000
  70
    32
  0
VERTEX
  8
0
  5
2A0A
 10
262.024
 20
247.301
 30
0.000000
  70
    32
  0
VERTEX
  8
0
  5
2A0B
 10
262.016
 20
247.237
 30
0.000000
  70
    32
  0
VERTEX
  8
0
  5
2A0C
 10
262.009
 20
247.172
 30
0.000000
  70
    32
  0
VERTEX
  8
0
  5
2A0D
 10
262.002
 20
247.108
 30
0.000000
  70
    32
  0
VERTEX
  8
0
  5
2A0E
 10
261.994
 20
247.043
 30
0.000000
  70
    32
  0
VERTEX
  8
0
  5
2A0F
 10
261.987
 20
246.978
 30
0.000000
  70
    32
  0
VERTEX
  8
0
  5
2A10
 10
261.980
 20
246.912
 30
0.000000
  70
    32
  0
VERTEX
  8
0
  5
2A11
 10
261.973
 20
246.847
 30
0.000000
  70
    32
  0
VERTEX
  8
0
  5
2A12
 10
261.965
 20
246.781
 30
0.000000
  70
    32
  0
VERTEX
  8
0
  5
2A13
 10
261.958
 20
246.715
 30
0.000000
  70
    32
  0
VERTEX
  8
0
  5
2A14
 10
261.951
 20
246.649
 30
0.000000
  70
    32
  0
VERTEX
  8
0
  5
2A15
 10
261.944
 20
246.582
 30
0.000000
  70
    32
  0
VERTEX
  8
0
  5
2A16
 10
261.936
 20
246.516
 30
0.000000
  70
    32
  0
VERTEX
  8
0
  5
2A17
 10
261.929
 20
246.449
 30
0.000000
  70
    32
  0
VERTEX
  8
0
  5
2A18
 10
261.922
 20
246.382
 30
0.000000
  70
    32
  0
VERTEX
  8
0
  5
2A19
 10
261.915
 20
246.315
 30
0.000000
  70
    32
  0
VERTEX
  8
0
  5
2A1A
 10
261.907
 20
246.247
 30
0.000000
  70
    32
  0
VERTEX
  8
0
  5
2A1B
 10
261.900
 20
246.179
 30
0.000000
  70
    32
  0
VERTEX
  8
0
  5
2A1C
 10
261.893
 20
246.111
 30
0.000000
  70
    32
  0
VERTEX
  8
0
  5
2A1D
 10
261.886
 20
246.043
 30
0.000000
  70
    32
  0
VERTEX
  8
0
  5
2A1E
 10
261.878
 20
245.975
 30
0.000000
  70
    32
  0
VERTEX
  8
0
  5
2A1F
 10
261.871
 20
245.906
 30
0.000000
  70
    32
  0
VERTEX
  8
0
  5
2A20
 10
261.864
 20
245.838
 30
0.000000
  70
    32
  0
VERTEX
  8
0
  5
2A21
 10
261.857
 20
245.769
 30
0.000000
  70
    32
  0
VERTEX
  8
0
  5
2A22
 10
261.850
 20
245.699
 30
0.000000
  70
    32
  0
VERTEX
  8
0
  5
2A23
 10
261.842
 20
245.630
 30
0.000000
  70
    32
  0
VERTEX
  8
0
  5
2A24
 10
261.835
 20
245.560
 30
0.000000
  70
    32
  0
VERTEX
  8
0
  5
2A25
 10
261.828
 20
245.491
 30
0.000000
  70
    32
  0
VERTEX
  8
0
  5
2A26
 10
261.821
 20
245.421
 30
0.000000
  70
    32
  0
VERTEX
  8
0
  5
2A27
 10
261.813
 20
245.350
 30
0.000000
  70
    32
  0
VERTEX
  8
0
  5
2A28
 10
261.806
 20
245.280
 30
0.000000
  70
    32
  0
VERTEX
  8
0
  5
2A29
 10
261.799
 20
245.209
 30
0.000000
  70
    32
  0
VERTEX
  8
0
  5
2A2A
 10
261.792
 20
245.138
 30
0.000000
  70
    32
  0
VERTEX
  8
0
  5
2A2B
 10
261.785
 20
245.067
 30
0.000000
  70
    32
  0
VERTEX
  8
0
  5
2A2C
 10
261.777
 20
244.996
 30
0.000000
  70
    32
  0
VERTEX
  8
0
  5
2A2D
 10
261.770
 20
244.924
 30
0.000000
  70
    32
  0
VERTEX
  8
0
  5
2A2E
 10
261.763
 20
244.853
 30
0.000000
  70
    32
  0
VERTEX
  8
0
  5
2A2F
 10
261.756
 20
244.781
 30
0.000000
  70
    32
  0
VERTEX
  8
0
  5
2A30
 10
261.749
 20
244.708
 30
0.000000
  70
    32
  0
VERTEX
  8
0
  5
2A31
 10
261.742
 20
244.636
 30
0.000000
  70
    32
  0
VERTEX
  8
0
  5
2A32
 10
261.734
 20
244.563
 30
0.000000
  70
    32
  0
VERTEX
  8
0
  5
2A33
 10
261.727
 20
244.491
 30
0.000000
  70
    32
  0
VERTEX
  8
0
  5
2A34
 10
261.720
 20
244.418
 30
0.000000
  70
    32
  0
VERTEX
  8
0
  5
2A35
 10
261.713
 20
244.344
 30
0.000000
  70
    32
  0
VERTEX
  8
0
  5
2A36
 10
261.706
 20
244.271
 30
0.000000
  70
    32
  0
VERTEX
  8
0
  5
2A37
 10
261.698
 20
244.197
 30
0.000000
  70
    32
  0
VERTEX
  8
0
  5
2A38
 10
261.691
 20
244.123
 30
0.000000
  70
    32
  0
VERTEX
  8
0
  5
2A39
 10
261.684
 20
244.049
 30
0.000000
  70
    32
  0
VERTEX
  8
0
  5
2A3A
 10
261.677
 20
243.975
 30
0.000000
  70
    32
  0
VERTEX
  8
0
  5
2A3B
 10
261.670
 20
243.901
 30
0.000000
  70
    32
  0
VERTEX
  8
0
  5
2A3C
 10
261.663
 20
243.826
 30
0.000000
  70
    32
  0
VERTEX
  8
0
  5
2A3D
 10
261.656
 20
243.751
 30
0.000000
  70
    32
  0
VERTEX
  8
0
  5
2A3E
 10
261.648
 20
243.676
 30
0.000000
  70
    32
  0
VERTEX
  8
0
  5
2A3F
 10
261.641
 20
243.600
 30
0.000000
  70
    32
  0
VERTEX
  8
0
  5
2A40
 10
261.634
 20
243.525
 30
0.000000
  70
    32
  0
VERTEX
  8
0
  5
2A41
 10
261.627
 20
243.449
 30
0.000000
  70
    32
  0
VERTEX
  8
0
  5
2A42
 10
261.620
 20
243.373
 30
0.000000
  70
    32
  0
VERTEX
  8
0
  5
2A43
 10
261.613
 20
243.297
 30
0.000000
  70
    32
  0
VERTEX
  8
0
  5
2A44
 10
261.606
 20
243.221
 30
0.000000
  70
    32
  0
VERTEX
  8
0
  5
2A45
 10
261.598
 20
243.144
 30
0.000000
  70
    32
  0
VERTEX
  8
0
  5
2A46
 10
261.591
 20
243.067
 30
0.000000
  70
    32
  0
VERTEX
  8
0
  5
2A47
 10
261.584
 20
242.990
 30
0.000000
  70
    32
  0
VERTEX
  8
0
  5
2A48
 10
261.577
 20
242.913
 30
0.000000
  70
    32
  0
VERTEX
  8
0
  5
2A49
 10
261.570
 20
242.835
 30
0.000000
  70
    32
  0
VERTEX
  8
0
  5
2A4A
 10
261.563
 20
242.758
 30
0.000000
  70
    32
  0
VERTEX
  8
0
  5
2A4B
 10
261.556
 20
242.680
 30
0.000000
  70
    32
  0
VERTEX
  8
0
  5
2A4C
 10
261.549
 20
242.602
 30
0.000000
  70
    32
  0
VERTEX
  8
0
  5
2A4D
 10
261.542
 20
242.523
 30
0.000000
  70
    32
  0
VERTEX
  8
0
  5
2A4E
 10
261.534
 20
242.445
 30
0.000000
  70
    32
  0
VERTEX
  8
0
  5
2A4F
 10
261.527
 20
242.366
 30
0.000000
  70
    32
  0
VERTEX
  8
0
  5
2A50
 10
261.520
 20
242.287
 30
0.000000
  70
    32
  0
VERTEX
  8
0
  5
2A51
 10
261.513
 20
242.208
 30
0.000000
  70
    32
  0
VERTEX
  8
0
  5
2A52
 10
261.506
 20
242.129
 30
0.000000
  70
    32
  0
VERTEX
  8
0
  5
2A53
 10
261.499
 20
242.049
 30
0.000000
  70
    32
  0
VERTEX
  8
0
  5
2A54
 10
261.492
 20
241.970
 30
0.000000
  70
    32
  0
VERTEX
  8
0
  5
2A55
 10
261.485
 20
241.890
 30
0.000000
  70
    32
  0
VERTEX
  8
0
  5
2A56
 10
261.478
 20
241.809
 30
0.000000
  70
    32
  0
VERTEX
  8
0
  5
2A57
 10
261.471
 20
241.729
 30
0.000000
  70
    32
  0
VERTEX
  8
0
  5
2A58
 10
261.464
 20
241.648
 30
0.000000
  70
    32
  0
VERTEX
  8
0
  5
2A59
 10
261.456
 20
241.568
 30
0.000000
  70
    32
  0
VERTEX
  8
0
  5
2A5A
 10
261.449
 20
241.487
 30
0.000000
  70
    32
  0
VERTEX
  8
0
  5
2A5B
 10
261.442
 20
241.405
 30
0.000000
  70
    32
  0
VERTEX
  8
0
  5
2A5C
 10
261.435
 20
241.324
 30
0.000000
  70
    32
  0
VERTEX
  8
0
  5
2A5D
 10
261.428
 20
241.242
 30
0.000000
  70
    32
  0
VERTEX
  8
0
  5
2A5E
 10
261.421
 20
241.160
 30
0.000000
  70
    32
  0
VERTEX
  8
0
  5
2A5F
 10
261.414
 20
241.078
 30
0.000000
  70
    32
  0
VERTEX
  8
0
  5
2A60
 10
261.407
 20
240.996
 30
0.000000
  70
    32
  0
VERTEX
  8
0
  5
2A61
 10
261.400
 20
240.914
 30
0.000000
  70
    32
  0
SEQEND
  8
0
  5
2A62
  0
LINE
  5
2718
  8
0
 10
262.89999999999998
 20
251.2000149431251
 30
0.0
 11
262.75245841790002
 21
249.7001046029001
 31
0.0
  0
POLYLINE
  5
2719
  8
0
 10
262.46088814859974
 20
249.59636984141662
 30
0.0
 66
     1
 70
     8
  0
VERTEX
  8
0
  5
2A63
 10
262.461
 20
249.596
 30
0.000000
  70
    32
  0
VERTEX
  8
0
  5
2A64
 10
262.463
 20
249.576
 30
0.000000
  70
    32
  0
VERTEX
  8
0
  5
2A65
 10
262.465
 20
249.555
 30
0.000000
  70
    32
  0
VERTEX
  8
0
  5
2A66
 10
262.468
 20
249.535
 30
0.000000
  70
    32
  0
VERTEX
  8
0
  5
2A67
 10
262.470
 20
249.516
 30
0.000000
  70
    32
  0
VERTEX
  8
0
  5
2A68
 10
262.472
 20
249.496
 30
0.000000
  70
    32
  0
VERTEX
  8
0
  5
2A69
 10
262.474
 20
249.477
 30
0.000000
  70
    32
  0
VERTEX
  8
0
  5
2A6A
 10
262.476
 20
249.459
 30
0.000000
  70
    32
  0
VERTEX
  8
0
  5
2A6B
 10
262.479
 20
249.440
 30
0.000000
  70
    32
  0
VERTEX
  8
0
  5
2A6C
 10
262.481
 20
249.422
 30
0.000000
  70
    32
  0
VERTEX
  8
0
  5
2A6D
 10
262.483
 20
249.405
 30
0.000000
  70
    32
  0
VERTEX
  8
0
  5
2A6E
 10
262.485
 20
249.387
 30
0.000000
  70
    32
  0
VERTEX
  8
0
  5
2A6F
 10
262.488
 20
249.370
 30
0.000000
  70
    32
  0
VERTEX
  8
0
  5
2A70
 10
262.490
 20
249.354
 30
0.000000
  70
    32
  0
VERTEX
  8
0
  5
2A71
 10
262.492
 20
249.337
 30
0.000000
  70
    32
  0
VERTEX
  8
0
  5
2A72
 10
262.494
 20
249.321
 30
0.000000
  70
    32
  0
VERTEX
  8
0
  5
2A73
 10
262.497
 20
249.306
 30
0.000000
  70
    32
  0
VERTEX
  8
0
  5
2A74
 10
262.499
 20
249.290
 30
0.000000
  70
    32
  0
VERTEX
  8
0
  5
2A75
 10
262.501
 20
249.275
 30
0.000000
  70
    32
  0
VERTEX
  8
0
  5
2A76
 10
262.503
 20
249.261
 30
0.000000
  70
    32
  0
VERTEX
  8
0
  5
2A77
 10
262.506
 20
249.246
 30
0.000000
  70
    32
  0
VERTEX
  8
0
  5
2A78
 10
262.508
 20
249.232
 30
0.000000
  70
    32
  0
VERTEX
  8
0
  5
2A79
 10
262.510
 20
249.218
 30
0.000000
  70
    32
  0
VERTEX
  8
0
  5
2A7A
 10
262.512
 20
249.205
 30
0.000000
  70
    32
  0
VERTEX
  8
0
  5
2A7B
 10
262.515
 20
249.192
 30
0.000000
  70
    32
  0
VERTEX
  8
0
  5
2A7C
 10
262.517
 20
249.179
 30
0.000000
  70
    32
  0
VERTEX
  8
0
  5
2A7D
 10
262.519
 20
249.167
 30
0.000000
  70
    32
  0
VERTEX
  8
0
  5
2A7E
 10
262.522
 20
249.155
 30
0.000000
  70
    32
  0
VERTEX
  8
0
  5
2A7F
 10
262.524
 20
249.143
 30
0.000000
  70
    32
  0
VERTEX
  8
0
  5
2A80
 10
262.526
 20
249.132
 30
0.000000
  70
    32
  0
VERTEX
  8
0
  5
2A81
 10
262.528
 20
249.121
 30
0.000000
  70
    32
  0
VERTEX
  8
0
  5
2A82
 10
262.531
 20
249.111
 30
0.000000
  70
    32
  0
VERTEX
  8
0
  5
2A83
 10
262.533
 20
249.100
 30
0.000000
  70
    32
  0
VERTEX
  8
0
  5
2A84
 10
262.535
 20
249.090
 30
0.000000
  70
    32
  0
VERTEX
  8
0
  5
2A85
 10
262.538
 20
249.081
 30
0.000000
  70
    32
  0
VERTEX
  8
0
  5
2A86
 10
262.540
 20
249.071
 30
0.000000
  70
    32
  0
VERTEX
  8
0
  5
2A87
 10
262.542
 20
249.062
 30
0.000000
  70
    32
  0
VERTEX
  8
0
  5
2A88
 10
262.544
 20
249.054
 30
0.000000
  70
    32
  0
VERTEX
  8
0
  5
2A89
 10
262.547
 20
249.046
 30
0.000000
  70
    32
  0
VERTEX
  8
0
  5
2A8A
 10
262.549
 20
249.038
 30
0.000000
  70
    32
  0
VERTEX
  8
0
  5
2A8B
 10
262.551
 20
249.030
 30
0.000000
  70
    32
  0
VERTEX
  8
0
  5
2A8C
 10
262.554
 20
249.023
 30
0.000000
  70
    32
  0
VERTEX
  8
0
  5
2A8D
 10
262.556
 20
249.016
 30
0.000000
  70
    32
  0
VERTEX
  8
0
  5
2A8E
 10
262.558
 20
249.009
 30
0.000000
  70
    32
  0
VERTEX
  8
0
  5
2A8F
 10
262.561
 20
249.003
 30
0.000000
  70
    32
  0
VERTEX
  8
0
  5
2A90
 10
262.563
 20
248.997
 30
0.000000
  70
    32
  0
VERTEX
  8
0
  5
2A91
 10
262.565
 20
248.992
 30
0.000000
  70
    32
  0
VERTEX
  8
0
  5
2A92
 10
262.568
 20
248.987
 30
0.000000
  70
    32
  0
VERTEX
  8
0
  5
2A93
 10
262.570
 20
248.982
 30
0.000000
  70
    32
  0
VERTEX
  8
0
  5
2A94
 10
262.572
 20
248.977
 30
0.000000
  70
    32
  0
VERTEX
  8
0
  5
2A95
 10
262.575
 20
248.973
 30
0.000000
  70
    32
  0
VERTEX
  8
0
  5
2A96
 10
262.577
 20
248.969
 30
0.000000
  70
    32
  0
VERTEX
  8
0
  5
2A97
 10
262.579
 20
248.966
 30
0.000000
  70
    32
  0
VERTEX
  8
0
  5
2A98
 10
262.581
 20
248.963
 30
0.000000
  70
    32
  0
VERTEX
  8
0
  5
2A99
 10
262.584
 20
248.960
 30
0.000000
  70
    32
  0
VERTEX
  8
0
  5
2A9A
 10
262.586
 20
248.957
 30
0.000000
  70
    32
  0
VERTEX
  8
0
  5
2A9B
 10
262.588
 20
248.955
 30
0.000000
  70
    32
  0
VERTEX
  8
0
  5
2A9C
 10
262.591
 20
248.954
 30
0.000000
  70
    32
  0
VERTEX
  8
0
  5
2A9D
 10
262.593
 20
248.952
 30
0.000000
  70
    32
  0
VERTEX
  8
0
  5
2A9E
 10
262.595
 20
248.951
 30
0.000000
  70
    32
  0
VERTEX
  8
0
  5
2A9F
 10
262.598
 20
248.950
 30
0.000000
  70
    32
  0
VERTEX
  8
0
  5
2AA0
 10
262.600
 20
248.950
 30
0.000000
  70
    32
  0
VERTEX
  8
0
  5
2AA1
 10
262.602
 20
248.950
 30
0.000000
  70
    32
  0
VERTEX
  8
0
  5
2AA2
 10
262.605
 20
248.950
 30
0.000000
  70
    32
  0
VERTEX
  8
0
  5
2AA3
 10
262.607
 20
248.951
 30
0.000000
  70
    32
  0
VERTEX
  8
0
  5
2AA4
 10
262.609
 20
248.952
 30
0.000000
  70
    32
  0
VERTEX
  8
0
  5
2AA5
 10
262.612
 20
248.953
 30
0.000000
  70
    32
  0
VERTEX
  8
0
  5
2AA6
 10
262.614
 20
248.955
 30
0.000000
  70
    32
  0
VERTEX
  8
0
  5
2AA7
 10
262.616
 20
248.957
 30
0.000000
  70
    32
  0
VERTEX
  8
0
  5
2AA8
 10
262.619
 20
248.959
 30
0.000000
  70
    32
  0
VERTEX
  8
0
  5
2AA9
 10
262.621
 20
248.962
 30
0.000000
  70
    32
  0
VERTEX
  8
0
  5
2AAA
 10
262.623
 20
248.965
 30
0.000000
  70
    32
  0
VERTEX
  8
0
  5
2AAB
 10
262.626
 20
248.969
 30
0.000000
  70
    32
  0
VERTEX
  8
0
  5
2AAC
 10
262.628
 20
248.972
 30
0.000000
  70
    32
  0
VERTEX
  8
0
  5
2AAD
 10
262.630
 20
248.976
 30
0.000000
  70
    32
  0
VERTEX
  8
0
  5
2AAE
 10
262.632
 20
248.981
 30
0.000000
  70
    32
  0
VERTEX
  8
0
  5
2AAF
 10
262.635
 20
248.986
 30
0.000000
  70
    32
  0
VERTEX
  8
0
  5
2AB0
 10
262.637
 20
248.991
 30
0.000000
  70
    32
  0
VERTEX
  8
0
  5
2AB1
 10
262.639
 20
248.996
 30
0.000000
  70
    32
  0
VERTEX
  8
0
  5
2AB2
 10
262.642
 20
249.002
 30
0.000000
  70
    32
  0
VERTEX
  8
0
  5
2AB3
 10
262.644
 20
249.008
 30
0.000000
  70
    32
  0
VERTEX
  8
0
  5
2AB4
 10
262.646
 20
249.015
 30
0.000000
  70
    32
  0
VERTEX
  8
0
  5
2AB5
 10
262.649
 20
249.021
 30
0.000000
  70
    32
  0
VERTEX
  8
0
  5
2AB6
 10
262.651
 20
249.029
 30
0.000000
  70
    32
  0
VERTEX
  8
0
  5
2AB7
 10
262.653
 20
249.036
 30
0.000000
  70
    32
  0
VERTEX
  8
0
  5
2AB8
 10
262.656
 20
249.044
 30
0.000000
  70
    32
  0
VERTEX
  8
0
  5
2AB9
 10
262.658
 20
249.052
 30
0.000000
  70
    32
  0
VERTEX
  8
0
  5
2ABA
 10
262.660
 20
249.061
 30
0.000000
  70
    32
  0
VERTEX
  8
0
  5
2ABB
 10
262.662
 20
249.070
 30
0.000000
  70
    32
  0
VERTEX
  8
0
  5
2ABC
 10
262.665
 20
249.079
 30
0.000000
  70
    32
  0
VERTEX
  8
0
  5
2ABD
 10
262.667
 20
249.088
 30
0.000000
  70
    32
  0
VERTEX
  8
0
  5
2ABE
 10
262.669
 20
249.098
 30
0.000000
  70
    32
  0
VERTEX
  8
0
  5
2ABF
 10
262.672
 20
249.108
 30
0.000000
  70
    32
  0
VERTEX
  8
0
  5
2AC0
 10
262.674
 20
249.119
 30
0.000000
  70
    32
  0
VERTEX
  8
0
  5
2AC1
 10
262.676
 20
249.130
 30
0.000000
  70
    32
  0
VERTEX
  8
0
  5
2AC2
 10
262.679
 20
249.141
 30
0.000000
  70
    32
  0
VERTEX
  8
0
  5
2AC3
 10
262.681
 20
249.153
 30
0.000000
  70
    32
  0
VERTEX
  8
0
  5
2AC4
 10
262.683
 20
249.165
 30
0.000000
  70
    32
  0
VERTEX
  8
0
  5
2AC5
 10
262.685
 20
249.177
 30
0.000000
  70
    32
  0
VERTEX
  8
0
  5
2AC6
 10
262.688
 20
249.190
 30
0.000000
  70
    32
  0
VERTEX
  8
0
  5
2AC7
 10
262.690
 20
249.203
 30
0.000000
  70
    32
  0
VERTEX
  8
0
  5
2AC8
 10
262.692
 20
249.216
 30
0.000000
  70
    32
  0
VERTEX
  8
0
  5
2AC9
 10
262.694
 20
249.229
 30
0.000000
  70
    32
  0
VERTEX
  8
0
  5
2ACA
 10
262.697
 20
249.243
 30
0.000000
  70
    32
  0
VERTEX
  8
0
  5
2ACB
 10
262.699
 20
249.258
 30
0.000000
  70
    32
  0
VERTEX
  8
0
  5
2ACC
 10
262.701
 20
249.272
 30
0.000000
  70
    32
  0
VERTEX
  8
0
  5
2ACD
 10
262.704
 20
249.287
 30
0.000000
  70
    32
  0
VERTEX
  8
0
  5
2ACE
 10
262.706
 20
249.303
 30
0.000000
  70
    32
  0
VERTEX
  8
0
  5
2ACF
 10
262.708
 20
249.318
 30
0.000000
  70
    32
  0
VERTEX
  8
0
  5
2AD0
 10
262.710
 20
249.334
 30
0.000000
  70
    32
  0
VERTEX
  8
0
  5
2AD1
 10
262.713
 20
249.350
 30
0.000000
  70
    32
  0
VERTEX
  8
0
  5
2AD2
 10
262.715
 20
249.367
 30
0.000000
  70
    32
  0
VERTEX
  8
0
  5
2AD3
 10
262.717
 20
249.384
 30
0.000000
  70
    32
  0
VERTEX
  8
0
  5
2AD4
 10
262.719
 20
249.401
 30
0.000000
  70
    32
  0
VERTEX
  8
0
  5
2AD5
 10
262.722
 20
249.419
 30
0.000000
  70
    32
  0
VERTEX
  8
0
  5
2AD6
 10
262.724
 20
249.437
 30
0.000000
  70
    32
  0
VERTEX
  8
0
  5
2AD7
 10
262.726
 20
249.455
 30
0.000000
  70
    32
  0
VERTEX
  8
0
  5
2AD8
 10
262.728
 20
249.474
 30
0.000000
  70
    32
  0
VERTEX
  8
0
  5
2AD9
 10
262.730
 20
249.493
 30
0.000000
  70
    32
  0
VERTEX
  8
0
  5
2ADA
 10
262.733
 20
249.512
 30
0.000000
  70
    32
  0
VERTEX
  8
0
  5
2ADB
 10
262.735
 20
249.532
 30
0.000000
  70
    32
  0
VERTEX
  8
0
  5
2ADC
 10
262.737
 20
249.551
 30
0.000000
  70
    32
  0
VERTEX
  8
0
  5
2ADD
 10
262.739
 20
249.572
 30
0.000000
  70
    32
  0
VERTEX
  8
0
  5
2ADE
 10
262.741
 20
249.592
 30
0.000000
  70
    32
  0
VERTEX
  8
0
  5
2ADF
 10
262.744
 20
249.613
 30
0.000000
  70
    32
  0
VERTEX
  8
0
  5
2AE0
 10
262.746
 20
249.634
 30
0.000000
  70
    32
  0
VERTEX
  8
0
  5
2AE1
 10
262.748
 20
249.656
 30
0.000000
  70
    32
  0
VERTEX
  8
0
  5
2AE2
 10
262.750
 20
249.678
 30
0.000000
  70
    32
  0
VERTEX
  8
0
  5
2AE3
 10
262.752
 20
249.700
 30
0.000000
  70
    32
  0
SEQEND
  8
0
  5
2AE4
  0
POLYLINE
  5
271A
  8
0
 10
262.46088814854659
 20
249.59636984141684
 30
0.0
 66
     1
 70
     8
  0
VERTEX
  8
0
  5
2AE5
 10
262.461
 20
249.596
 30
0.000000
  70
    32
  0
VERTEX
  8
0
  5
2AE6
 10
262.460
 20
249.606
 30
0.000000
  70
    32
  0
VERTEX
  8
0
  5
2AE7
 10
262.459
 20
249.615
 30
0.000000
  70
    32
  0
VERTEX
  8
0
  5
2AE8
 10
262.458
 20
249.625
 30
0.000000
  70
    32
  0
VERTEX
  8
0
  5
2AE9
 10
262.457
 20
249.634
 30
0.000000
  70
    32
  0
VERTEX
  8
0
  5
2AEA
 10
262.456
 20
249.643
 30
0.000000
  70
    32
  0
VERTEX
  8
0
  5
2AEB
 10
262.455
 20
249.652
 30
0.000000
  70
    32
  0
VERTEX
  8
0
  5
2AEC
 10
262.454
 20
249.661
 30
0.000000
  70
    32
  0
VERTEX
  8
0
  5
2AED
 10
262.453
 20
249.669
 30
0.000000
  70
    32
  0
VERTEX
  8
0
  5
2AEE
 10
262.452
 20
249.678
 30
0.000000
  70
    32
  0
VERTEX
  8
0
  5
2AEF
 10
262.451
 20
249.686
 30
0.000000
  70
    32
  0
VERTEX
  8
0
  5
2AF0
 10
262.449
 20
249.695
 30
0.000000
  70
    32
  0
VERTEX
  8
0
  5
2AF1
 10
262.448
 20
249.703
 30
0.000000
  70
    32
  0
VERTEX
  8
0
  5
2AF2
 10
262.447
 20
249.711
 30
0.000000
  70
    32
  0
VERTEX
  8
0
  5
2AF3
 10
262.446
 20
249.719
 30
0.000000
  70
    32
  0
VERTEX
  8
0
  5
2AF4
 10
262.445
 20
249.727
 30
0.000000
  70
    32
  0
VERTEX
  8
0
  5
2AF5
 10
262.444
 20
249.734
 30
0.000000
  70
    32
  0
VERTEX
  8
0
  5
2AF6
 10
262.443
 20
249.742
 30
0.000000
  70
    32
  0
VERTEX
  8
0
  5
2AF7
 10
262.442
 20
249.749
 30
0.000000
  70
    32
  0
VERTEX
  8
0
  5
2AF8
 10
262.441
 20
249.757
 30
0.000000
  70
    32
  0
VERTEX
  8
0
  5
2AF9
 10
262.440
 20
249.764
 30
0.000000
  70
    32
  0
VERTEX
  8
0
  5
2AFA
 10
262.439
 20
249.771
 30
0.000000
  70
    32
  0
VERTEX
  8
0
  5
2AFB
 10
262.438
 20
249.778
 30
0.000000
  70
    32
  0
VERTEX
  8
0
  5
2AFC
 10
262.437
 20
249.784
 30
0.000000
  70
    32
  0
VERTEX
  8
0
  5
2AFD
 10
262.436
 20
249.791
 30
0.000000
  70
    32
  0
VERTEX
  8
0
  5
2AFE
 10
262.435
 20
249.797
 30
0.000000
  70
    32
  0
VERTEX
  8
0
  5
2AFF
 10
262.434
 20
249.804
 30
0.000000
  70
    32
  0
VERTEX
  8
0
  5
2B00
 10
262.433
 20
249.810
 30
0.000000
  70
    32
  0
VERTEX
  8
0
  5
2B01
 10
262.432
 20
249.816
 30
0.000000
  70
    32
  0
VERTEX
  8
0
  5
2B02
 10
262.430
 20
249.822
 30
0.000000
  70
    32
  0
VERTEX
  8
0
  5
2B03
 10
262.429
 20
249.828
 30
0.000000
  70
    32
  0
VERTEX
  8
0
  5
2B04
 10
262.428
 20
249.833
 30
0.000000
  70
    32
  0
VERTEX
  8
0
  5
2B05
 10
262.427
 20
249.839
 30
0.000000
  70
    32
  0
VERTEX
  8
0
  5
2B06
 10
262.426
 20
249.844
 30
0.000000
  70
    32
  0
VERTEX
  8
0
  5
2B07
 10
262.425
 20
249.850
 30
0.000000
  70
    32
  0
VERTEX
  8
0
  5
2B08
 10
262.424
 20
249.855
 30
0.000000
  70
    32
  0
VERTEX
  8
0
  5
2B09
 10
262.423
 20
249.860
 30
0.000000
  70
    32
  0
VERTEX
  8
0
  5
2B0A
 10
262.422
 20
249.865
 30
0.000000
  70
    32
  0
VERTEX
  8
0
  5
2B0B
 10
262.421
 20
249.870
 30
0.000000
  70
    32
  0
VERTEX
  8
0
  5
2B0C
 10
262.420
 20
249.874
 30
0.000000
  70
    32
  0
VERTEX
  8
0
  5
2B0D
 10
262.419
 20
249.879
 30
0.000000
  70
    32
  0
VERTEX
  8
0
  5
2B0E
 10
262.418
 20
249.883
 30
0.000000
  70
    32
  0
VERTEX
  8
0
  5
2B0F
 10
262.417
 20
249.887
 30
0.000000
  70
    32
  0
VERTEX
  8
0
  5
2B10
 10
262.415
 20
249.891
 30
0.000000
  70
    32
  0
VERTEX
  8
0
  5
2B11
 10
262.414
 20
249.895
 30
0.000000
  70
    32
  0
VERTEX
  8
0
  5
2B12
 10
262.413
 20
249.899
 30
0.000000
  70
    32
  0
VERTEX
  8
0
  5
2B13
 10
262.412
 20
249.903
 30
0.000000
  70
    32
  0
VERTEX
  8
0
  5
2B14
 10
262.411
 20
249.906
 30
0.000000
  70
    32
  0
VERTEX
  8
0
  5
2B15
 10
262.410
 20
249.910
 30
0.000000
  70
    32
  0
VERTEX
  8
0
  5
2B16
 10
262.409
 20
249.913
 30
0.000000
  70
    32
  0
VERTEX
  8
0
  5
2B17
 10
262.408
 20
249.916
 30
0.000000
  70
    32
  0
VERTEX
  8
0
  5
2B18
 10
262.407
 20
249.919
 30
0.000000
  70
    32
  0
VERTEX
  8
0
  5
2B19
 10
262.406
 20
249.922
 30
0.000000
  70
    32
  0
VERTEX
  8
0
  5
2B1A
 10
262.405
 20
249.925
 30
0.000000
  70
    32
  0
VERTEX
  8
0
  5
2B1B
 10
262.404
 20
249.928
 30
0.000000
  70
    32
  0
VERTEX
  8
0
  5
2B1C
 10
262.403
 20
249.930
 30
0.000000
  70
    32
  0
VERTEX
  8
0
  5
2B1D
 10
262.401
 20
249.932
 30
0.000000
  70
    32
  0
VERTEX
  8
0
  5
2B1E
 10
262.400
 20
249.935
 30
0.000000
  70
    32
  0
VERTEX
  8
0
  5
2B1F
 10
262.399
 20
249.937
 30
0.000000
  70
    32
  0
VERTEX
  8
0
  5
2B20
 10
262.398
 20
249.939
 30
0.000000
  70
    32
  0
VERTEX
  8
0
  5
2B21
 10
262.397
 20
249.940
 30
0.000000
  70
    32
  0
VERTEX
  8
0
  5
2B22
 10
262.396
 20
249.942
 30
0.000000
  70
    32
  0
VERTEX
  8
0
  5
2B23
 10
262.395
 20
249.944
 30
0.000000
  70
    32
  0
VERTEX
  8
0
  5
2B24
 10
262.394
 20
249.945
 30
0.000000
  70
    32
  0
VERTEX
  8
0
  5
2B25
 10
262.393
 20
249.946
 30
0.000000
  70
    32
  0
VERTEX
  8
0
  5
2B26
 10
262.392
 20
249.948
 30
0.000000
  70
    32
  0
VERTEX
  8
0
  5
2B27
 10
262.391
 20
249.949
 30
0.000000
  70
    32
  0
VERTEX
  8
0
  5
2B28
 10
262.390
 20
249.949
 30
0.000000
  70
    32
  0
VERTEX
  8
0
  5
2B29
 10
262.388
 20
249.950
 30
0.000000
  70
    32
  0
VERTEX
  8
0
  5
2B2A
 10
262.387
 20
249.951
 30
0.000000
  70
    32
  0
VERTEX
  8
0
  5
2B2B
 10
262.386
 20
249.951
 30
0.000000
  70
    32
  0
VERTEX
  8
0
  5
2B2C
 10
262.385
 20
249.952
 30
0.000000
  70
    32
  0
VERTEX
  8
0
  5
2B2D
 10
262.384
 20
249.952
 30
0.000000
  70
    32
  0
VERTEX
  8
0
  5
2B2E
 10
262.383
 20
249.952
 30
0.000000
  70
    32
  0
VERTEX
  8
0
  5
2B2F
 10
262.382
 20
249.952
 30
0.000000
  70
    32
  0
VERTEX
  8
0
  5
2B30
 10
262.381
 20
249.952
 30
0.000000
  70
    32
  0
VERTEX
  8
0
  5
2B31
 10
262.380
 20
249.951
 30
0.000000
  70
    32
  0
VERTEX
  8
0
  5
2B32
 10
262.379
 20
249.951
 30
0.000000
  70
    32
  0
VERTEX
  8
0
  5
2B33
 10
262.378
 20
249.950
 30
0.000000
  70
    32
  0
VERTEX
  8
0
  5
2B34
 10
262.376
 20
249.950
 30
0.000000
  70
    32
  0
VERTEX
  8
0
  5
2B35
 10
262.375
 20
249.949
 30
0.000000
  70
    32
  0
VERTEX
  8
0
  5
2B36
 10
262.374
 20
249.948
 30
0.000000
  70
    32
  0
VERTEX
  8
0
  5
2B37
 10
262.373
 20
249.947
 30
0.000000
  70
    32
  0
VERTEX
  8
0
  5
2B38
 10
262.372
 20
249.945
 30
0.000000
  70
    32
  0
VERTEX
  8
0
  5
2B39
 10
262.371
 20
249.944
 30
0.000000
  70
    32
  0
VERTEX
  8
0
  5
2B3A
 10
262.370
 20
249.942
 30
0.000000
  70
    32
  0
VERTEX
  8
0
  5
2B3B
 10
262.369
 20
249.941
 30
0.000000
  70
    32
  0
VERTEX
  8
0
  5
2B3C
 10
262.368
 20
249.939
 30
0.000000
  70
    32
  0
VERTEX
  8
0
  5
2B3D
 10
262.367
 20
249.937
 30
0.000000
  70
    32
  0
VERTEX
  8
0
  5
2B3E
 10
262.366
 20
249.935
 30
0.000000
  70
    32
  0
VERTEX
  8
0
  5
2B3F
 10
262.365
 20
249.933
 30
0.000000
  70
    32
  0
VERTEX
  8
0
  5
2B40
 10
262.363
 20
249.930
 30
0.000000
  70
    32
  0
VERTEX
  8
0
  5
2B41
 10
262.362
 20
249.928
 30
0.000000
  70
    32
  0
VERTEX
  8
0
  5
2B42
 10
262.361
 20
249.925
 30
0.000000
  70
    32
  0
VERTEX
  8
0
  5
2B43
 10
262.360
 20
249.922
 30
0.000000
  70
    32
  0
VERTEX
  8
0
  5
2B44
 10
262.359
 20
249.920
 30
0.000000
  70
    32
  0
VERTEX
  8
0
  5
2B45
 10
262.358
 20
249.917
 30
0.000000
  70
    32
  0
VERTEX
  8
0
  5
2B46
 10
262.357
 20
249.913
 30
0.000000
  70
    32
  0
VERTEX
  8
0
  5
2B47
 10
262.356
 20
249.910
 30
0.000000
  70
    32
  0
VERTEX
  8
0
  5
2B48
 10
262.355
 20
249.907
 30
0.000000
  70
    32
  0
VERTEX
  8
0
  5
2B49
 10
262.354
 20
249.903
 30
0.000000
  70
    32
  0
VERTEX
  8
0
  5
2B4A
 10
262.353
 20
249.900
 30
0.000000
  70
    32
  0
VERTEX
  8
0
  5
2B4B
 10
262.352
 20
249.896
 30
0.000000
  70
    32
  0
VERTEX
  8
0
  5
2B4C
 10
262.351
 20
249.892
 30
0.000000
  70
    32
  0
VERTEX
  8
0
  5
2B4D
 10
262.349
 20
249.888
 30
0.000000
  70
    32
  0
VERTEX
  8
0
  5
2B4E
 10
262.348
 20
249.883
 30
0.000000
  70
    32
  0
VERTEX
  8
0
  5
2B4F
 10
262.347
 20
249.879
 30
0.000000
  70
    32
  0
VERTEX
  8
0
  5
2B50
 10
262.346
 20
249.875
 30
0.000000
  70
    32
  0
VERTEX
  8
0
  5
2B51
 10
262.345
 20
249.870
 30
0.000000
  70
    32
  0
VERTEX
  8
0
  5
2B52
 10
262.344
 20
249.865
 30
0.000000
  70
    32
  0
VERTEX
  8
0
  5
2B53
 10
262.343
 20
249.860
 30
0.000000
  70
    32
  0
VERTEX
  8
0
  5
2B54
 10
262.342
 20
249.855
 30
0.000000
  70
    32
  0
VERTEX
  8
0
  5
2B55
 10
262.341
 20
249.850
 30
0.000000
  70
    32
  0
VERTEX
  8
0
  5
2B56
 10
262.340
 20
249.845
 30
0.000000
  70
    32
  0
VERTEX
  8
0
  5
2B57
 10
262.339
 20
249.840
 30
0.000000
  70
    32
  0
VERTEX
  8
0
  5
2B58
 10
262.338
 20
249.834
 30
0.000000
  70
    32
  0
VERTEX
  8
0
  5
2B59
 10
262.337
 20
249.828
 30
0.000000
  70
    32
  0
VERTEX
  8
0
  5
2B5A
 10
262.336
 20
249.823
 30
0.000000
  70
    32
  0
VERTEX
  8
0
  5
2B5B
 10
262.334
 20
249.817
 30
0.000000
  70
    32
  0
VERTEX
  8
0
  5
2B5C
 10
262.333
 20
249.811
 30
0.000000
  70
    32
  0
VERTEX
  8
0
  5
2B5D
 10
262.332
 20
249.804
 30
0.000000
  70
    32
  0
VERTEX
  8
0
  5
2B5E
 10
262.331
 20
249.798
 30
0.000000
  70
    32
  0
VERTEX
  8
0
  5
2B5F
 10
262.330
 20
249.792
 30
0.000000
  70
    32
  0
VERTEX
  8
0
  5
2B60
 10
262.329
 20
249.785
 30
0.000000
  70
    32
  0
VERTEX
  8
0
  5
2B61
 10
262.328
 20
249.778
 30
0.000000
  70
    32
  0
VERTEX
  8
0
  5
2B62
 10
262.327
 20
249.771
 30
0.000000
  70
    32
  0
VERTEX
  8
0
  5
2B63
 10
262.326
 20
249.764
 30
0.000000
  70
    32
  0
VERTEX
  8
0
  5
2B64
 10
262.325
 20
249.757
 30
0.000000
  70
    32
  0
VERTEX
  8
0
  5
2B65
 10
262.324
 20
249.750
 30
0.000000
  70
    32
  0
SEQEND
  8
0
  5
2B66
  0
ARC
  5
271B
  8
0
 10
276.45636584358238
 20
240.850366474975
 30
0.0
 40
2.144566393417437
 50
338.88895846034319
 51
1.6894556033504291
  0
ARC
  5
271C
  8
0
 10
288.63071118379997
 20
236.6656825103
 30
0.0
 40
10.73070226283274
 50
161.4585578706974
 51
198.1877935595023
  0
ARC
  5
271D
  8
0
 10
290.54063978969998
 20
257.94005800700012
 30
0.0
 40
13.421950412128099
 50
207.17255563507871
 51
227.5844283529029
  0
ARC
  5
271E
  8
0
 10
249.44252310659999
 20
257.95091064140001
 30
0.0
 40
13.44132025814895
 50
312.43735481310262
 51
332.8237576530808
  0
ARC
  5
271F
  8
0
 10
259.97594212993829
 20
246.09442536412871
 30
0.0
 40
2.4273425430972981
 50
127.077597636341
 51
181.9463505851927
  0
ARC
  5
2720
  8
0
 10
279.65480458773732
 20
245.9184997717291
 30
0.0
 40
2.7966828209809722
 50
1.8687466809507429
 51
49.056992125606911
  0
ARC
  5
2721
  8
0
 10
118.38368604703869
 20
222.58593337429539
 30
0.0
 40
36.49086074587764
 50
169.97474512381041
 51
171.98317997467069
  0
ARC
  5
2722
  8
0
 10
21.61631395260429
 20
222.58593337423531
 30
0.0
 40
36.49086074623952
 50
8.0168200253435788
 51
10.02525487618637
  0
ARC
  5
2723
  8
0
 10
59.699999999999932
 20
201.65000000000001
 30
0.0
 40
1.5000000000000171
 50
180.98888823330091
 51
260.70461183110172
  0
ARC
  5
2724
  8
0
 10
80.299999999999955
 20
201.65000000000001
 30
0.0
 40
1.5000000000000191
 50
279.29538816889828
 51
359.01111176669912
  0
LINE
  5
2725
  8
0
 10
59.457713419600047
 20
200.16969691850011
 30
0.0
 11
60.799999999999947
 21
199.94999999999999
 31
0.0
  0
LINE
  5
2726
  8
0
 10
79.199999999999932
 20
199.94999999999999
 30
0.0
 11
80.542286580499976
 21
200.16969691850011
 31
0.0
  0
LINE
  5
2727
  8
0
 10
162.24944428910001
 20
227.67508758240001
 30
0.0
 11
161.7999999999999
 21
201.65000000000001
 31
0.0
  0
ARC
  5
2728
  8
0
 10
160.2999999999999
 20
201.65000000000001
 30
0.0
 40
1.5000000000000191
 50
279.29538816889828
 51
0.0
  0
LINE
  5
2729
  8
0
 10
61.400000001799981
 20
256.8447307441001
 30
0.0
 11
61.400000001799981
 21
251.80323760723351
 31
0.0
  0
ARC
  5
272A
  8
0
 10
49.146549062999952
 20
258.19152335439998
 30
0.0
 40
13.818728403765281
 50
312.66984313190312
 51
334.53487321070179
  0
ARC
  5
272B
  8
0
 10
57.717914742900007
 20
254.2371712801
 30
0.0
 40
4.381389866223067
 50
333.02844133439589
 51
29.18725194840373
  0
LINE
  5
272C
  8
0
 10
62.9318666291
 20
264.3647438127
 30
0.0
 11
63.051552322500008
 21
264.44999999999999
 31
0.0
  0
LINE
  5
272D
  8
0
 10
76.948447677499985
 20
264.44999999999999
 30
0.0
 11
63.051552322500008
 21
264.44999999999999
 31
0.0
  0
LINE
  5
272E
  8
0
 10
76.948447677499985
 20
264.44999999999999
 30
0.0
 11
77.068133371000044
 21
264.3647438127
 31
0.0
  0
ARC
  5
272F
  8
0
 10
62.230784535237042
 20
256.83985171666347
 30
0.0
 40
0.8307988600780131
 50
172.5348097779376
 51
214.12081072516261
  0
POLYLINE
  5
2730
  8
0
 10
62.931866629414884
 20
264.36474381273405
 30
0.0
 66
     1
 70
     8
  0
VERTEX
  8
0
  5
2B67
 10
62.9319
 20
264.365
 30
0.000000
  70
    32
  0
VERTEX
  8
0
  5
2B68
 10
62.9198
 20
264.334
 30
0.000000
  70
    32
  0
VERTEX
  8
0
  5
2B69
 10
62.9078
 20
264.304
 30
0.000000
  70
    32
  0
VERTEX
  8
0
  5
2B6A
 10
62.8957
 20
264.272
 30
0.000000
  70
    32
  0
VERTEX
  8
0
  5
2B6B
 10
62.8837
 20
264.241
 30
0.000000
  70
    32
  0
VERTEX
  8
0
  5
2B6C
 10
62.8716
 20
264.209
 30
0.000000
  70
    32
  0
VERTEX
  8
0
  5
2B6D
 10
62.8596
 20
264.176
 30
0.000000
  70
    32
  0
VERTEX
  8
0
  5
2B6E
 10
62.8475
 20
264.143
 30
0.000000
  70
    32
  0
VERTEX
  8
0
  5
2B6F
 10
62.8355
 20
264.110
 30
0.000000
  70
    32
  0
VERTEX
  8
0
  5
2B70
 10
62.8235
 20
264.076
 30
0.000000
  70
    32
  0
VERTEX
  8
0
  5
2B71
 10
62.8114
 20
264.042
 30
0.000000
  70
    32
  0
VERTEX
  8
0
  5
2B72
 10
62.7994
 20
264.007
 30
0.000000
  70
    32
  0
VERTEX
  8
0
  5
2B73
 10
62.7873
 20
263.972
 30
0.000000
  70
    32
  0
VERTEX
  8
0
  5
2B74
 10
62.7753
 20
263.936
 30
0.000000
  70
    32
  0
VERTEX
  8
0
  5
2B75
 10
62.7633
 20
263.900
 30
0.000000
  70
    32
  0
VERTEX
  8
0
  5
2B76
 10
62.7512
 20
263.864
 30
0.000000
  70
    32
  0
VERTEX
  8
0
  5
2B77
 10
62.7392
 20
263.827
 30
0.000000
  70
    32
  0
VERTEX
  8
0
  5
2B78
 10
62.7272
 20
263.790
 30
0.000000
  70
    32
  0
VERTEX
  8
0
  5
2B79
 10
62.7152
 20
263.752
 30
0.000000
  70
    32
  0
VERTEX
  8
0
  5
2B7A
 10
62.7031
 20
263.714
 30
0.000000
  70
    32
  0
VERTEX
  8
0
  5
2B7B
 10
62.6911
 20
263.675
 30
0.000000
  70
    32
  0
VERTEX
  8
0
  5
2B7C
 10
62.6791
 20
263.636
 30
0.000000
  70
    32
  0
VERTEX
  8
0
  5
2B7D
 10
62.6671
 20
263.597
 30
0.000000
  70
    32
  0
VERTEX
  8
0
  5
2B7E
 10
62.6551
 20
263.557
 30
0.000000
  70
    32
  0
VERTEX
  8
0
  5
2B7F
 10
62.6430
 20
263.516
 30
0.000000
  70
    32
  0
VERTEX
  8
0
  5
2B80
 10
62.6310
 20
263.475
 30
0.000000
  70
    32
  0
VERTEX
  8
0
  5
2B81
 10
62.6190
 20
263.434
 30
0.000000
  70
    32
  0
VERTEX
  8
0
  5
2B82
 10
62.6070
 20
263.393
 30
0.000000
  70
    32
  0
VERTEX
  8
0
  5
2B83
 10
62.5950
 20
263.350
 30
0.000000
  70
    32
  0
VERTEX
  8
0
  5
2B84
 10
62.5830
 20
263.308
 30
0.000000
  70
    32
  0
VERTEX
  8
0
  5
2B85
 10
62.5710
 20
263.265
 30
0.000000
  70
    32
  0
VERTEX
  8
0
  5
2B86
 10
62.5590
 20
263.221
 30
0.000000
  70
    32
  0
VERTEX
  8
0
  5
2B87
 10
62.5470
 20
263.178
 30
0.000000
  70
    32
  0
VERTEX
  8
0
  5
2B88
 10
62.5350
 20
263.133
 30
0.000000
  70
    32
  0
VERTEX
  8
0
  5
2B89
 10
62.5230
 20
263.088
 30
0.000000
  70
    32
  0
VERTEX
  8
0
  5
2B8A
 10
62.5110
 20
263.043
 30
0.000000
  70
    32
  0
VERTEX
  8
0
  5
2B8B
 10
62.4990
 20
262.998
 30
0.000000
  70
    32
  0
VERTEX
  8
0
  5
2B8C
 10
62.4870
 20
262.952
 30
0.000000
  70
    32
  0
VERTEX
  8
0
  5
2B8D
 10
62.4750
 20
262.905
 30
0.000000
  70
    32
  0
VERTEX
  8
0
  5
2B8E
 10
62.4630
 20
262.858
 30
0.000000
  70
    32
  0
VERTEX
  8
0
  5
2B8F
 10
62.4511
 20
262.811
 30
0.000000
  70
    32
  0
VERTEX
  8
0
  5
2B90
 10
62.4391
 20
262.763
 30
0.000000
  70
    32
  0
VERTEX
  8
0
  5
2B91
 10
62.4271
 20
262.715
 30
0.000000
  70
    32
  0
VERTEX
  8
0
  5
2B92
 10
62.4151
 20
262.666
 30
0.000000
  70
    32
  0
VERTEX
  8
0
  5
2B93
 10
62.4031
 20
262.617
 30
0.000000
  70
    32
  0
VERTEX
  8
0
  5
2B94
 10
62.3912
 20
262.567
 30
0.000000
  70
    32
  0
VERTEX
  8
0
  5
2B95
 10
62.3792
 20
262.518
 30
0.000000
  70
    32
  0
VERTEX
  8
0
  5
2B96
 10
62.3672
 20
262.467
 30
0.000000
  70
    32
  0
VERTEX
  8
0
  5
2B97
 10
62.3553
 20
262.416
 30
0.000000
  70
    32
  0
VERTEX
  8
0
  5
2B98
 10
62.3433
 20
262.365
 30
0.000000
  70
    32
  0
VERTEX
  8
0
  5
2B99
 10
62.3313
 20
262.313
 30
0.000000
  70
    32
  0
VERTEX
  8
0
  5
2B9A
 10
62.3194
 20
262.261
 30
0.000000
  70
    32
  0
VERTEX
  8
0
  5
2B9B
 10
62.3074
 20
262.209
 30
0.000000
  70
    32
  0
VERTEX
  8
0
  5
2B9C
 10
62.2955
 20
262.156
 30
0.000000
  70
    32
  0
VERTEX
  8
0
  5
2B9D
 10
62.2835
 20
262.102
 30
0.000000
  70
    32
  0
VERTEX
  8
0
  5
2B9E
 10
62.2716
 20
262.048
 30
0.000000
  70
    32
  0
VERTEX
  8
0
  5
2B9F
 10
62.2596
 20
261.994
 30
0.000000
  70
    32
  0
VERTEX
  8
0
  5
2BA0
 10
62.2477
 20
261.939
 30
0.000000
  70
    32
  0
VERTEX
  8
0
  5
2BA1
 10
62.2357
 20
261.884
 30
0.000000
  70
    32
  0
VERTEX
  8
0
  5
2BA2
 10
62.2238
 20
261.828
 30
0.000000
  70
    32
  0
VERTEX
  8
0
  5
2BA3
 10
62.2118
 20
261.772
 30
0.000000
  70
    32
  0
VERTEX
  8
0
  5
2BA4
 10
62.1999
 20
261.716
 30
0.000000
  70
    32
  0
VERTEX
  8
0
  5
2BA5
 10
62.1880
 20
261.659
 30
0.000000
  70
    32
  0
VERTEX
  8
0
  5
2BA6
 10
62.1760
 20
261.601
 30
0.000000
  70
    32
  0
VERTEX
  8
0
  5
2BA7
 10
62.1641
 20
261.544
 30
0.000000
  70
    32
  0
VERTEX
  8
0
  5
2BA8
 10
62.1522
 20
261.485
 30
0.000000
  70
    32
  0
VERTEX
  8
0
  5
2BA9
 10
62.1403
 20
261.427
 30
0.000000
  70
    32
  0
VERTEX
  8
0
  5
2BAA
 10
62.1284
 20
261.368
 30
0.000000
  70
    32
  0
VERTEX
  8
0
  5
2BAB
 10
62.1164
 20
261.308
 30
0.000000
  70
    32
  0
VERTEX
  8
0
  5
2BAC
 10
62.1045
 20
261.248
 30
0.000000
  70
    32
  0
VERTEX
  8
0
  5
2BAD
 10
62.0926
 20
261.188
 30
0.000000
  70
    32
  0
VERTEX
  8
0
  5
2BAE
 10
62.0807
 20
261.127
 30
0.000000
  70
    32
  0
VERTEX
  8
0
  5
2BAF
 10
62.0688
 20
261.066
 30
0.000000
  70
    32
  0
VERTEX
  8
0
  5
2BB0
 10
62.0569
 20
261.004
 30
0.000000
  70
    32
  0
VERTEX
  8
0
  5
2BB1
 10
62.0450
 20
260.942
 30
0.000000
  70
    32
  0
VERTEX
  8
0
  5
2BB2
 10
62.0331
 20
260.879
 30
0.000000
  70
    32
  0
VERTEX
  8
0
  5
2BB3
 10
62.0212
 20
260.816
 30
0.000000
  70
    32
  0
VERTEX
  8
0
  5
2BB4
 10
62.0093
 20
260.753
 30
0.000000
  70
    32
  0
VERTEX
  8
0
  5
2BB5
 10
61.9974
 20
260.689
 30
0.000000
  70
    32
  0
VERTEX
  8
0
  5
2BB6
 10
61.9855
 20
260.625
 30
0.000000
  70
    32
  0
VERTEX
  8
0
  5
2BB7
 10
61.9736
 20
260.560
 30
0.000000
  70
    32
  0
VERTEX
  8
0
  5
2BB8
 10
61.9618
 20
260.495
 30
0.000000
  70
    32
  0
VERTEX
  8
0
  5
2BB9
 10
61.9499
 20
260.429
 30
0.000000
  70
    32
  0
VERTEX
  8
0
  5
2BBA
 10
61.9380
 20
260.363
 30
0.000000
  70
    32
  0
VERTEX
  8
0
  5
2BBB
 10
61.9261
 20
260.297
 30
0.000000
  70
    32
  0
VERTEX
  8
0
  5
2BBC
 10
61.9143
 20
260.230
 30
0.000000
  70
    32
  0
VERTEX
  8
0
  5
2BBD
 10
61.9024
 20
260.163
 30
0.000000
  70
    32
  0
VERTEX
  8
0
  5
2BBE
 10
61.8905
 20
260.095
 30
0.000000
  70
    32
  0
VERTEX
  8
0
  5
2BBF
 10
61.8787
 20
260.027
 30
0.000000
  70
    32
  0
VERTEX
  8
0
  5
2BC0
 10
61.8668
 20
259.958
 30
0.000000
  70
    32
  0
VERTEX
  8
0
  5
2BC1
 10
61.8550
 20
259.889
 30
0.000000
  70
    32
  0
VERTEX
  8
0
  5
2BC2
 10
61.8431
 20
259.820
 30
0.000000
  70
    32
  0
VERTEX
  8
0
  5
2BC3
 10
61.8313
 20
259.750
 30
0.000000
  70
    32
  0
VERTEX
  8
0
  5
2BC4
 10
61.8194
 20
259.679
 30
0.000000
  70
    32
  0
VERTEX
  8
0
  5
2BC5
 10
61.8076
 20
259.609
 30
0.000000
  70
    32
  0
VERTEX
  8
0
  5
2BC6
 10
61.7958
 20
259.538
 30
0.000000
  70
    32
  0
VERTEX
  8
0
  5
2BC7
 10
61.7839
 20
259.466
 30
0.000000
  70
    32
  0
VERTEX
  8
0
  5
2BC8
 10
61.7721
 20
259.394
 30
0.000000
  70
    32
  0
VERTEX
  8
0
  5
2BC9
 10
61.7603
 20
259.321
 30
0.000000
  70
    32
  0
VERTEX
  8
0
  5
2BCA
 10
61.7484
 20
259.249
 30
0.000000
  70
    32
  0
VERTEX
  8
0
  5
2BCB
 10
61.7366
 20
259.175
 30
0.000000
  70
    32
  0
VERTEX
  8
0
  5
2BCC
 10
61.7248
 20
259.101
 30
0.000000
  70
    32
  0
VERTEX
  8
0
  5
2BCD
 10
61.7130
 20
259.027
 30
0.000000
  70
    32
  0
VERTEX
  8
0
  5
2BCE
 10
61.7012
 20
258.953
 30
0.000000
  70
    32
  0
VERTEX
  8
0
  5
2BCF
 10
61.6894
 20
258.878
 30
0.000000
  70
    32
  0
VERTEX
  8
0
  5
2BD0
 10
61.6776
 20
258.802
 30
0.000000
  70
    32
  0
VERTEX
  8
0
  5
2BD1
 10
61.6658
 20
258.726
 30
0.000000
  70
    32
  0
VERTEX
  8
0
  5
2BD2
 10
61.6540
 20
258.650
 30
0.000000
  70
    32
  0
VERTEX
  8
0
  5
2BD3
 10
61.6422
 20
258.573
 30
0.000000
  70
    32
  0
VERTEX
  8
0
  5
2BD4
 10
61.6304
 20
258.496
 30
0.000000
  70
    32
  0
VERTEX
  8
0
  5
2BD5
 10
61.6186
 20
258.418
 30
0.000000
  70
    32
  0
VERTEX
  8
0
  5
2BD6
 10
61.6068
 20
258.340
 30
0.000000
  70
    32
  0
VERTEX
  8
0
  5
2BD7
 10
61.5950
 20
258.262
 30
0.000000
  70
    32
  0
VERTEX
  8
0
  5
2BD8
 10
61.5832
 20
258.183
 30
0.000000
  70
    32
  0
VERTEX
  8
0
  5
2BD9
 10
61.5715
 20
258.103
 30
0.000000
  70
    32
  0
VERTEX
  8
0
  5
2BDA
 10
61.5597
 20
258.024
 30
0.000000
  70
    32
  0
VERTEX
  8
0
  5
2BDB
 10
61.5479
 20
257.943
 30
0.000000
  70
    32
  0
VERTEX
  8
0
  5
2BDC
 10
61.5362
 20
257.863
 30
0.000000
  70
    32
  0
VERTEX
  8
0
  5
2BDD
 10
61.5244
 20
257.782
 30
0.000000
  70
    32
  0
VERTEX
  8
0
  5
2BDE
 10
61.5127
 20
257.700
 30
0.000000
  70
    32
  0
VERTEX
  8
0
  5
2BDF
 10
61.5009
 20
257.618
 30
0.000000
  70
    32
  0
VERTEX
  8
0
  5
2BE0
 10
61.4892
 20
257.536
 30
0.000000
  70
    32
  0
VERTEX
  8
0
  5
2BE1
 10
61.4774
 20
257.453
 30
0.000000
  70
    32
  0
VERTEX
  8
0
  5
2BE2
 10
61.4657
 20
257.370
 30
0.000000
  70
    32
  0
VERTEX
  8
0
  5
2BE3
 10
61.4539
 20
257.287
 30
0.000000
  70
    32
  0
VERTEX
  8
0
  5
2BE4
 10
61.4422
 20
257.202
 30
0.000000
  70
    32
  0
VERTEX
  8
0
  5
2BE5
 10
61.4305
 20
257.118
 30
0.000000
  70
    32
  0
VERTEX
  8
0
  5
2BE6
 10
61.4187
 20
257.033
 30
0.000000
  70
    32
  0
VERTEX
  8
0
  5
2BE7
 10
61.4070
 20
256.948
 30
0.000000
  70
    32
  0
SEQEND
  8
0
  5
2BE8
  0
ARC
  5
2731
  8
0
 10
60.65057733893763
 20
245.77261512951679
 30
0.0
 40
3.1099324693696331
 50
133.4323327169412
 51
175.55475192145141
  0
LINE
  5
2732
  8
0
 10
78.599999998200019
 20
256.8447307441001
 30
0.0
 11
78.599999998200019
 21
251.80323760723351
 31
0.0
  0
ARC
  5
2733
  8
0
 10
90.853450936999934
 20
258.19152335439998
 30
0.0
 40
13.818728403765281
 50
205.4651267892981
 51
227.33015686809691
  0
ARC
  5
2734
  8
0
 10
82.282085257099993
 20
254.2371712801
 30
0.0
 40
4.381389866223067
 50
150.8127480515962
 51
206.97155866560411
  0
ARC
  5
2735
  8
0
 10
77.769215464762965
 20
256.83985171666347
 30
0.0
 40
0.8307988600780131
 50
325.8791892748373
 51
7.4651902220623914
  0
POLYLINE
  5
2736
  8
0
 10
77.068133370585002
 20
264.36474381273405
 30
0.0
 66
     1
 70
     8
  0
VERTEX
  8
0
  5
2BE9
 10
77.0681
 20
264.365
 30
0.000000
  70
    32
  0
VERTEX
  8
0
  5
2BEA
 10
77.0802
 20
264.334
 30
0.000000
  70
    32
  0
VERTEX
  8
0
  5
2BEB
 10
77.0922
 20
264.304
 30
0.000000
  70
    32
  0
VERTEX
  8
0
  5
2BEC
 10
77.1043
 20
264.272
 30
0.000000
  70
    32
  0
VERTEX
  8
0
  5
2BED
 10
77.1163
 20
264.241
 30
0.000000
  70
    32
  0
VERTEX
  8
0
  5
2BEE
 10
77.1284
 20
264.209
 30
0.000000
  70
    32
  0
VERTEX
  8
0
  5
2BEF
 10
77.1404
 20
264.176
 30
0.000000
  70
    32
  0
VERTEX
  8
0
  5
2BF0
 10
77.1525
 20
264.143
 30
0.000000
  70
    32
  0
VERTEX
  8
0
  5
2BF1
 10
77.1645
 20
264.110
 30
0.000000
  70
    32
  0
VERTEX
  8
0
  5
2BF2
 10
77.1765
 20
264.076
 30
0.000000
  70
    32
  0
VERTEX
  8
0
  5
2BF3
 10
77.1886
 20
264.042
 30
0.000000
  70
    32
  0
VERTEX
  8
0
  5
2BF4
 10
77.2006
 20
264.007
 30
0.000000
  70
    32
  0
VERTEX
  8
0
  5
2BF5
 10
77.2127
 20
263.972
 30
0.000000
  70
    32
  0
VERTEX
  8
0
  5
2BF6
 10
77.2247
 20
263.936
 30
0.000000
  70
    32
  0
VERTEX
  8
0
  5
2BF7
 10
77.2367
 20
263.900
 30
0.000000
  70
    32
  0
VERTEX
  8
0
  5
2BF8
 10
77.2488
 20
263.864
 30
0.000000
  70
    32
  0
VERTEX
  8
0
  5
2BF9
 10
77.2608
 20
263.827
 30
0.000000
  70
    32
  0
VERTEX
  8
0
  5
2BFA
 10
77.2728
 20
263.790
 30
0.000000
  70
    32
  0
VERTEX
  8
0
  5
2BFB
 10
77.2848
 20
263.752
 30
0.000000
  70
    32
  0
VERTEX
  8
0
  5
2BFC
 10
77.2969
 20
263.714
 30
0.000000
  70
    32
  0
VERTEX
  8
0
  5
2BFD
 10
77.3089
 20
263.675
 30
0.000000
  70
    32
  0
VERTEX
  8
0
  5
2BFE
 10
77.3209
 20
263.636
 30
0.000000
  70
    32
  0
VERTEX
  8
0
  5
2BFF
 10
77.3329
 20
263.597
 30
0.000000
  70
    32
  0
VERTEX
  8
0
  5
2C00
 10
77.3449
 20
263.557
 30
0.000000
  70
    32
  0
VERTEX
  8
0
  5
2C01
 10
77.3570
 20
263.516
 30
0.000000
  70
    32
  0
VERTEX
  8
0
  5
2C02
 10
77.3690
 20
263.475
 30
0.000000
  70
    32
  0
VERTEX
  8
0
  5
2C03
 10
77.3810
 20
263.434
 30
0.000000
  70
    32
  0
VERTEX
  8
0
  5
2C04
 10
77.3930
 20
263.393
 30
0.000000
  70
    32
  0
VERTEX
  8
0
  5
2C05
 10
77.4050
 20
263.350
 30
0.000000
  70
    32
  0
VERTEX
  8
0
  5
2C06
 10
77.4170
 20
263.308
 30
0.000000
  70
    32
  0
VERTEX
  8
0
  5
2C07
 10
77.4290
 20
263.265
 30
0.000000
  70
    32
  0
VERTEX
  8
0
  5
2C08
 10
77.4410
 20
263.221
 30
0.000000
  70
    32
  0
VERTEX
  8
0
  5
2C09
 10
77.4530
 20
263.178
 30
0.000000
  70
    32
  0
VERTEX
  8
0
  5
2C0A
 10
77.4650
 20
263.133
 30
0.000000
  70
    32
  0
VERTEX
  8
0
  5
2C0B
 10
77.4770
 20
263.088
 30
0.000000
  70
    32
  0
VERTEX
  8
0
  5
2C0C
 10
77.4890
 20
263.043
 30
0.000000
  70
    32
  0
VERTEX
  8
0
  5
2C0D
 10
77.5010
 20
262.998
 30
0.000000
  70
    32
  0
VERTEX
  8
0
  5
2C0E
 10
77.5130
 20
262.952
 30
0.000000
  70
    32
  0
VERTEX
  8
0
  5
2C0F
 10
77.5250
 20
262.905
 30
0.000000
  70
    32
  0
VERTEX
  8
0
  5
2C10
 10
77.5370
 20
262.858
 30
0.000000
  70
    32
  0
VERTEX
  8
0
  5
2C11
 10
77.5489
 20
262.811
 30
0.000000
  70
    32
  0
VERTEX
  8
0
  5
2C12
 10
77.5609
 20
262.763
 30
0.000000
  70
    32
  0
VERTEX
  8
0
  5
2C13
 10
77.5729
 20
262.715
 30
0.000000
  70
    32
  0
VERTEX
  8
0
  5
2C14
 10
77.5849
 20
262.666
 30
0.000000
  70
    32
  0
VERTEX
  8
0
  5
2C15
 10
77.5969
 20
262.617
 30
0.000000
  70
    32
  0
VERTEX
  8
0
  5
2C16
 10
77.6088
 20
262.567
 30
0.000000
  70
    32
  0
VERTEX
  8
0
  5
2C17
 10
77.6208
 20
262.518
 30
0.000000
  70
    32
  0
VERTEX
  8
0
  5
2C18
 10
77.6328
 20
262.467
 30
0.000000
  70
    32
  0
VERTEX
  8
0
  5
2C19
 10
77.6447
 20
262.416
 30
0.000000
  70
    32
  0
VERTEX
  8
0
  5
2C1A
 10
77.6567
 20
262.365
 30
0.000000
  70
    32
  0
VERTEX
  8
0
  5
2C1B
 10
77.6687
 20
262.313
 30
0.000000
  70
    32
  0
VERTEX
  8
0
  5
2C1C
 10
77.6806
 20
262.261
 30
0.000000
  70
    32
  0
VERTEX
  8
0
  5
2C1D
 10
77.6926
 20
262.209
 30
0.000000
  70
    32
  0
VERTEX
  8
0
  5
2C1E
 10
77.7045
 20
262.156
 30
0.000000
  70
    32
  0
VERTEX
  8
0
  5
2C1F
 10
77.7165
 20
262.102
 30
0.000000
  70
    32
  0
VERTEX
  8
0
  5
2C20
 10
77.7284
 20
262.048
 30
0.000000
  70
    32
  0
VERTEX
  8
0
  5
2C21
 10
77.7404
 20
261.994
 30
0.000000
  70
    32
  0
VERTEX
  8
0
  5
2C22
 10
77.7523
 20
261.939
 30
0.000000
  70
    32
  0
VERTEX
  8
0
  5
2C23
 10
77.7643
 20
261.884
 30
0.000000
  70
    32
  0
VERTEX
  8
0
  5
2C24
 10
77.7762
 20
261.828
 30
0.000000
  70
    32
  0
VERTEX
  8
0
  5
2C25
 10
77.7882
 20
261.772
 30
0.000000
  70
    32
  0
VERTEX
  8
0
  5
2C26
 10
77.8001
 20
261.716
 30
0.000000
  70
    32
  0
VERTEX
  8
0
  5
2C27
 10
77.8120
 20
261.659
 30
0.000000
  70
    32
  0
VERTEX
  8
0
  5
2C28
 10
77.8240
 20
261.601
 30
0.000000
  70
    32
  0
VERTEX
  8
0
  5
2C29
 10
77.8359
 20
261.544
 30
0.000000
  70
    32
  0
VERTEX
  8
0
  5
2C2A
 10
77.8478
 20
261.485
 30
0.000000
  70
    32
  0
VERTEX
  8
0
  5
2C2B
 10
77.8597
 20
261.427
 30
0.000000
  70
    32
  0
VERTEX
  8
0
  5
2C2C
 10
77.8716
 20
261.368
 30
0.000000
  70
    32
  0
VERTEX
  8
0
  5
2C2D
 10
77.8836
 20
261.308
 30
0.000000
  70
    32
  0
VERTEX
  8
0
  5
2C2E
 10
77.8955
 20
261.248
 30
0.000000
  70
    32
  0
VERTEX
  8
0
  5
2C2F
 10
77.9074
 20
261.188
 30
0.000000
  70
    32
  0
VERTEX
  8
0
  5
2C30
 10
77.9193
 20
261.127
 30
0.000000
  70
    32
  0
VERTEX
  8
0
  5
2C31
 10
77.9312
 20
261.066
 30
0.000000
  70
    32
  0
VERTEX
  8
0
  5
2C32
 10
77.9431
 20
261.004
 30
0.000000
  70
    32
  0
VERTEX
  8
0
  5
2C33
 10
77.9550
 20
260.942
 30
0.000000
  70
    32
  0
VERTEX
  8
0
  5
2C34
 10
77.9669
 20
260.879
 30
0.000000
  70
    32
  0
VERTEX
  8
0
  5
2C35
 10
77.9788
 20
260.816
 30
0.000000
  70
    32
  0
VERTEX
  8
0
  5
2C36
 10
77.9907
 20
260.753
 30
0.000000
  70
    32
  0
VERTEX
  8
0
  5
2C37
 10
78.0026
 20
260.689
 30
0.000000
  70
    32
  0
VERTEX
  8
0
  5
2C38
 10
78.0145
 20
260.625
 30
0.000000
  70
    32
  0
VERTEX
  8
0
  5
2C39
 10
78.0264
 20
260.560
 30
0.000000
  70
    32
  0
VERTEX
  8
0
  5
2C3A
 10
78.0382
 20
260.495
 30
0.000000
  70
    32
  0
VERTEX
  8
0
  5
2C3B
 10
78.0501
 20
260.429
 30
0.000000
  70
    32
  0
VERTEX
  8
0
  5
2C3C
 10
78.0620
 20
260.363
 30
0.000000
  70
    32
  0
VERTEX
  8
0
  5
2C3D
 10
78.0739
 20
260.297
 30
0.000000
  70
    32
  0
VERTEX
  8
0
  5
2C3E
 10
78.0857
 20
260.230
 30
0.000000
  70
    32
  0
VERTEX
  8
0
  5
2C3F
 10
78.0976
 20
260.163
 30
0.000000
  70
    32
  0
VERTEX
  8
0
  5
2C40
 10
78.1095
 20
260.095
 30
0.000000
  70
    32
  0
VERTEX
  8
0
  5
2C41
 10
78.1213
 20
260.027
 30
0.000000
  70
    32
  0
VERTEX
  8
0
  5
2C42
 10
78.1332
 20
259.958
 30
0.000000
  70
    32
  0
VERTEX
  8
0
  5
2C43
 10
78.1450
 20
259.889
 30
0.000000
  70
    32
  0
VERTEX
  8
0
  5
2C44
 10
78.1569
 20
259.820
 30
0.000000
  70
    32
  0
VERTEX
  8
0
  5
2C45
 10
78.1687
 20
259.750
 30
0.000000
  70
    32
  0
VERTEX
  8
0
  5
2C46
 10
78.1806
 20
259.679
 30
0.000000
  70
    32
  0
VERTEX
  8
0
  5
2C47
 10
78.1924
 20
259.609
 30
0.000000
  70
    32
  0
VERTEX
  8
0
  5
2C48
 10
78.2042
 20
259.538
 30
0.000000
  70
    32
  0
VERTEX
  8
0
  5
2C49
 10
78.2161
 20
259.466
 30
0.000000
  70
    32
  0
VERTEX
  8
0
  5
2C4A
 10
78.2279
 20
259.394
 30
0.000000
  70
    32
  0
VERTEX
  8
0
  5
2C4B
 10
78.2397
 20
259.321
 30
0.000000
  70
    32
  0
VERTEX
  8
0
  5
2C4C
 10
78.2516
 20
259.249
 30
0.000000
  70
    32
  0
VERTEX
  8
0
  5
2C4D
 10
78.2634
 20
259.175
 30
0.000000
  70
    32
  0
VERTEX
  8
0
  5
2C4E
 10
78.2752
 20
259.101
 30
0.000000
  70
    32
  0
VERTEX
  8
0
  5
2C4F
 10
78.2870
 20
259.027
 30
0.000000
  70
    32
  0
VERTEX
  8
0
  5
2C50
 10
78.2988
 20
258.953
 30
0.000000
  70
    32
  0
VERTEX
  8
0
  5
2C51
 10
78.3106
 20
258.878
 30
0.000000
  70
    32
  0
VERTEX
  8
0
  5
2C52
 10
78.3224
 20
258.802
 30
0.000000
  70
    32
  0
VERTEX
  8
0
  5
2C53
 10
78.3342
 20
258.726
 30
0.000000
  70
    32
  0
VERTEX
  8
0
  5
2C54
 10
78.3460
 20
258.650
 30
0.000000
  70
    32
  0
VERTEX
  8
0
  5
2C55
 10
78.3578
 20
258.573
 30
0.000000
  70
    32
  0
VERTEX
  8
0
  5
2C56
 10
78.3696
 20
258.496
 30
0.000000
  70
    32
  0
VERTEX
  8
0
  5
2C57
 10
78.3814
 20
258.418
 30
0.000000
  70
    32
  0
VERTEX
  8
0
  5
2C58
 10
78.3932
 20
258.340
 30
0.000000
  70
    32
  0
VERTEX
  8
0
  5
2C59
 10
78.4050
 20
258.262
 30
0.000000
  70
    32
  0
VERTEX
  8
0
  5
2C5A
 10
78.4168
 20
258.183
 30
0.000000
  70
    32
  0
VERTEX
  8
0
  5
2C5B
 10
78.4285
 20
258.103
 30
0.000000
  70
    32
  0
VERTEX
  8
0
  5
2C5C
 10
78.4403
 20
258.024
 30
0.000000
  70
    32
  0
VERTEX
  8
0
  5
2C5D
 10
78.4521
 20
257.943
 30
0.000000
  70
    32
  0
VERTEX
  8
0
  5
2C5E
 10
78.4638
 20
257.863
 30
0.000000
  70
    32
  0
VERTEX
  8
0
  5
2C5F
 10
78.4756
 20
257.782
 30
0.000000
  70
    32
  0
VERTEX
  8
0
  5
2C60
 10
78.4873
 20
257.700
 30
0.000000
  70
    32
  0
VERTEX
  8
0
  5
2C61
 10
78.4991
 20
257.618
 30
0.000000
  70
    32
  0
VERTEX
  8
0
  5
2C62
 10
78.5108
 20
257.536
 30
0.000000
  70
    32
  0
VERTEX
  8
0
  5
2C63
 10
78.5226
 20
257.453
 30
0.000000
  70
    32
  0
VERTEX
  8
0
  5
2C64
 10
78.5343
 20
257.370
 30
0.000000
  70
    32
  0
VERTEX
  8
0
  5
2C65
 10
78.5461
 20
257.287
 30
0.000000
  70
    32
  0
VERTEX
  8
0
  5
2C66
 10
78.5578
 20
257.202
 30
0.000000
  70
    32
  0
VERTEX
  8
0
  5
2C67
 10
78.5695
 20
257.118
 30
0.000000
  70
    32
  0
VERTEX
  8
0
  5
2C68
 10
78.5813
 20
257.033
 30
0.000000
  70
    32
  0
VERTEX
  8
0
  5
2C69
 10
78.5930
 20
256.948
 30
0.000000
  70
    32
  0
SEQEND
  8
0
  5
2C6A
  0
ARC
  5
2737
  8
0
 10
79.349422661062249
 20
245.77261512951679
 30
0.0
 40
3.1099324693696331
 50
4.4452480785486062
 51
46.567667283058782
  0
LINE
  5
2738
  8
0
 10
57.55000000004997
 20
246.0136548137001
 30
0.0
 11
57.55000000004997
 21
228.9383443376
 31
0.0
  0
LINE
  5
2739
  8
0
 10
82.450000000050053
 20
228.9383443376
 30
0.0
 11
82.450000000050053
 21
246.0136548137001
 31
0.0
  0
LINE
  5
273A
  8
0
 10
257.7505557108999
 20
227.67508758240001
 30
0.0
 11
258.20022340849988
 21
201.6241122519001
 31
0.0
  0
LINE
  5
273B
  8
0
 10
281.79977659149989
 20
201.6241122519001
 30
0.0
 11
282.24944428919991
 21
227.67508758240001
 31
0.0
  0
LINE
  5
273C
  8
0
 10
57.750555710900016
 20
227.67508758240001
 30
0.0
 11
58.200000000000038
 21
201.65000000000001
 31
0.0
  0
LINE
  5
273D
  8
0
 10
82.249444289099969
 20
227.67508758240001
 30
0.0
 11
81.799999999999955
 21
201.65000000000001
 31
0.0
  0
POLYLINE
  5
273E
  8
0
 66
     1
 10
0.0
 20
0.0
 30
0.0
  0
VERTEX
  5
273F
  8
0
 10
57.55000000005009
 20
246.01365481415939
 30
0.0
 42
0.1804470622436327
  0
VERTEX
  5
2740
  8
0
 10
58.294362028764787
 20
244.01826419421289
 30
0.0
 42
0.103077630965543
  0
VERTEX
  5
2741
  8
0
 10
61.196520574146462
 20
241.80624199237451
 30
0.0
 42
0.0626810158734109
 70
     2
 50
334.45564591193568
  0
VERTEX
  5
2742
  8
0
 10
64.955147527878793
 20
240.5580240940146
 30
0.0
 42
0.0488980678205214
 50
334.45564591193568
  0
VERTEX
  5
2743
  8
0
 10
69.999999999850047
 20
240.0634745388372
 30
0.0
 42
0.0488980678205202
  0
VERTEX
  5
2744
  8
0
 10
75.044852471850504
 20
240.55802409371799
 30
0.0
 42
0.0626810158734071
  0
VERTEX
  5
2745
  8
0
 10
78.803479425655951
 20
241.80624199185701
 30
0.0
 42
0.1030776309655196
 70
     2
 50
25.54435408469606
  0
VERTEX
  5
2746
  8
0
 10
81.705637971167789
 20
244.01826419352469
 30
0.0
 42
0.1804470622512109
 50
25.54435408469606
  0
VERTEX
  5
2747
  8
0
 10
82.449999999999932
 20
246.01365481351709
 30
0.0
 42
0.1804470622512082
  0
SEQEND
  5
2748
  8
0
  0
LINE
  5
2749
  8
0
 10
261.4000000000002
 20
257.10534905053731
 30
0.0
 11
261.39999999999998
 21
240.91359320362221
 31
0.0
  0
POLYLINE
  5
274A
  8
0
 10
261.40000000000015
 20
257.10534905053714
 30
0.0
 66
     1
 70
     8
  0
VERTEX
  8
0
  5
2C6B
 10
261.400
 20
257.105
 30
0.000000
  70
    32
  0
VERTEX
  8
0
  5
2C6C
 10
261.412
 20
257.188
 30
0.000000
  70
    32
  0
VERTEX
  8
0
  5
2C6D
 10
261.423
 20
257.271
 30
0.000000
  70
    32
  0
VERTEX
  8
0
  5
2C6E
 10
261.435
 20
257.353
 30
0.000000
  70
    32
  0
VERTEX
  8
0
  5
2C6F
 10
261.446
 20
257.435
 30
0.000000
  70
    32
  0
VERTEX
  8
0
  5
2C70
 10
261.458
 20
257.516
 30
0.000000
  70
    32
  0
VERTEX
  8
0
  5
2C71
 10
261.469
 20
257.597
 30
0.000000
  70
    32
  0
VERTEX
  8
0
  5
2C72
 10
261.481
 20
257.678
 30
0.000000
  70
    32
  0
VERTEX
  8
0
  5
2C73
 10
261.492
 20
257.758
 30
0.000000
  70
    32
  0
VERTEX
  8
0
  5
2C74
 10
261.504
 20
257.838
 30
0.000000
  70
    32
  0
VERTEX
  8
0
  5
2C75
 10
261.516
 20
257.917
 30
0.000000
  70
    32
  0
VERTEX
  8
0
  5
2C76
 10
261.527
 20
257.996
 30
0.000000
  70
    32
  0
VERTEX
  8
0
  5
2C77
 10
261.539
 20
258.074
 30
0.000000
  70
    32
  0
VERTEX
  8
0
  5
2C78
 10
261.550
 20
258.152
 30
0.000000
  70
    32
  0
VERTEX
  8
0
  5
2C79
 10
261.562
 20
258.230
 30
0.000000
  70
    32
  0
VERTEX
  8
0
  5
2C7A
 10
261.573
 20
258.307
 30
0.000000
  70
    32
  0
VERTEX
  8
0
  5
2C7B
 10
261.585
 20
258.384
 30
0.000000
  70
    32
  0
VERTEX
  8
0
  5
2C7C
 10
261.597
 20
258.461
 30
0.000000
  70
    32
  0
VERTEX
  8
0
  5
2C7D
 10
261.608
 20
258.537
 30
0.000000
  70
    32
  0
VERTEX
  8
0
  5
2C7E
 10
261.620
 20
258.612
 30
0.000000
  70
    32
  0
VERTEX
  8
0
  5
2C7F
 10
261.631
 20
258.687
 30
0.000000
  70
    32
  0
VERTEX
  8
0
  5
2C80
 10
261.643
 20
258.762
 30
0.000000
  70
    32
  0
VERTEX
  8
0
  5
2C81
 10
261.655
 20
258.836
 30
0.000000
  70
    32
  0
VERTEX
  8
0
  5
2C82
 10
261.666
 20
258.910
 30
0.000000
  70
    32
  0
VERTEX
  8
0
  5
2C83
 10
261.678
 20
258.984
 30
0.000000
  70
    32
  0
VERTEX
  8
0
  5
2C84
 10
261.689
 20
259.057
 30
0.000000
  70
    32
  0
VERTEX
  8
0
  5
2C85
 10
261.701
 20
259.130
 30
0.000000
  70
    32
  0
VERTEX
  8
0
  5
2C86
 10
261.713
 20
259.202
 30
0.000000
  70
    32
  0
VERTEX
  8
0
  5
2C87
 10
261.724
 20
259.274
 30
0.000000
  70
    32
  0
VERTEX
  8
0
  5
2C88
 10
261.736
 20
259.345
 30
0.000000
  70
    32
  0
VERTEX
  8
0
  5
2C89
 10
261.748
 20
259.416
 30
0.000000
  70
    32
  0
VERTEX
  8
0
  5
2C8A
 10
261.759
 20
259.487
 30
0.000000
  70
    32
  0
VERTEX
  8
0
  5
2C8B
 10
261.771
 20
259.557
 30
0.000000
  70
    32
  0
VERTEX
  8
0
  5
2C8C
 10
261.783
 20
259.627
 30
0.000000
  70
    32
  0
VERTEX
  8
0
  5
2C8D
 10
261.794
 20
259.696
 30
0.000000
  70
    32
  0
VERTEX
  8
0
  5
2C8E
 10
261.806
 20
259.765
 30
0.000000
  70
    32
  0
VERTEX
  8
0
  5
2C8F
 10
261.817
 20
259.833
 30
0.000000
  70
    32
  0
VERTEX
  8
0
  5
2C90
 10
261.829
 20
259.901
 30
0.000000
  70
    32
  0
VERTEX
  8
0
  5
2C91
 10
261.841
 20
259.969
 30
0.000000
  70
    32
  0
VERTEX
  8
0
  5
2C92
 10
261.852
 20
260.036
 30
0.000000
  70
    32
  0
VERTEX
  8
0
  5
2C93
 10
261.864
 20
260.103
 30
0.000000
  70
    32
  0
VERTEX
  8
0
  5
2C94
 10
261.876
 20
260.170
 30
0.000000
  70
    32
  0
VERTEX
  8
0
  5
2C95
 10
261.887
 20
260.236
 30
0.000000
  70
    32
  0
VERTEX
  8
0
  5
2C96
 10
261.899
 20
260.301
 30
0.000000
  70
    32
  0
VERTEX
  8
0
  5
2C97
 10
261.911
 20
260.366
 30
0.000000
  70
    32
  0
VERTEX
  8
0
  5
2C98
 10
261.922
 20
260.431
 30
0.000000
  70
    32
  0
VERTEX
  8
0
  5
2C99
 10
261.934
 20
260.496
 30
0.000000
  70
    32
  0
VERTEX
  8
0
  5
2C9A
 10
261.946
 20
260.559
 30
0.000000
  70
    32
  0
VERTEX
  8
0
  5
2C9B
 10
261.958
 20
260.623
 30
0.000000
  70
    32
  0
VERTEX
  8
0
  5
2C9C
 10
261.969
 20
260.686
 30
0.000000
  70
    32
  0
VERTEX
  8
0
  5
2C9D
 10
261.981
 20
260.749
 30
0.000000
  70
    32
  0
VERTEX
  8
0
  5
2C9E
 10
261.993
 20
260.811
 30
0.000000
  70
    32
  0
VERTEX
  8
0
  5
2C9F
 10
262.004
 20
260.873
 30
0.000000
  70
    32
  0
VERTEX
  8
0
  5
2CA0
 10
262.016
 20
260.934
 30
0.000000
  70
    32
  0
VERTEX
  8
0
  5
2CA1
 10
262.028
 20
260.995
 30
0.000000
  70
    32
  0
VERTEX
  8
0
  5
2CA2
 10
262.039
 20
261.056
 30
0.000000
  70
    32
  0
VERTEX
  8
0
  5
2CA3
 10
262.051
 20
261.116
 30
0.000000
  70
    32
  0
VERTEX
  8
0
  5
2CA4
 10
262.063
 20
261.176
 30
0.000000
  70
    32
  0
VERTEX
  8
0
  5
2CA5
 10
262.075
 20
261.235
 30
0.000000
  70
    32
  0
VERTEX
  8
0
  5
2CA6
 10
262.086
 20
261.294
 30
0.000000
  70
    32
  0
VERTEX
  8
0
  5
2CA7
 10
262.098
 20
261.352
 30
0.000000
  70
    32
  0
VERTEX
  8
0
  5
2CA8
 10
262.110
 20
261.411
 30
0.000000
  70
    32
  0
VERTEX
  8
0
  5
2CA9
 10
262.121
 20
261.468
 30
0.000000
  70
    32
  0
VERTEX
  8
0
  5
2CAA
 10
262.133
 20
261.525
 30
0.000000
  70
    32
  0
VERTEX
  8
0
  5
2CAB
 10
262.145
 20
261.582
 30
0.000000
  70
    32
  0
VERTEX
  8
0
  5
2CAC
 10
262.157
 20
261.639
 30
0.000000
  70
    32
  0
VERTEX
  8
0
  5
2CAD
 10
262.168
 20
261.695
 30
0.000000
  70
    32
  0
VERTEX
  8
0
  5
2CAE
 10
262.180
 20
261.750
 30
0.000000
  70
    32
  0
VERTEX
  8
0
  5
2CAF
 10
262.192
 20
261.805
 30
0.000000
  70
    32
  0
VERTEX
  8
0
  5
2CB0
 10
262.204
 20
261.860
 30
0.000000
  70
    32
  0
VERTEX
  8
0
  5
2CB1
 10
262.215
 20
261.914
 30
0.000000
  70
    32
  0
VERTEX
  8
0
  5
2CB2
 10
262.227
 20
261.968
 30
0.000000
  70
    32
  0
VERTEX
  8
0
  5
2CB3
 10
262.239
 20
262.022
 30
0.000000
  70
    32
  0
VERTEX
  8
0
  5
2CB4
 10
262.251
 20
262.075
 30
0.000000
  70
    32
  0
VERTEX
  8
0
  5
2CB5
 10
262.262
 20
262.127
 30
0.000000
  70
    32
  0
VERTEX
  8
0
  5
2CB6
 10
262.274
 20
262.179
 30
0.000000
  70
    32
  0
VERTEX
  8
0
  5
2CB7
 10
262.286
 20
262.231
 30
0.000000
  70
    32
  0
VERTEX
  8
0
  5
2CB8
 10
262.298
 20
262.282
 30
0.000000
  70
    32
  0
VERTEX
  8
0
  5
2CB9
 10
262.309
 20
262.333
 30
0.000000
  70
    32
  0
VERTEX
  8
0
  5
2CBA
 10
262.321
 20
262.384
 30
0.000000
  70
    32
  0
VERTEX
  8
0
  5
2CBB
 10
262.333
 20
262.434
 30
0.000000
  70
    32
  0
VERTEX
  8
0
  5
2CBC
 10
262.345
 20
262.484
 30
0.000000
  70
    32
  0
VERTEX
  8
0
  5
2CBD
 10
262.356
 20
262.533
 30
0.000000
  70
    32
  0
VERTEX
  8
0
  5
2CBE
 10
262.368
 20
262.582
 30
0.000000
  70
    32
  0
VERTEX
  8
0
  5
2CBF
 10
262.380
 20
262.630
 30
0.000000
  70
    32
  0
VERTEX
  8
0
  5
2CC0
 10
262.392
 20
262.678
 30
0.000000
  70
    32
  0
VERTEX
  8
0
  5
2CC1
 10
262.404
 20
262.726
 30
0.000000
  70
    32
  0
VERTEX
  8
0
  5
2CC2
 10
262.415
 20
262.773
 30
0.000000
  70
    32
  0
VERTEX
  8
0
  5
2CC3
 10
262.427
 20
262.820
 30
0.000000
  70
    32
  0
VERTEX
  8
0
  5
2CC4
 10
262.439
 20
262.866
 30
0.000000
  70
    32
  0
VERTEX
  8
0
  5
2CC5
 10
262.451
 20
262.912
 30
0.000000
  70
    32
  0
VERTEX
  8
0
  5
2CC6
 10
262.462
 20
262.957
 30
0.000000
  70
    32
  0
VERTEX
  8
0
  5
2CC7
 10
262.474
 20
263.002
 30
0.000000
  70
    32
  0
VERTEX
  8
0
  5
2CC8
 10
262.486
 20
263.047
 30
0.000000
  70
    32
  0
VERTEX
  8
0
  5
2CC9
 10
262.498
 20
263.091
 30
0.000000
  70
    32
  0
VERTEX
  8
0
  5
2CCA
 10
262.510
 20
263.135
 30
0.000000
  70
    32
  0
VERTEX
  8
0
  5
2CCB
 10
262.521
 20
263.178
 30
0.000000
  70
    32
  0
VERTEX
  8
0
  5
2CCC
 10
262.533
 20
263.221
 30
0.000000
  70
    32
  0
VERTEX
  8
0
  5
2CCD
 10
262.545
 20
263.264
 30
0.000000
  70
    32
  0
VERTEX
  8
0
  5
2CCE
 10
262.557
 20
263.306
 30
0.000000
  70
    32
  0
VERTEX
  8
0
  5
2CCF
 10
262.569
 20
263.347
 30
0.000000
  70
    32
  0
VERTEX
  8
0
  5
2CD0
 10
262.581
 20
263.389
 30
0.000000
  70
    32
  0
VERTEX
  8
0
  5
2CD1
 10
262.592
 20
263.429
 30
0.000000
  70
    32
  0
VERTEX
  8
0
  5
2CD2
 10
262.604
 20
263.470
 30
0.000000
  70
    32
  0
VERTEX
  8
0
  5
2CD3
 10
262.616
 20
263.510
 30
0.000000
  70
    32
  0
VERTEX
  8
0
  5
2CD4
 10
262.628
 20
263.549
 30
0.000000
  70
    32
  0
VERTEX
  8
0
  5
2CD5
 10
262.640
 20
263.588
 30
0.000000
  70
    32
  0
VERTEX
  8
0
  5
2CD6
 10
262.651
 20
263.627
 30
0.000000
  70
    32
  0
VERTEX
  8
0
  5
2CD7
 10
262.663
 20
263.665
 30
0.000000
  70
    32
  0
VERTEX
  8
0
  5
2CD8
 10
262.675
 20
263.703
 30
0.000000
  70
    32
  0
VERTEX
  8
0
  5
2CD9
 10
262.687
 20
263.741
 30
0.000000
  70
    32
  0
VERTEX
  8
0
  5
2CDA
 10
262.699
 20
263.778
 30
0.000000
  70
    32
  0
VERTEX
  8
0
  5
2CDB
 10
262.711
 20
263.814
 30
0.000000
  70
    32
  0
VERTEX
  8
0
  5
2CDC
 10
262.722
 20
263.850
 30
0.000000
  70
    32
  0
VERTEX
  8
0
  5
2CDD
 10
262.734
 20
263.886
 30
0.000000
  70
    32
  0
VERTEX
  8
0
  5
2CDE
 10
262.746
 20
263.921
 30
0.000000
  70
    32
  0
VERTEX
  8
0
  5
2CDF
 10
262.758
 20
263.956
 30
0.000000
  70
    32
  0
VERTEX
  8
0
  5
2CE0
 10
262.770
 20
263.991
 30
0.000000
  70
    32
  0
VERTEX
  8
0
  5
2CE1
 10
262.782
 20
264.025
 30
0.000000
  70
    32
  0
VERTEX
  8
0
  5
2CE2
 10
262.793
 20
264.058
 30
0.000000
  70
    32
  0
VERTEX
  8
0
  5
2CE3
 10
262.805
 20
264.092
 30
0.000000
  70
    32
  0
VERTEX
  8
0
  5
2CE4
 10
262.817
 20
264.124
 30
0.000000
  70
    32
  0
VERTEX
  8
0
  5
2CE5
 10
262.829
 20
264.157
 30
0.000000
  70
    32
  0
VERTEX
  8
0
  5
2CE6
 10
262.841
 20
264.189
 30
0.000000
  70
    32
  0
VERTEX
  8
0
  5
2CE7
 10
262.853
 20
264.220
 30
0.000000
  70
    32
  0
VERTEX
  8
0
  5
2CE8
 10
262.864
 20
264.251
 30
0.000000
  70
    32
  0
VERTEX
  8
0
  5
2CE9
 10
262.876
 20
264.282
 30
0.000000
  70
    32
  0
VERTEX
  8
0
  5
2CEA
 10
262.888
 20
264.312
 30
0.000000
  70
    32
  0
VERTEX
  8
0
  5
2CEB
 10
262.900
 20
264.342
 30
0.000000
  70
    32
  0
SEQEND
  8
0
  5
2CEC
  0
ARC
  5
274B
  8
0
 10
263.54363415641762
 20
240.85036647497509
 30
0.0
 40
2.144566393417437
 50
178.31054439664791
 51
201.11104153965681
  0
ARC
  5
274C
  8
0
 10
251.36928881619991
 20
236.66568251030029
 30
0.0
 40
10.73070226283274
 50
341.8122064404962
 51
18.541442129302599
  0
ENDSEC
  0
EOF
