  0
SECTION
  2
HEADER
  9
$ACADVER
  1
AC1009
  9
$INSBASE
 10
0.0
 20
0.0
 30
0.0
  9
$EXTMIN
 10
0.0
 20
-2.960436562073669
 30
0.0
  9
$EXTMAX
 10
282.44999999999999
 20
299.35000000000008
 30
0.0
  9
$LIMMIN
 10
0.0
 20
0.0
  9
$LIMMAX
 10
187.5
 20
135.0
  9
$ORTHOMODE
 70
     1
  9
$REGENMODE
 70
     1
  9
$FILLMODE
 70
     1
  9
$QTEXTMODE
 70
     0
  9
$MIRRTEXT
 70
     0
  9
$DRAGMODE
 70
     2
  9
$LTSCALE
 40
10.0
  9
$OSMODE
 70
    37
  9
$ATTMODE
 70
     1
  9
$TEXTSIZE
 40
4.0
  9
$TRACEWID
 40
0.05
  9
$TEXTSTYLE
  7
STANDARD
  9
$CLAYER
  8
0
  9
$CELTYPE
  6
BYLAYER
  9
$CECOLOR
 62
   256
  9
$DIMSCALE
 40
0.5
  9
$DIMASZ
 40
3.0
  9
$DIMEXO
 40
2.0
  9
$DIMDLI
 40
0.38
  9
$DIMRND
 40
0.0
  9
$DIMDLE
 40
0.0
  9
$DIMEXE
 40
2.0
  9
$DIMTP
 40
0.0
  9
$DIMTM
 40
0.0
  9
$DIMTXT
 40
3.0
  9
$DIMCEN
 40
0.0
  9
$DIMTSZ
 40
0.0
  9
$DIMTOL
 70
     0
  9
$DIMLIM
 70
     0
  9
$DIMTIH
 70
     0
  9
$DIMTOH
 70
     0
  9
$DIMSE1
 70
     0
  9
$DIMSE2
 70
     0
  9
$DIMTAD
 70
     1
  9
$DIMZIN
 70
     0
  9
$DIMBLK
  1

  9
$DIMASO
 70
     0
  9
$DIMSHO
 70
     0
  9
$DIMPOST
  1

  9
$DIMAPOST
  1

  9
$DIMALT
 70
     0
  9
$DIMALTD
 70
     2
  9
$DIMALTF
 40
25.399999999999999
  9
$DIMLFAC
 40
1.0
  9
$DIMTOFL
 70
     0
  9
$DIMTVP
 40
1.6000000000000001
  9
$DIMTIX
 70
     1
  9
$DIMSOXD
 70
     0
  9
$DIMSAH
 70
     0
  9
$DIMBLK1
  1

  9
$DIMBLK2
  1

  9
$DIMSTYLE
  2
STANDARD
  9
$DIMCLRD
 70
     0
  9
$DIMCLRE
 70
     0
  9
$DIMCLRT
 70
     0
  9
$DIMTFAC
 40
1.0
  9
$DIMGAP
 40
0.09
  9
$LUNITS
 70
     2
  9
$LUPREC
 70
     4
  9
$SKETCHINC
 40
0.1
  9
$FILLETRAD
 40
1.25
  9
$AUNITS
 70
     0
  9
$AUPREC
 70
     0
  9
$MENU
  1
E:\r13\win\SUPPORT\ACAD
  9
$ELEVATION
 40
0.0
  9
$PELEVATION
 40
0.0
  9
$THICKNESS
 40
0.0
  9
$LIMCHECK
 70
     0
  9
$BLIPMODE
 70
     0
  9
$CHAMFERA
 40
0.0
  9
$CHAMFERB
 40
0.0
  9
$SKPOLY
 70
     0
  9
$TDCREATE
 40
2449840.6143865739
  9
$TDUPDATE
 40
2458820.7245652322
  9
$TDINDWG
 40
0.3972843866
  9
$TDUSRTIMER
 40
0.3972843866
  9
$USRTIMER
 70
     1
  9
$ANGBASE
 50
0.0
  9
$ANGDIR
 70
     0
  9
$PDMODE
 70
     0
  9
$PDSIZE
 40
0.0
  9
$PLINEWID
 40
0.0
  9
$COORDS
 70
     1
  9
$SPLFRAME
 70
     0
  9
$SPLINETYPE
 70
     6
  9
$SPLINESEGS
 70
     8
  9
$ATTDIA
 70
     0
  9
$ATTREQ
 70
     1
  9
$HANDLING
 70
     1
  9
$HANDSEED
  5
2AF3
  9
$SURFTAB1
 70
     6
  9
$SURFTAB2
 70
     6
  9
$SURFTYPE
 70
     6
  9
$SURFU
 70
     6
  9
$SURFV
 70
     6
  9
$UCSNAME
  2

  9
$UCSORG
 10
0.0
 20
0.0
 30
0.0
  9
$UCSXDIR
 10
1.0
 20
0.0
 30
0.0
  9
$UCSYDIR
 10
0.0
 20
1.0
 30
0.0
  9
$PUCSNAME
  2

  9
$PUCSORG
 10
0.0
 20
0.0
 30
0.0
  9
$PUCSXDIR
 10
1.0
 20
0.0
 30
0.0
  9
$PUCSYDIR
 10
0.0
 20
1.0
 30
0.0
  9
$USERI1
 70
     0
  9
$USERI2
 70
     1
  9
$USERI3
 70
     1
  9
$USERI4
 70
     0
  9
$USERI5
 70
     0
  9
$USERR1
 40
0.0
  9
$USERR2
 40
0.0
  9
$USERR3
 40
0.0
  9
$USERR4
 40
0.0
  9
$USERR5
 40
0.0
  9
$WORLDVIEW
 70
     1
  9
$SHADEDGE
 70
     3
  9
$SHADEDIF
 70
    70
  9
$TILEMODE
 70
     1
  9
$MAXACTVP
 70
    16
  9
$PLIMCHECK
 70
     0
  9
$PEXTMIN
 10
1.0000000000000000E+020
 20
1.0000000000000000E+020
 30
1.0000000000000000E+020
  9
$PEXTMAX
 10
-1.0000000000000000E+020
 20
-1.0000000000000000E+020
 30
-1.0000000000000000E+020
  9
$PLIMMIN
 10
0.0
 20
0.0
  9
$PLIMMAX
 10
12.0
 20
9.0
  9
$UNITMODE
 70
     0
  9
$VISRETAIN
 70
     0
  9
$PLINEGEN
 70
     0
  9
$PSLTSCALE
 70
     0
  0
ENDSEC
  0
SECTION
  2
TABLES
  0
TABLE
  2
VPORT
 70
     1
  0
VPORT
  2
*ACTIVE
 70
     0
 10
0.0
 20
0.0
 11
1.0
 21
1.0
 12
305.59961596781221
 22
148.1947831267488
 13
0.0
 23
0.0
 14
5.0
 24
5.0
 15
5.0
 25
5.0
 16
0.0
 26
0.0
 36
1.0
 17
0.0
 27
0.0
 37
0.0
 40
304.97264334296449
 41
2.415644171779141
 42
50.0
 43
0.0
 44
0.0
 50
0.0
 51
0.0
 71
     0
 72
   100
 73
     1
 74
     0
 75
     0
 76
     0
 77
     0
 78
     0
  0
ENDTAB
  0
TABLE
  2
LTYPE
 70
     4
  0
LTYPE
  2
CONTINUOUS
 70
     0
  3
Solid Line
 72
    65
 73
     0
 40
0.0
  0
LTYPE
  2
CENTER
 70
     0
  3
____ _ ____ _ ____ _ ____ _ ____ _ ____ _ ____
 72
    65
 73
     4
 40
2.0
 49
1.25
 49
-0.25
 49
0.25
 49
-0.25
  0
LTYPE
  2
HIDDEN
 70
     0
  3
_ _ _ _ _ _ _ _ _ _ _ _ _ _ _ _ _ _ _ _ _ _ _
 72
    65
 73
     2
 40
0.375
 49
0.25
 49
-0.125
  0
LTYPE
  2
PHANTOM2
 70
     0
  3
___ _ _ ___ _ _ ___ _ _ ___ _ _
 72
    65
 73
     6
 40
1.25
 49
0.625
 49
-0.125
 49
0.125
 49
-0.125
 49
0.125
 49
-0.125
  0
ENDTAB
  0
TABLE
  2
LAYER
 70
     5
  0
LAYER
  2
0
 70
     0
 62
     7
  6
CONTINUOUS
  0
LAYER
  2
1
 70
     0
 62
     1
  6
CENTER
  0
LAYER
  2
2
 70
     0
 62
     2
  6
HIDDEN
  0
LAYER
  2
3
 70
     0
 62
     3
  6
CONTINUOUS
  0
LAYER
  2
DEFPOINTS
 70
     0
 62
     7
  6
CONTINUOUS
  0
ENDTAB
  0
TABLE
  2
STYLE
 70
     2
  0
STYLE
  2
STANDARD
 70
     0
 40
0.0
 41
1.0
 50
0.0
 71
     0
 42
4.0
  3
TXT
  4
BIGFONT
  0
STYLE
  2
STANDARD1
 70
     0
 40
0.0
 41
1.0
 50
0.0
 71
     0
 42
3.0
  3
txt
  4

  0
ENDTAB
  0
TABLE
  2
VIEW
 70
     1
  0
VIEW
  2
ALL
 70
     0
 40
179.66152299999999
 10
141.903918
 20
89.830760999999995
 41
0.0
 11
0.0
 21
0.0
 31
1.0
 12
0.0
 22
0.0
 32
0.0
 42
0.0
 43
0.0
 44
0.0
 50
0.0
 71
     0
  0
ENDTAB
  0
TABLE
  2
UCS
 70
     0
  0
ENDTAB
  0
TABLE
  2
APPID
 70
     5
  0
APPID
  2
ACAD
 70
     0
  0
APPID
  2
DCO15
 70
     0
  0
APPID
  2
ACAD_MLEADERVER
 70
     0
  0
APPID
  2
ACAD_NAV_VCDISPLAY
 70
     0
  0
APPID
  2
ACAD_EXEMPT_FROM_CAD_STANDARDS
 70
     0
  0
ENDTAB
  0
TABLE
  2
DIMSTYLE
 70
     1
  0
DIMSTYLE
  2
STANDARD
 70
     0
  3

  4

  5

  6

  7

 40
1.0
 41
0.18
 42
0.0625
 43
0.38
 44
0.18
 45
0.0
 46
0.0
 47
0.0
 48
0.0
140
0.18
141
0.09
142
0.0
143
25.399999999999999
144
1.0
145
0.0
146
1.0
147
0.09
 71
     0
 72
     0
 73
     1
 74
     1
 75
     0
 76
     0
 77
     0
 78
     0
170
     0
171
     2
172
     0
173
     0
174
     0
175
     0
176
     0
177
     0
178
     0
  0
ENDTAB
  0
ENDSEC
  0
SECTION
  2
BLOCKS
  0
BLOCK
  8
0
  2
$MODEL_SPACE
 70
     0
 10
0.0
 20
0.0
 30
0.0
  3
$MODEL_SPACE
  1

  0
ENDBLK
  5
1BD
  8
0
  0
BLOCK
 67
     1
  8
0
  2
$PAPER_SPACE
 70
     0
 10
0.0
 20
0.0
 30
0.0
  3
$PAPER_SPACE
  1

  0
ENDBLK
  5
1BB
 67
     1
  8
0
  0
ENDSEC
  0
SECTION
  2
ENTITIES
  0
TEXT
  5
10A0
  8
0
 62
     3
 10
0.0
 20
0.0
 30
0.0
 40
10.0
  1
HD-FKF10
  7
STANDARD1
  0
LINE
  5
1FFD
  8
0
 10
159.19999999999999
 20
164.94999999999999
 30
0.0
 11
159.19999999999999
 21
164.94999999999999
 31
0.0
  0
LINE
  5
1FFE
  8
0
 10
140.8000000000001
 20
164.94999999999999
 30
0.0
 11
159.19999999999999
 21
164.94999999999999
 31
0.0
  0
LINE
  5
2012
  8
1
 10
150.0
 20
216.01365481360531
 30
0.0
 11
150.0
 21
147.44999999999999
 31
0.0
  0
LINE
  5
202B
  8
1
 10
236.5
 20
281.89999999999998
 30
0.0
 11
132.59999999999999
 21
281.89999999999998
 31
0.0
  0
CIRCLE
  5
202C
  8
0
 10
150.0
 20
100.0
 30
0.0
 40
11.15
  0
CIRCLE
  5
2030
  8
3
 10
150.0
 20
100.0
 30
0.0
 40
5.0
  0
CIRCLE
  5
2031
  8
0
 10
150.0
 20
100.0
 30
0.0
 40
4.1879999999999882
  0
CIRCLE
  5
2034
  8
0
 10
150.0
 20
100.0
 30
0.0
 40
11.800000000000001
  0
LINE
  5
20AF
  8
0
 10
260.80000000000001
 20
164.94999999999999
 30
0.0
 11
279.2000000000001
 21
164.94999999999999
 31
0.0
  0
LINE
  5
20C2
  8
0
 10
77.987287390699976
 20
164.84999999999999
 30
0.0
 11
77.987287390699976
 21
164.94999999999999
 31
0.0
  0
LINE
  5
20C3
  8
0
 10
62.012712609299911
 20
164.94999999999999
 30
0.0
 11
62.012712609299911
 21
164.84999999999999
 31
0.0
  0
ARC
  5
20C4
  8
0
 10
62.11271260930004
 20
164.84999999999999
 30
0.0
 40
0.1000000000000125
 50
180.0
 51
260.0999999859967
  0
ARC
  5
20C5
  8
0
 10
77.887287390699953
 20
164.84999999999999
 30
0.0
 40
0.1000000000000227
 50
279.9000000140033
 51
0.0
  0
LINE
  5
20C6
  8
0
 10
62.095519699599997
 20
164.75148906730001
 30
0.0
 11
63.25
 21
164.55000000000001
 31
0.0
  0
LINE
  5
20C7
  8
0
 10
76.75
 20
164.55000000000001
 30
0.0
 11
77.90448030050004
 21
164.75148906730001
 31
0.0
  0
LINE
  5
20DD
  8
0
 10
60.799999999999947
 20
164.94999999999999
 30
0.0
 11
79.199999999999932
 21
164.94999999999999
 31
0.0
  0
LINE
  5
20E2
  8
0
 10
63.25
 20
164.55000000000001
 30
0.0
 11
76.75
 21
164.55000000000001
 31
0.0
  0
LINE
  5
21C8
  8
1
 10
150.0
 20
299.35000000000008
 30
0.0
 11
150.0
 21
264.44999999999999
 31
0.0
  0
LINE
  5
21C9
  8
1
 10
236.5
 20
100.0
 30
0.0
 11
132.59999999999999
 21
100.0
 31
0.0
  0
LINE
  5
21CA
  8
1
 10
150.0
 20
117.45
 30
0.0
 11
150.0
 21
82.549999999999969
 31
0.0
  0
LINE
  5
21CC
  8
1
 10
70.0
 20
234.44999999999999
 30
0.0
 11
70.0
 21
147.44999999999999
 31
0.0
  0
LINE
  5
21CF
  8
1
 10
270.0
 20
234.44999999999999
 30
0.0
 11
270.0
 21
147.44999999999999
 31
0.0
  0
LINE
  5
22BA
  8
2
 10
74.188000000000002
 20
153.262
 30
0.0
 11
74.188000000000002
 21
172.44999999999999
 31
0.0
  0
LINE
  5
22BB
  8
2
 10
65.811999999999983
 20
172.44999999999999
 30
0.0
 11
65.811999999999983
 21
153.262
 31
0.0
  0
LINE
  5
22BC
  8
2
 10
65.811999999999983
 20
172.44999999999999
 30
0.0
 11
74.188000000000002
 21
172.44999999999999
 31
0.0
  0
LINE
  5
22BD
  8
2
 10
70.0
 20
174.96640427248741
 30
0.0
 11
65.811999999999983
 21
172.44999999999999
 31
0.0
  0
LINE
  5
22BE
  8
2
 10
74.188000000000002
 20
172.44999999999999
 30
0.0
 11
70.0
 21
174.96640427248741
 31
0.0
  0
LINE
  5
22BF
  8
2
 10
65.811999999999983
 20
153.262
 30
0.0
 11
74.188000000000002
 21
153.262
 31
0.0
  0
LINE
  5
22C0
  8
2
 10
65.811999999999983
 20
153.262
 30
0.0
 11
65.0
 21
152.44999999999999
 31
0.0
  0
LINE
  5
22C1
  8
2
 10
75.0
 20
152.44999999999999
 30
0.0
 11
74.188000000000002
 21
153.262
 31
0.0
  0
LINE
  5
22C2
  8
0
 10
76.75
 20
159.15000000000001
 30
0.0
 11
76.75
 21
164.55000000000001
 31
0.0
  0
LINE
  5
22C3
  8
0
 10
63.25
 20
164.55000000000001
 30
0.0
 11
63.25
 21
159.15000000000001
 31
0.0
  0
ARC
  5
22C4
  8
0
 10
79.75
 20
159.15000000000001
 30
0.0
 40
3.0000000000000022
 50
180.0
 51
225.0286611037962
  0
ARC
  5
22C5
  8
0
 10
60.249999999999993
 20
159.15000000000001
 30
0.0
 40
3.0000000000000062
 50
314.97133889620369
 51
0.0
  0
LINE
  5
22C6
  8
0
 10
62.370258928785482
 20
157.0276187724856
 30
0.0
 11
59.069935267803629
 21
153.7305953068786
 31
0.0
  0
LINE
  5
22C7
  8
0
 10
80.930064732196357
 20
153.7305953068786
 30
0.0
 11
77.629741071214525
 21
157.0276187724856
 31
0.0
  0
LINE
  5
22C8
  8
0
 10
59.600000000000001
 20
152.44999999999999
 30
0.0
 11
80.400000000000006
 21
152.44999999999999
 31
0.0
  0
ARC
  5
22C9
  8
0
 10
80.400000000000006
 20
153.19999999999999
 30
0.0
 40
0.7500000000000006
 50
270.0
 51
45.028661103796217
  0
ARC
  5
22CA
  8
0
 10
59.600000000000001
 20
153.19999999999999
 30
0.0
 40
0.75
 50
134.9713388962038
 51
270.0
  0
LINE
  5
22CB
  8
2
 10
65.0
 20
152.44999999999999
 30
0.0
 11
65.0
 21
167.44999999999999
 31
0.0
  0
LINE
  5
22CC
  8
2
 10
75.0
 20
167.44999999999999
 30
0.0
 11
65.0
 21
167.44999999999999
 31
0.0
  0
LINE
  5
22CD
  8
2
 10
75.0
 20
152.44999999999999
 30
0.0
 11
75.0
 21
167.44999999999999
 31
0.0
  0
POINT
  5
22CF
  8
2
 10
65.0
 20
167.44999999999999
 30
0.0
  0
LINE
  5
22D0
  8
0
 10
157.9872873907
 20
164.84999999999999
 30
0.0
 11
157.9872873907
 21
164.94999999999999
 31
0.0
  0
LINE
  5
22D1
  8
0
 10
142.01271260929991
 20
164.94999999999999
 30
0.0
 11
142.01271260929991
 21
164.84999999999999
 31
0.0
  0
ARC
  5
22D2
  8
0
 10
142.11271260929999
 20
164.84999999999999
 30
0.0
 40
0.1000000000000125
 50
180.0
 51
260.0999999859967
  0
ARC
  5
22D3
  8
0
 10
157.8872873906999
 20
164.84999999999999
 30
0.0
 40
0.1000000000000227
 50
279.9000000140033
 51
0.0
  0
LINE
  5
22D4
  8
0
 10
142.0955196996
 20
164.75148906730001
 30
0.0
 11
143.25
 21
164.55000000000001
 31
0.0
  0
LINE
  5
22D5
  8
0
 10
156.75
 20
164.55000000000001
 30
0.0
 11
157.90448030050001
 21
164.75148906730001
 31
0.0
  0
LINE
  5
22D6
  8
0
 10
143.25
 20
164.55000000000001
 30
0.0
 11
156.75
 21
164.55000000000001
 31
0.0
  0
LINE
  5
22D7
  8
2
 10
154.18799999999999
 20
153.262
 30
0.0
 11
154.18799999999999
 21
172.44999999999999
 31
0.0
  0
LINE
  5
22D8
  8
2
 10
145.81200000000001
 20
172.44999999999999
 30
0.0
 11
145.81200000000001
 21
153.262
 31
0.0
  0
LINE
  5
22D9
  8
2
 10
145.81200000000001
 20
172.44999999999999
 30
0.0
 11
154.18799999999999
 21
172.44999999999999
 31
0.0
  0
LINE
  5
22DA
  8
2
 10
150.0
 20
174.96640427248741
 30
0.0
 11
145.81200000000001
 21
172.44999999999999
 31
0.0
  0
LINE
  5
22DB
  8
2
 10
154.18799999999999
 20
172.44999999999999
 30
0.0
 11
150.0
 21
174.96640427248741
 31
0.0
  0
LINE
  5
22DC
  8
2
 10
145.81200000000001
 20
153.262
 30
0.0
 11
154.18799999999999
 21
153.262
 31
0.0
  0
LINE
  5
22DD
  8
2
 10
145.81200000000001
 20
153.262
 30
0.0
 11
145.0
 21
152.44999999999999
 31
0.0
  0
LINE
  5
22DE
  8
2
 10
155.0
 20
152.44999999999999
 30
0.0
 11
154.18799999999999
 21
153.262
 31
0.0
  0
LINE
  5
22DF
  8
0
 10
156.75
 20
159.15000000000001
 30
0.0
 11
156.75
 21
164.55000000000001
 31
0.0
  0
LINE
  5
22E0
  8
0
 10
143.25
 20
164.55000000000001
 30
0.0
 11
143.25
 21
159.15000000000001
 31
0.0
  0
ARC
  5
22E1
  8
0
 10
159.75
 20
159.15000000000001
 30
0.0
 40
3.0000000000000022
 50
180.0
 51
225.0286611037962
  0
ARC
  5
22E2
  8
0
 10
140.25
 20
159.15000000000001
 30
0.0
 40
3.0000000000000062
 50
314.97133889620369
 51
0.0
  0
LINE
  5
22E3
  8
0
 10
142.37025892878549
 20
157.0276187724856
 30
0.0
 11
139.0699352678036
 21
153.7305953068786
 31
0.0
  0
LINE
  5
22E4
  8
0
 10
160.9300647321964
 20
153.7305953068786
 30
0.0
 11
157.62974107121451
 21
157.0276187724856
 31
0.0
  0
LINE
  5
22E5
  8
0
 10
139.59999999999999
 20
152.44999999999999
 30
0.0
 11
160.40000000000001
 21
152.44999999999999
 31
0.0
  0
ARC
  5
22E6
  8
0
 10
160.40000000000001
 20
153.19999999999999
 30
0.0
 40
0.7500000000000006
 50
270.0
 51
45.028661103796253
  0
ARC
  5
22E7
  8
0
 10
139.59999999999999
 20
153.19999999999999
 30
0.0
 40
0.75
 50
134.97133889620369
 51
270.0
  0
LINE
  5
22E8
  8
2
 10
145.0
 20
152.44999999999999
 30
0.0
 11
145.0
 21
167.44999999999999
 31
0.0
  0
LINE
  5
22E9
  8
2
 10
155.0
 20
167.44999999999999
 30
0.0
 11
145.0
 21
167.44999999999999
 31
0.0
  0
LINE
  5
22EA
  8
2
 10
155.0
 20
152.44999999999999
 30
0.0
 11
155.0
 21
167.44999999999999
 31
0.0
  0
POINT
  5
22EB
  8
2
 10
145.0
 20
167.44999999999999
 30
0.0
  0
LINE
  5
22EC
  8
0
 10
277.98728739069998
 20
164.84999999999999
 30
0.0
 11
277.98728739069998
 21
164.94999999999999
 31
0.0
  0
LINE
  5
22ED
  8
0
 10
262.01271260929991
 20
164.94999999999999
 30
0.0
 11
262.01271260929991
 21
164.84999999999999
 31
0.0
  0
ARC
  5
22EE
  8
0
 10
262.11271260929999
 20
164.84999999999999
 30
0.0
 40
0.1000000000000125
 50
180.0
 51
260.0999999859967
  0
ARC
  5
22EF
  8
0
 10
277.8872873906999
 20
164.84999999999999
 30
0.0
 40
0.1000000000000227
 50
279.9000000140033
 51
0.0
  0
LINE
  5
22F0
  8
0
 10
262.0955196996
 20
164.75148906730001
 30
0.0
 11
263.25
 21
164.55000000000001
 31
0.0
  0
LINE
  5
22F1
  8
0
 10
276.75
 20
164.55000000000001
 30
0.0
 11
277.9044803005001
 21
164.75148906730001
 31
0.0
  0
LINE
  5
22F2
  8
0
 10
263.25
 20
164.55000000000001
 30
0.0
 11
276.75
 21
164.55000000000001
 31
0.0
  0
LINE
  5
22F3
  8
2
 10
274.18799999999999
 20
153.262
 30
0.0
 11
274.18799999999999
 21
172.44999999999999
 31
0.0
  0
LINE
  5
22F4
  8
2
 10
265.81200000000001
 20
172.44999999999999
 30
0.0
 11
265.81200000000001
 21
153.262
 31
0.0
  0
LINE
  5
22F5
  8
2
 10
265.81200000000001
 20
172.44999999999999
 30
0.0
 11
274.18799999999999
 21
172.44999999999999
 31
0.0
  0
LINE
  5
22F6
  8
2
 10
270.0
 20
174.96640427248741
 30
0.0
 11
265.81200000000001
 21
172.44999999999999
 31
0.0
  0
LINE
  5
22F7
  8
2
 10
274.18799999999999
 20
172.44999999999999
 30
0.0
 11
270.0
 21
174.96640427248741
 31
0.0
  0
LINE
  5
22F8
  8
2
 10
265.81200000000001
 20
153.262
 30
0.0
 11
274.18799999999999
 21
153.262
 31
0.0
  0
LINE
  5
22F9
  8
2
 10
265.81200000000001
 20
153.262
 30
0.0
 11
265.0
 21
152.44999999999999
 31
0.0
  0
LINE
  5
22FA
  8
2
 10
275.0
 20
152.44999999999999
 30
0.0
 11
274.18799999999999
 21
153.262
 31
0.0
  0
LINE
  5
22FB
  8
0
 10
276.75
 20
159.15000000000001
 30
0.0
 11
276.75
 21
164.55000000000001
 31
0.0
  0
LINE
  5
22FC
  8
0
 10
263.25
 20
164.55000000000001
 30
0.0
 11
263.25
 21
159.15000000000001
 31
0.0
  0
ARC
  5
22FD
  8
0
 10
279.75
 20
159.15000000000001
 30
0.0
 40
3.0000000000000022
 50
180.0
 51
225.02866110379571
  0
ARC
  5
22FE
  8
0
 10
260.25
 20
159.15000000000001
 30
0.0
 40
3.0000000000000062
 50
314.97133889620432
 51
0.0
  0
LINE
  5
22FF
  8
0
 10
262.37025892878552
 20
157.0276187724856
 30
0.0
 11
259.0699352678036
 21
153.7305953068786
 31
0.0
  0
LINE
  5
2300
  8
0
 10
280.93006473219629
 20
153.7305953068786
 30
0.0
 11
277.6297410712146
 21
157.0276187724856
 31
0.0
  0
LINE
  5
2301
  8
0
 10
259.60000000000002
 20
152.44999999999999
 30
0.0
 11
280.39999999999998
 21
152.44999999999999
 31
0.0
  0
ARC
  5
2302
  8
0
 10
280.39999999999998
 20
153.19999999999999
 30
0.0
 40
0.7500000000000006
 50
270.0
 51
45.028661103795663
  0
ARC
  5
2303
  8
0
 10
259.60000000000002
 20
153.19999999999999
 30
0.0
 40
0.75
 50
134.97133889620429
 51
270.0
  0
LINE
  5
2304
  8
2
 10
265.0
 20
152.44999999999999
 30
0.0
 11
265.0
 21
167.44999999999999
 31
0.0
  0
LINE
  5
2305
  8
2
 10
275.0
 20
167.44999999999999
 30
0.0
 11
265.0
 21
167.44999999999999
 31
0.0
  0
LINE
  5
2306
  8
2
 10
275.0
 20
152.44999999999999
 30
0.0
 11
275.0
 21
167.44999999999999
 31
0.0
  0
POINT
  5
2307
  8
2
 10
265.0
 20
167.44999999999999
 30
0.0
  0
ARC
  5
2445
  8
0
 10
168.93332362025521
 20
192.4062207761832
 30
0.0
 40
6.6892848850180187
 50
117.9310937931461
 51
177.6964527022603
  0
LINE
  5
2446
  8
0
 10
137.75055571089999
 20
192.67508758240001
 30
0.0
 11
138.19999999999999
 21
166.65000000000001
 31
0.0
  0
ARC
  5
2447
  8
0
 10
139.69999999999999
 20
166.65000000000001
 30
0.0
 40
1.5000000000000191
 50
180.0
 51
260.70461183110172
  0
LINE
  5
2448
  8
0
 10
139.4577134196
 20
165.16969691849999
 30
0.0
 11
140.8000000000001
 21
164.94999999999999
 31
0.0
  0
LINE
  5
2449
  8
0
 10
159.19999999999999
 20
164.94999999999999
 30
0.0
 11
160.5422865805001
 21
165.16969691849999
 31
0.0
  0
LINE
  5
2458
  8
0
 10
137.7505557107001
 20
192.67508758240001
 30
0.0
 11
137.72875054790001
 21
193.9383443376
 31
0.0
  0
LINE
  5
2459
  8
0
 10
137.60090852779899
 20
201.34472315776449
 30
0.0
 11
137.72875054790001
 21
193.9383443376
 31
0.0
  0
ARC
  5
245A
  8
0
 10
143.69999999999999
 20
201.44999999999999
 30
0.0
 40
6.1000000000003016
 50
126.1686423476968
 51
180.98888823330091
  0
ARC
  5
245B
  8
0
 10
229.88408499740009
 20
27.660081180200041
 30
0.0
 40
200.00000000003101
 50
112.05030004679691
 51
116.67444061213421
  0
ARC
  5
245C
  8
0
 10
249.3774025112001
 20
-39.303327227700002
 30
0.0
 40
269.7000000001994
 50
104.86234307459949
 51
107.96326284230101
  0
ARC
  5
245D
  8
0
 10
261.76791955369998
 20
12.65218025310001
 30
0.0
 40
208.99999999999011
 50
112.9717441521986
 51
117.3339908930996
  0
ARC
  5
245E
  8
0
 10
229.88408499730011
 20
27.660081180300029
 30
0.0
 40
199.9999999999778
 50
108.5674257503032
 51
112.05030004679691
  0
LINE
  5
2462
  8
0
 10
180.19999999999999
 20
221.37382363500009
 30
0.0
 11
182.40022313830011
 21
221.94779227870001
 31
0.0
  0
LINE
  5
2463
  8
0
 10
180.19999999999999
 20
205.07794386000009
 30
0.0
 11
182.40022313830011
 21
205.99583483149999
 31
0.0
  0
LINE
  5
2464
  8
0
 10
225.80713302780009
 20
216.52358963660009
 30
0.0
 11
225.60000000000019
 21
216.44999999999999
 31
0.0
  0
LINE
  5
2465
  8
0
 10
225.60000000000019
 20
216.44999999999999
 30
0.0
 11
220.69999999999999
 21
214.70010460290001
 31
0.0
  0
ARC
  5
2466
  8
0
 10
216.40000000000009
 20
226.65000000000001
 30
0.0
 40
12.69999999999998
 50
251.6415629245987
 51
289.79054661400193
  0
ARC
  5
2467
  8
0
 10
210.18129510099999
 20
207.85193891130001
 30
0.0
 40
7.1000000000034271
 50
71.790426281300114
 51
103.697875830002
  0
ARC
  5
2468
  8
0
 10
249.3774025112001
 20
-39.30332722749997
 30
0.0
 40
269.69999999999987
 50
95.013726388001103
 51
104.3792776411988
  0
ARC
  5
2469
  8
0
 10
261.76791955369998
 20
12.65218025310001
 30
0.0
 40
209.0
 50
104.7659075683989
 51
112.3181820657978
  0
LINE
  5
246C
  8
0
 10
226.90000000000009
 20
229.4500000000001
 30
0.0
 11
226.8000000000001
 21
229.4500000000001
 31
0.0
  0
ARC
  5
246D
  8
0
 10
226.90000000000009
 20
224.84999999999999
 30
0.0
 40
4.599999999999965
 50
0.0
 51
90.0
  0
LINE
  5
246E
  8
0
 10
231.5
 20
224.84999999999999
 30
0.0
 11
231.49020696700009
 21
224.55000000000001
 31
0.0
  0
ARC
  5
246F
  8
0
 10
222.79132034410009
 20
224.68407232600001
 30
0.0
 40
8.6999197621407802
 50
290.28244866469902
 51
359.11699386499868
  0
LINE
  5
2470
  8
0
 10
226.8000000000001
 20
229.4500000000001
 30
0.0
 11
225.80713302780009
 21
229.3647438127
 31
0.0
  0
LINE
  5
2482
  8
0
 10
262.60140394100011
 20
213.94999999999999
 30
0.0
 11
277.39859605900011
 21
213.94999999999999
 31
0.0
  0
ARC
  5
2483
  8
0
 10
318.38368573108193
 20
187.58593342731211
 30
0.0
 40
36.490860425515699
 50
169.97474511941971
 51
171.98317998789281
  0
ARC
  5
2484
  8
0
 10
221.61631395332191
 20
187.58593337435539
 30
0.0
 40
36.490860745512073
 50
8.0168200253136934
 51
10.02525487619776
  0
ARC
  5
2485
  8
0
 10
259.69999999999999
 20
166.65000000000001
 30
0.0
 40
1.500000000000024
 50
180.98888823330091
 51
260.70461183110172
  0
ARC
  5
2486
  8
0
 10
280.30000000000013
 20
166.65000000000001
 30
0.0
 40
1.500000000000024
 50
279.29538816889828
 51
359.01111176669912
  0
LINE
  5
2487
  8
0
 10
259.45771341960011
 20
165.16969691849999
 30
0.0
 11
260.80000000000001
 21
164.94999999999999
 31
0.0
  0
LINE
  5
2488
  8
0
 10
279.2000000000001
 20
164.94999999999999
 30
0.0
 11
280.5422865805001
 21
165.16969691849999
 31
0.0
  0
LINE
  5
2497
  8
0
 10
257.55000000000013
 20
211.01198384720001
 30
0.0
 11
257.55000000000013
 21
193.9383443376
 31
0.0
  0
LINE
  5
2498
  8
0
 10
282.44999999999999
 20
193.9383443376
 30
0.0
 11
282.44999999999999
 21
211.0096995987
 31
0.0
  0
LINE
  5
2499
  8
0
 10
276.92676825990009
 20
229.4500000000001
 30
0.0
 11
263.07323174020007
 21
229.4500000000001
 31
0.0
  0
LINE
  5
249A
  8
0
 10
276.9484476775001
 20
229.4500000000001
 30
0.0
 11
276.92676825990009
 21
229.4500000000001
 31
0.0
  0
LINE
  5
249B
  8
0
 10
277.10000000000002
 20
229.34204412979571
 30
0.0
 11
276.9484476775001
 21
229.4500000000001
 31
0.0
  0
LINE
  5
249C
  8
0
 10
277.10000000000002
 20
216.2000149438272
 30
0.0
 11
277.10000000000002
 21
229.34204412979571
 31
0.0
  0
LINE
  5
249D
  8
0
 10
263.05155232250007
 20
229.4500000000001
 30
0.0
 11
262.89999999999998
 21
229.34204412970541
 31
0.0
  0
LINE
  5
249E
  8
0
 10
263.07323174020007
 20
229.4500000000001
 30
0.0
 11
263.05155232250007
 21
229.4500000000001
 31
0.0
  0
LINE
  5
249F
  8
0
 10
262.89999999999998
 20
229.34204412970541
 30
0.0
 11
262.89999999999998
 21
216.2000149431251
 31
0.0
  0
POLYLINE
  5
24A0
  8
0
 10
278.60000000000002
 20
205.91359320362196
 30
0.0
 66
     1
 70
     8
  0
VERTEX
  8
0
  5
25DF
 10
278.600
 20
205.914
 30
0.000000
  70
    32
  0
VERTEX
  8
0
  5
25E0
 10
278.593
 20
205.996
 30
0.000000
  70
    32
  0
VERTEX
  8
0
  5
25E1
 10
278.586
 20
206.078
 30
0.000000
  70
    32
  0
VERTEX
  8
0
  5
25E2
 10
278.579
 20
206.160
 30
0.000000
  70
    32
  0
VERTEX
  8
0
  5
25E3
 10
278.572
 20
206.242
 30
0.000000
  70
    32
  0
VERTEX
  8
0
  5
25E4
 10
278.565
 20
206.324
 30
0.000000
  70
    32
  0
VERTEX
  8
0
  5
25E5
 10
278.558
 20
206.405
 30
0.000000
  70
    32
  0
VERTEX
  8
0
  5
25E6
 10
278.551
 20
206.487
 30
0.000000
  70
    32
  0
VERTEX
  8
0
  5
25E7
 10
278.544
 20
206.568
 30
0.000000
  70
    32
  0
VERTEX
  8
0
  5
25E8
 10
278.536
 20
206.648
 30
0.000000
  70
    32
  0
VERTEX
  8
0
  5
25E9
 10
278.529
 20
206.729
 30
0.000000
  70
    32
  0
VERTEX
  8
0
  5
25EA
 10
278.522
 20
206.809
 30
0.000000
  70
    32
  0
VERTEX
  8
0
  5
25EB
 10
278.515
 20
206.890
 30
0.000000
  70
    32
  0
VERTEX
  8
0
  5
25EC
 10
278.508
 20
206.970
 30
0.000000
  70
    32
  0
VERTEX
  8
0
  5
25ED
 10
278.501
 20
207.049
 30
0.000000
  70
    32
  0
VERTEX
  8
0
  5
25EE
 10
278.494
 20
207.129
 30
0.000000
  70
    32
  0
VERTEX
  8
0
  5
25EF
 10
278.487
 20
207.208
 30
0.000000
  70
    32
  0
VERTEX
  8
0
  5
25F0
 10
278.480
 20
207.287
 30
0.000000
  70
    32
  0
VERTEX
  8
0
  5
25F1
 10
278.473
 20
207.366
 30
0.000000
  70
    32
  0
VERTEX
  8
0
  5
25F2
 10
278.466
 20
207.445
 30
0.000000
  70
    32
  0
VERTEX
  8
0
  5
25F3
 10
278.458
 20
207.523
 30
0.000000
  70
    32
  0
VERTEX
  8
0
  5
25F4
 10
278.451
 20
207.602
 30
0.000000
  70
    32
  0
VERTEX
  8
0
  5
25F5
 10
278.444
 20
207.680
 30
0.000000
  70
    32
  0
VERTEX
  8
0
  5
25F6
 10
278.437
 20
207.758
 30
0.000000
  70
    32
  0
VERTEX
  8
0
  5
25F7
 10
278.430
 20
207.835
 30
0.000000
  70
    32
  0
VERTEX
  8
0
  5
25F8
 10
278.423
 20
207.913
 30
0.000000
  70
    32
  0
VERTEX
  8
0
  5
25F9
 10
278.416
 20
207.990
 30
0.000000
  70
    32
  0
VERTEX
  8
0
  5
25FA
 10
278.409
 20
208.067
 30
0.000000
  70
    32
  0
VERTEX
  8
0
  5
25FB
 10
278.402
 20
208.144
 30
0.000000
  70
    32
  0
VERTEX
  8
0
  5
25FC
 10
278.394
 20
208.221
 30
0.000000
  70
    32
  0
VERTEX
  8
0
  5
25FD
 10
278.387
 20
208.297
 30
0.000000
  70
    32
  0
VERTEX
  8
0
  5
25FE
 10
278.380
 20
208.373
 30
0.000000
  70
    32
  0
VERTEX
  8
0
  5
25FF
 10
278.373
 20
208.449
 30
0.000000
  70
    32
  0
VERTEX
  8
0
  5
2600
 10
278.366
 20
208.525
 30
0.000000
  70
    32
  0
VERTEX
  8
0
  5
2601
 10
278.359
 20
208.600
 30
0.000000
  70
    32
  0
VERTEX
  8
0
  5
2602
 10
278.352
 20
208.676
 30
0.000000
  70
    32
  0
VERTEX
  8
0
  5
2603
 10
278.344
 20
208.751
 30
0.000000
  70
    32
  0
VERTEX
  8
0
  5
2604
 10
278.337
 20
208.826
 30
0.000000
  70
    32
  0
VERTEX
  8
0
  5
2605
 10
278.330
 20
208.901
 30
0.000000
  70
    32
  0
VERTEX
  8
0
  5
2606
 10
278.323
 20
208.975
 30
0.000000
  70
    32
  0
VERTEX
  8
0
  5
2607
 10
278.316
 20
209.049
 30
0.000000
  70
    32
  0
VERTEX
  8
0
  5
2608
 10
278.309
 20
209.123
 30
0.000000
  70
    32
  0
VERTEX
  8
0
  5
2609
 10
278.302
 20
209.197
 30
0.000000
  70
    32
  0
VERTEX
  8
0
  5
260A
 10
278.294
 20
209.271
 30
0.000000
  70
    32
  0
VERTEX
  8
0
  5
260B
 10
278.287
 20
209.344
 30
0.000000
  70
    32
  0
VERTEX
  8
0
  5
260C
 10
278.280
 20
209.418
 30
0.000000
  70
    32
  0
VERTEX
  8
0
  5
260D
 10
278.273
 20
209.491
 30
0.000000
  70
    32
  0
VERTEX
  8
0
  5
260E
 10
278.266
 20
209.563
 30
0.000000
  70
    32
  0
VERTEX
  8
0
  5
260F
 10
278.258
 20
209.636
 30
0.000000
  70
    32
  0
VERTEX
  8
0
  5
2610
 10
278.251
 20
209.708
 30
0.000000
  70
    32
  0
VERTEX
  8
0
  5
2611
 10
278.244
 20
209.781
 30
0.000000
  70
    32
  0
VERTEX
  8
0
  5
2612
 10
278.237
 20
209.853
 30
0.000000
  70
    32
  0
VERTEX
  8
0
  5
2613
 10
278.230
 20
209.924
 30
0.000000
  70
    32
  0
VERTEX
  8
0
  5
2614
 10
278.223
 20
209.996
 30
0.000000
  70
    32
  0
VERTEX
  8
0
  5
2615
 10
278.215
 20
210.067
 30
0.000000
  70
    32
  0
VERTEX
  8
0
  5
2616
 10
278.208
 20
210.138
 30
0.000000
  70
    32
  0
VERTEX
  8
0
  5
2617
 10
278.201
 20
210.209
 30
0.000000
  70
    32
  0
VERTEX
  8
0
  5
2618
 10
278.194
 20
210.280
 30
0.000000
  70
    32
  0
VERTEX
  8
0
  5
2619
 10
278.187
 20
210.350
 30
0.000000
  70
    32
  0
VERTEX
  8
0
  5
261A
 10
278.179
 20
210.421
 30
0.000000
  70
    32
  0
VERTEX
  8
0
  5
261B
 10
278.172
 20
210.491
 30
0.000000
  70
    32
  0
VERTEX
  8
0
  5
261C
 10
278.165
 20
210.560
 30
0.000000
  70
    32
  0
VERTEX
  8
0
  5
261D
 10
278.158
 20
210.630
 30
0.000000
  70
    32
  0
VERTEX
  8
0
  5
261E
 10
278.150
 20
210.699
 30
0.000000
  70
    32
  0
VERTEX
  8
0
  5
261F
 10
278.143
 20
210.769
 30
0.000000
  70
    32
  0
VERTEX
  8
0
  5
2620
 10
278.136
 20
210.838
 30
0.000000
  70
    32
  0
VERTEX
  8
0
  5
2621
 10
278.129
 20
210.906
 30
0.000000
  70
    32
  0
VERTEX
  8
0
  5
2622
 10
278.122
 20
210.975
 30
0.000000
  70
    32
  0
VERTEX
  8
0
  5
2623
 10
278.114
 20
211.043
 30
0.000000
  70
    32
  0
VERTEX
  8
0
  5
2624
 10
278.107
 20
211.111
 30
0.000000
  70
    32
  0
VERTEX
  8
0
  5
2625
 10
278.100
 20
211.179
 30
0.000000
  70
    32
  0
VERTEX
  8
0
  5
2626
 10
278.093
 20
211.247
 30
0.000000
  70
    32
  0
VERTEX
  8
0
  5
2627
 10
278.085
 20
211.315
 30
0.000000
  70
    32
  0
VERTEX
  8
0
  5
2628
 10
278.078
 20
211.382
 30
0.000000
  70
    32
  0
VERTEX
  8
0
  5
2629
 10
278.071
 20
211.449
 30
0.000000
  70
    32
  0
VERTEX
  8
0
  5
262A
 10
278.064
 20
211.516
 30
0.000000
  70
    32
  0
VERTEX
  8
0
  5
262B
 10
278.056
 20
211.582
 30
0.000000
  70
    32
  0
VERTEX
  8
0
  5
262C
 10
278.049
 20
211.649
 30
0.000000
  70
    32
  0
VERTEX
  8
0
  5
262D
 10
278.042
 20
211.715
 30
0.000000
  70
    32
  0
VERTEX
  8
0
  5
262E
 10
278.035
 20
211.781
 30
0.000000
  70
    32
  0
VERTEX
  8
0
  5
262F
 10
278.027
 20
211.847
 30
0.000000
  70
    32
  0
VERTEX
  8
0
  5
2630
 10
278.020
 20
211.912
 30
0.000000
  70
    32
  0
VERTEX
  8
0
  5
2631
 10
278.013
 20
211.978
 30
0.000000
  70
    32
  0
VERTEX
  8
0
  5
2632
 10
278.006
 20
212.043
 30
0.000000
  70
    32
  0
VERTEX
  8
0
  5
2633
 10
277.998
 20
212.108
 30
0.000000
  70
    32
  0
VERTEX
  8
0
  5
2634
 10
277.991
 20
212.172
 30
0.000000
  70
    32
  0
VERTEX
  8
0
  5
2635
 10
277.984
 20
212.237
 30
0.000000
  70
    32
  0
VERTEX
  8
0
  5
2636
 10
277.976
 20
212.301
 30
0.000000
  70
    32
  0
VERTEX
  8
0
  5
2637
 10
277.969
 20
212.365
 30
0.000000
  70
    32
  0
VERTEX
  8
0
  5
2638
 10
277.962
 20
212.429
 30
0.000000
  70
    32
  0
VERTEX
  8
0
  5
2639
 10
277.955
 20
212.493
 30
0.000000
  70
    32
  0
VERTEX
  8
0
  5
263A
 10
277.947
 20
212.556
 30
0.000000
  70
    32
  0
VERTEX
  8
0
  5
263B
 10
277.940
 20
212.619
 30
0.000000
  70
    32
  0
VERTEX
  8
0
  5
263C
 10
277.933
 20
212.682
 30
0.000000
  70
    32
  0
VERTEX
  8
0
  5
263D
 10
277.925
 20
212.745
 30
0.000000
  70
    32
  0
VERTEX
  8
0
  5
263E
 10
277.918
 20
212.807
 30
0.000000
  70
    32
  0
VERTEX
  8
0
  5
263F
 10
277.911
 20
212.870
 30
0.000000
  70
    32
  0
VERTEX
  8
0
  5
2640
 10
277.904
 20
212.932
 30
0.000000
  70
    32
  0
VERTEX
  8
0
  5
2641
 10
277.896
 20
212.994
 30
0.000000
  70
    32
  0
VERTEX
  8
0
  5
2642
 10
277.889
 20
213.055
 30
0.000000
  70
    32
  0
VERTEX
  8
0
  5
2643
 10
277.882
 20
213.117
 30
0.000000
  70
    32
  0
VERTEX
  8
0
  5
2644
 10
277.874
 20
213.178
 30
0.000000
  70
    32
  0
VERTEX
  8
0
  5
2645
 10
277.867
 20
213.239
 30
0.000000
  70
    32
  0
VERTEX
  8
0
  5
2646
 10
277.860
 20
213.300
 30
0.000000
  70
    32
  0
VERTEX
  8
0
  5
2647
 10
277.852
 20
213.361
 30
0.000000
  70
    32
  0
VERTEX
  8
0
  5
2648
 10
277.845
 20
213.421
 30
0.000000
  70
    32
  0
VERTEX
  8
0
  5
2649
 10
277.838
 20
213.481
 30
0.000000
  70
    32
  0
VERTEX
  8
0
  5
264A
 10
277.830
 20
213.541
 30
0.000000
  70
    32
  0
VERTEX
  8
0
  5
264B
 10
277.823
 20
213.601
 30
0.000000
  70
    32
  0
VERTEX
  8
0
  5
264C
 10
277.816
 20
213.660
 30
0.000000
  70
    32
  0
VERTEX
  8
0
  5
264D
 10
277.808
 20
213.720
 30
0.000000
  70
    32
  0
VERTEX
  8
0
  5
264E
 10
277.801
 20
213.779
 30
0.000000
  70
    32
  0
VERTEX
  8
0
  5
264F
 10
277.794
 20
213.838
 30
0.000000
  70
    32
  0
VERTEX
  8
0
  5
2650
 10
277.786
 20
213.896
 30
0.000000
  70
    32
  0
VERTEX
  8
0
  5
2651
 10
277.779
 20
213.955
 30
0.000000
  70
    32
  0
VERTEX
  8
0
  5
2652
 10
277.772
 20
214.013
 30
0.000000
  70
    32
  0
VERTEX
  8
0
  5
2653
 10
277.764
 20
214.071
 30
0.000000
  70
    32
  0
VERTEX
  8
0
  5
2654
 10
277.757
 20
214.129
 30
0.000000
  70
    32
  0
VERTEX
  8
0
  5
2655
 10
277.750
 20
214.186
 30
0.000000
  70
    32
  0
VERTEX
  8
0
  5
2656
 10
277.742
 20
214.244
 30
0.000000
  70
    32
  0
VERTEX
  8
0
  5
2657
 10
277.735
 20
214.301
 30
0.000000
  70
    32
  0
VERTEX
  8
0
  5
2658
 10
277.728
 20
214.358
 30
0.000000
  70
    32
  0
VERTEX
  8
0
  5
2659
 10
277.720
 20
214.414
 30
0.000000
  70
    32
  0
VERTEX
  8
0
  5
265A
 10
277.713
 20
214.471
 30
0.000000
  70
    32
  0
VERTEX
  8
0
  5
265B
 10
277.706
 20
214.527
 30
0.000000
  70
    32
  0
VERTEX
  8
0
  5
265C
 10
277.698
 20
214.583
 30
0.000000
  70
    32
  0
VERTEX
  8
0
  5
265D
 10
277.691
 20
214.639
 30
0.000000
  70
    32
  0
VERTEX
  8
0
  5
265E
 10
277.683
 20
214.695
 30
0.000000
  70
    32
  0
VERTEX
  8
0
  5
265F
 10
277.676
 20
214.750
 30
0.000000
  70
    32
  0
SEQEND
  8
0
  5
2660
  0
POLYLINE
  5
24A1
  8
0
 10
277.67611474914946
 20
214.7499999999547
 30
0.0
 66
     1
 70
     8
  0
VERTEX
  8
0
  5
2661
 10
277.676
 20
214.750
 30
0.000000
  70
    32
  0
VERTEX
  8
0
  5
2662
 10
277.675
 20
214.757
 30
0.000000
  70
    32
  0
VERTEX
  8
0
  5
2663
 10
277.674
 20
214.764
 30
0.000000
  70
    32
  0
VERTEX
  8
0
  5
2664
 10
277.673
 20
214.771
 30
0.000000
  70
    32
  0
VERTEX
  8
0
  5
2665
 10
277.672
 20
214.778
 30
0.000000
  70
    32
  0
VERTEX
  8
0
  5
2666
 10
277.671
 20
214.785
 30
0.000000
  70
    32
  0
VERTEX
  8
0
  5
2667
 10
277.670
 20
214.792
 30
0.000000
  70
    32
  0
VERTEX
  8
0
  5
2668
 10
277.669
 20
214.798
 30
0.000000
  70
    32
  0
VERTEX
  8
0
  5
2669
 10
277.668
 20
214.804
 30
0.000000
  70
    32
  0
VERTEX
  8
0
  5
266A
 10
277.667
 20
214.811
 30
0.000000
  70
    32
  0
VERTEX
  8
0
  5
266B
 10
277.666
 20
214.817
 30
0.000000
  70
    32
  0
VERTEX
  8
0
  5
266C
 10
277.664
 20
214.823
 30
0.000000
  70
    32
  0
VERTEX
  8
0
  5
266D
 10
277.663
 20
214.828
 30
0.000000
  70
    32
  0
VERTEX
  8
0
  5
266E
 10
277.662
 20
214.834
 30
0.000000
  70
    32
  0
VERTEX
  8
0
  5
266F
 10
277.661
 20
214.840
 30
0.000000
  70
    32
  0
VERTEX
  8
0
  5
2670
 10
277.660
 20
214.845
 30
0.000000
  70
    32
  0
VERTEX
  8
0
  5
2671
 10
277.659
 20
214.850
 30
0.000000
  70
    32
  0
VERTEX
  8
0
  5
2672
 10
277.658
 20
214.855
 30
0.000000
  70
    32
  0
VERTEX
  8
0
  5
2673
 10
277.657
 20
214.860
 30
0.000000
  70
    32
  0
VERTEX
  8
0
  5
2674
 10
277.656
 20
214.865
 30
0.000000
  70
    32
  0
VERTEX
  8
0
  5
2675
 10
277.655
 20
214.870
 30
0.000000
  70
    32
  0
VERTEX
  8
0
  5
2676
 10
277.654
 20
214.875
 30
0.000000
  70
    32
  0
VERTEX
  8
0
  5
2677
 10
277.653
 20
214.879
 30
0.000000
  70
    32
  0
VERTEX
  8
0
  5
2678
 10
277.652
 20
214.883
 30
0.000000
  70
    32
  0
VERTEX
  8
0
  5
2679
 10
277.651
 20
214.888
 30
0.000000
  70
    32
  0
VERTEX
  8
0
  5
267A
 10
277.649
 20
214.892
 30
0.000000
  70
    32
  0
VERTEX
  8
0
  5
267B
 10
277.648
 20
214.896
 30
0.000000
  70
    32
  0
VERTEX
  8
0
  5
267C
 10
277.647
 20
214.900
 30
0.000000
  70
    32
  0
VERTEX
  8
0
  5
267D
 10
277.646
 20
214.903
 30
0.000000
  70
    32
  0
VERTEX
  8
0
  5
267E
 10
277.645
 20
214.907
 30
0.000000
  70
    32
  0
VERTEX
  8
0
  5
267F
 10
277.644
 20
214.910
 30
0.000000
  70
    32
  0
VERTEX
  8
0
  5
2680
 10
277.643
 20
214.913
 30
0.000000
  70
    32
  0
VERTEX
  8
0
  5
2681
 10
277.642
 20
214.917
 30
0.000000
  70
    32
  0
VERTEX
  8
0
  5
2682
 10
277.641
 20
214.920
 30
0.000000
  70
    32
  0
VERTEX
  8
0
  5
2683
 10
277.640
 20
214.922
 30
0.000000
  70
    32
  0
VERTEX
  8
0
  5
2684
 10
277.639
 20
214.925
 30
0.000000
  70
    32
  0
VERTEX
  8
0
  5
2685
 10
277.638
 20
214.928
 30
0.000000
  70
    32
  0
VERTEX
  8
0
  5
2686
 10
277.637
 20
214.930
 30
0.000000
  70
    32
  0
VERTEX
  8
0
  5
2687
 10
277.635
 20
214.933
 30
0.000000
  70
    32
  0
VERTEX
  8
0
  5
2688
 10
277.634
 20
214.935
 30
0.000000
  70
    32
  0
VERTEX
  8
0
  5
2689
 10
277.633
 20
214.937
 30
0.000000
  70
    32
  0
VERTEX
  8
0
  5
268A
 10
277.632
 20
214.939
 30
0.000000
  70
    32
  0
VERTEX
  8
0
  5
268B
 10
277.631
 20
214.941
 30
0.000000
  70
    32
  0
VERTEX
  8
0
  5
268C
 10
277.630
 20
214.942
 30
0.000000
  70
    32
  0
VERTEX
  8
0
  5
268D
 10
277.629
 20
214.944
 30
0.000000
  70
    32
  0
VERTEX
  8
0
  5
268E
 10
277.628
 20
214.945
 30
0.000000
  70
    32
  0
VERTEX
  8
0
  5
268F
 10
277.627
 20
214.947
 30
0.000000
  70
    32
  0
VERTEX
  8
0
  5
2690
 10
277.626
 20
214.948
 30
0.000000
  70
    32
  0
VERTEX
  8
0
  5
2691
 10
277.625
 20
214.949
 30
0.000000
  70
    32
  0
VERTEX
  8
0
  5
2692
 10
277.624
 20
214.950
 30
0.000000
  70
    32
  0
VERTEX
  8
0
  5
2693
 10
277.622
 20
214.950
 30
0.000000
  70
    32
  0
VERTEX
  8
0
  5
2694
 10
277.621
 20
214.951
 30
0.000000
  70
    32
  0
VERTEX
  8
0
  5
2695
 10
277.620
 20
214.951
 30
0.000000
  70
    32
  0
VERTEX
  8
0
  5
2696
 10
277.619
 20
214.952
 30
0.000000
  70
    32
  0
VERTEX
  8
0
  5
2697
 10
277.618
 20
214.952
 30
0.000000
  70
    32
  0
VERTEX
  8
0
  5
2698
 10
277.617
 20
214.952
 30
0.000000
  70
    32
  0
VERTEX
  8
0
  5
2699
 10
277.616
 20
214.952
 30
0.000000
  70
    32
  0
VERTEX
  8
0
  5
269A
 10
277.615
 20
214.952
 30
0.000000
  70
    32
  0
VERTEX
  8
0
  5
269B
 10
277.614
 20
214.951
 30
0.000000
  70
    32
  0
VERTEX
  8
0
  5
269C
 10
277.613
 20
214.951
 30
0.000000
  70
    32
  0
VERTEX
  8
0
  5
269D
 10
277.612
 20
214.950
 30
0.000000
  70
    32
  0
VERTEX
  8
0
  5
269E
 10
277.610
 20
214.949
 30
0.000000
  70
    32
  0
VERTEX
  8
0
  5
269F
 10
277.609
 20
214.949
 30
0.000000
  70
    32
  0
VERTEX
  8
0
  5
26A0
 10
277.608
 20
214.948
 30
0.000000
  70
    32
  0
VERTEX
  8
0
  5
26A1
 10
277.607
 20
214.946
 30
0.000000
  70
    32
  0
VERTEX
  8
0
  5
26A2
 10
277.606
 20
214.945
 30
0.000000
  70
    32
  0
VERTEX
  8
0
  5
26A3
 10
277.605
 20
214.944
 30
0.000000
  70
    32
  0
VERTEX
  8
0
  5
26A4
 10
277.604
 20
214.942
 30
0.000000
  70
    32
  0
VERTEX
  8
0
  5
26A5
 10
277.603
 20
214.940
 30
0.000000
  70
    32
  0
VERTEX
  8
0
  5
26A6
 10
277.602
 20
214.939
 30
0.000000
  70
    32
  0
VERTEX
  8
0
  5
26A7
 10
277.601
 20
214.937
 30
0.000000
  70
    32
  0
VERTEX
  8
0
  5
26A8
 10
277.600
 20
214.935
 30
0.000000
  70
    32
  0
VERTEX
  8
0
  5
26A9
 10
277.599
 20
214.932
 30
0.000000
  70
    32
  0
VERTEX
  8
0
  5
26AA
 10
277.597
 20
214.930
 30
0.000000
  70
    32
  0
VERTEX
  8
0
  5
26AB
 10
277.596
 20
214.928
 30
0.000000
  70
    32
  0
VERTEX
  8
0
  5
26AC
 10
277.595
 20
214.925
 30
0.000000
  70
    32
  0
VERTEX
  8
0
  5
26AD
 10
277.594
 20
214.922
 30
0.000000
  70
    32
  0
VERTEX
  8
0
  5
26AE
 10
277.593
 20
214.919
 30
0.000000
  70
    32
  0
VERTEX
  8
0
  5
26AF
 10
277.592
 20
214.916
 30
0.000000
  70
    32
  0
VERTEX
  8
0
  5
26B0
 10
277.591
 20
214.913
 30
0.000000
  70
    32
  0
VERTEX
  8
0
  5
26B1
 10
277.590
 20
214.910
 30
0.000000
  70
    32
  0
VERTEX
  8
0
  5
26B2
 10
277.589
 20
214.906
 30
0.000000
  70
    32
  0
VERTEX
  8
0
  5
26B3
 10
277.588
 20
214.903
 30
0.000000
  70
    32
  0
VERTEX
  8
0
  5
26B4
 10
277.587
 20
214.899
 30
0.000000
  70
    32
  0
VERTEX
  8
0
  5
26B5
 10
277.586
 20
214.895
 30
0.000000
  70
    32
  0
VERTEX
  8
0
  5
26B6
 10
277.585
 20
214.891
 30
0.000000
  70
    32
  0
VERTEX
  8
0
  5
26B7
 10
277.583
 20
214.887
 30
0.000000
  70
    32
  0
VERTEX
  8
0
  5
26B8
 10
277.582
 20
214.883
 30
0.000000
  70
    32
  0
VERTEX
  8
0
  5
26B9
 10
277.581
 20
214.879
 30
0.000000
  70
    32
  0
VERTEX
  8
0
  5
26BA
 10
277.580
 20
214.874
 30
0.000000
  70
    32
  0
VERTEX
  8
0
  5
26BB
 10
277.579
 20
214.870
 30
0.000000
  70
    32
  0
VERTEX
  8
0
  5
26BC
 10
277.578
 20
214.865
 30
0.000000
  70
    32
  0
VERTEX
  8
0
  5
26BD
 10
277.577
 20
214.860
 30
0.000000
  70
    32
  0
VERTEX
  8
0
  5
26BE
 10
277.576
 20
214.855
 30
0.000000
  70
    32
  0
VERTEX
  8
0
  5
26BF
 10
277.575
 20
214.850
 30
0.000000
  70
    32
  0
VERTEX
  8
0
  5
26C0
 10
277.574
 20
214.844
 30
0.000000
  70
    32
  0
VERTEX
  8
0
  5
26C1
 10
277.573
 20
214.839
 30
0.000000
  70
    32
  0
VERTEX
  8
0
  5
26C2
 10
277.572
 20
214.833
 30
0.000000
  70
    32
  0
VERTEX
  8
0
  5
26C3
 10
277.571
 20
214.828
 30
0.000000
  70
    32
  0
VERTEX
  8
0
  5
26C4
 10
277.570
 20
214.822
 30
0.000000
  70
    32
  0
VERTEX
  8
0
  5
26C5
 10
277.568
 20
214.816
 30
0.000000
  70
    32
  0
VERTEX
  8
0
  5
26C6
 10
277.567
 20
214.810
 30
0.000000
  70
    32
  0
VERTEX
  8
0
  5
26C7
 10
277.566
 20
214.804
 30
0.000000
  70
    32
  0
VERTEX
  8
0
  5
26C8
 10
277.565
 20
214.797
 30
0.000000
  70
    32
  0
VERTEX
  8
0
  5
26C9
 10
277.564
 20
214.791
 30
0.000000
  70
    32
  0
VERTEX
  8
0
  5
26CA
 10
277.563
 20
214.784
 30
0.000000
  70
    32
  0
VERTEX
  8
0
  5
26CB
 10
277.562
 20
214.778
 30
0.000000
  70
    32
  0
VERTEX
  8
0
  5
26CC
 10
277.561
 20
214.771
 30
0.000000
  70
    32
  0
VERTEX
  8
0
  5
26CD
 10
277.560
 20
214.764
 30
0.000000
  70
    32
  0
VERTEX
  8
0
  5
26CE
 10
277.559
 20
214.757
 30
0.000000
  70
    32
  0
VERTEX
  8
0
  5
26CF
 10
277.558
 20
214.749
 30
0.000000
  70
    32
  0
VERTEX
  8
0
  5
26D0
 10
277.557
 20
214.742
 30
0.000000
  70
    32
  0
VERTEX
  8
0
  5
26D1
 10
277.556
 20
214.734
 30
0.000000
  70
    32
  0
VERTEX
  8
0
  5
26D2
 10
277.555
 20
214.727
 30
0.000000
  70
    32
  0
VERTEX
  8
0
  5
26D3
 10
277.554
 20
214.719
 30
0.000000
  70
    32
  0
VERTEX
  8
0
  5
26D4
 10
277.553
 20
214.711
 30
0.000000
  70
    32
  0
VERTEX
  8
0
  5
26D5
 10
277.552
 20
214.703
 30
0.000000
  70
    32
  0
VERTEX
  8
0
  5
26D6
 10
277.551
 20
214.695
 30
0.000000
  70
    32
  0
VERTEX
  8
0
  5
26D7
 10
277.549
 20
214.686
 30
0.000000
  70
    32
  0
VERTEX
  8
0
  5
26D8
 10
277.548
 20
214.678
 30
0.000000
  70
    32
  0
VERTEX
  8
0
  5
26D9
 10
277.547
 20
214.669
 30
0.000000
  70
    32
  0
VERTEX
  8
0
  5
26DA
 10
277.546
 20
214.661
 30
0.000000
  70
    32
  0
VERTEX
  8
0
  5
26DB
 10
277.545
 20
214.652
 30
0.000000
  70
    32
  0
VERTEX
  8
0
  5
26DC
 10
277.544
 20
214.643
 30
0.000000
  70
    32
  0
VERTEX
  8
0
  5
26DD
 10
277.543
 20
214.634
 30
0.000000
  70
    32
  0
VERTEX
  8
0
  5
26DE
 10
277.542
 20
214.625
 30
0.000000
  70
    32
  0
VERTEX
  8
0
  5
26DF
 10
277.541
 20
214.615
 30
0.000000
  70
    32
  0
VERTEX
  8
0
  5
26E0
 10
277.540
 20
214.606
 30
0.000000
  70
    32
  0
VERTEX
  8
0
  5
26E1
 10
277.539
 20
214.596
 30
0.000000
  70
    32
  0
SEQEND
  8
0
  5
26E2
  0
POLYLINE
  5
24A2
  8
0
 10
277.24754158216996
 20
214.7001046029697
 30
0.0
 66
     1
 70
     8
  0
VERTEX
  8
0
  5
26E3
 10
277.248
 20
214.700
 30
0.000000
  70
    32
  0
VERTEX
  8
0
  5
26E4
 10
277.250
 20
214.678
 30
0.000000
  70
    32
  0
VERTEX
  8
0
  5
26E5
 10
277.252
 20
214.656
 30
0.000000
  70
    32
  0
VERTEX
  8
0
  5
26E6
 10
277.254
 20
214.634
 30
0.000000
  70
    32
  0
VERTEX
  8
0
  5
26E7
 10
277.256
 20
214.613
 30
0.000000
  70
    32
  0
VERTEX
  8
0
  5
26E8
 10
277.259
 20
214.592
 30
0.000000
  70
    32
  0
VERTEX
  8
0
  5
26E9
 10
277.261
 20
214.572
 30
0.000000
  70
    32
  0
VERTEX
  8
0
  5
26EA
 10
277.263
 20
214.551
 30
0.000000
  70
    32
  0
VERTEX
  8
0
  5
26EB
 10
277.265
 20
214.532
 30
0.000000
  70
    32
  0
VERTEX
  8
0
  5
26EC
 10
277.267
 20
214.512
 30
0.000000
  70
    32
  0
VERTEX
  8
0
  5
26ED
 10
277.270
 20
214.493
 30
0.000000
  70
    32
  0
VERTEX
  8
0
  5
26EE
 10
277.272
 20
214.474
 30
0.000000
  70
    32
  0
VERTEX
  8
0
  5
26EF
 10
277.274
 20
214.455
 30
0.000000
  70
    32
  0
VERTEX
  8
0
  5
26F0
 10
277.276
 20
214.437
 30
0.000000
  70
    32
  0
VERTEX
  8
0
  5
26F1
 10
277.278
 20
214.419
 30
0.000000
  70
    32
  0
VERTEX
  8
0
  5
26F2
 10
277.281
 20
214.401
 30
0.000000
  70
    32
  0
VERTEX
  8
0
  5
26F3
 10
277.283
 20
214.384
 30
0.000000
  70
    32
  0
VERTEX
  8
0
  5
26F4
 10
277.285
 20
214.367
 30
0.000000
  70
    32
  0
VERTEX
  8
0
  5
26F5
 10
277.287
 20
214.350
 30
0.000000
  70
    32
  0
VERTEX
  8
0
  5
26F6
 10
277.290
 20
214.334
 30
0.000000
  70
    32
  0
VERTEX
  8
0
  5
26F7
 10
277.292
 20
214.318
 30
0.000000
  70
    32
  0
VERTEX
  8
0
  5
26F8
 10
277.294
 20
214.303
 30
0.000000
  70
    32
  0
VERTEX
  8
0
  5
26F9
 10
277.296
 20
214.287
 30
0.000000
  70
    32
  0
VERTEX
  8
0
  5
26FA
 10
277.299
 20
214.272
 30
0.000000
  70
    32
  0
VERTEX
  8
0
  5
26FB
 10
277.301
 20
214.258
 30
0.000000
  70
    32
  0
VERTEX
  8
0
  5
26FC
 10
277.303
 20
214.243
 30
0.000000
  70
    32
  0
VERTEX
  8
0
  5
26FD
 10
277.306
 20
214.229
 30
0.000000
  70
    32
  0
VERTEX
  8
0
  5
26FE
 10
277.308
 20
214.216
 30
0.000000
  70
    32
  0
VERTEX
  8
0
  5
26FF
 10
277.310
 20
214.203
 30
0.000000
  70
    32
  0
VERTEX
  8
0
  5
2700
 10
277.312
 20
214.190
 30
0.000000
  70
    32
  0
VERTEX
  8
0
  5
2701
 10
277.315
 20
214.177
 30
0.000000
  70
    32
  0
VERTEX
  8
0
  5
2702
 10
277.317
 20
214.165
 30
0.000000
  70
    32
  0
VERTEX
  8
0
  5
2703
 10
277.319
 20
214.153
 30
0.000000
  70
    32
  0
VERTEX
  8
0
  5
2704
 10
277.321
 20
214.141
 30
0.000000
  70
    32
  0
VERTEX
  8
0
  5
2705
 10
277.324
 20
214.130
 30
0.000000
  70
    32
  0
VERTEX
  8
0
  5
2706
 10
277.326
 20
214.119
 30
0.000000
  70
    32
  0
VERTEX
  8
0
  5
2707
 10
277.328
 20
214.108
 30
0.000000
  70
    32
  0
VERTEX
  8
0
  5
2708
 10
277.331
 20
214.098
 30
0.000000
  70
    32
  0
VERTEX
  8
0
  5
2709
 10
277.333
 20
214.088
 30
0.000000
  70
    32
  0
VERTEX
  8
0
  5
270A
 10
277.335
 20
214.079
 30
0.000000
  70
    32
  0
VERTEX
  8
0
  5
270B
 10
277.338
 20
214.070
 30
0.000000
  70
    32
  0
VERTEX
  8
0
  5
270C
 10
277.340
 20
214.061
 30
0.000000
  70
    32
  0
VERTEX
  8
0
  5
270D
 10
277.342
 20
214.052
 30
0.000000
  70
    32
  0
VERTEX
  8
0
  5
270E
 10
277.344
 20
214.044
 30
0.000000
  70
    32
  0
VERTEX
  8
0
  5
270F
 10
277.347
 20
214.036
 30
0.000000
  70
    32
  0
VERTEX
  8
0
  5
2710
 10
277.349
 20
214.029
 30
0.000000
  70
    32
  0
VERTEX
  8
0
  5
2711
 10
277.351
 20
214.021
 30
0.000000
  70
    32
  0
VERTEX
  8
0
  5
2712
 10
277.354
 20
214.015
 30
0.000000
  70
    32
  0
VERTEX
  8
0
  5
2713
 10
277.356
 20
214.008
 30
0.000000
  70
    32
  0
VERTEX
  8
0
  5
2714
 10
277.358
 20
214.002
 30
0.000000
  70
    32
  0
VERTEX
  8
0
  5
2715
 10
277.361
 20
213.996
 30
0.000000
  70
    32
  0
VERTEX
  8
0
  5
2716
 10
277.363
 20
213.991
 30
0.000000
  70
    32
  0
VERTEX
  8
0
  5
2717
 10
277.365
 20
213.986
 30
0.000000
  70
    32
  0
VERTEX
  8
0
  5
2718
 10
277.368
 20
213.981
 30
0.000000
  70
    32
  0
VERTEX
  8
0
  5
2719
 10
277.370
 20
213.976
 30
0.000000
  70
    32
  0
VERTEX
  8
0
  5
271A
 10
277.372
 20
213.972
 30
0.000000
  70
    32
  0
VERTEX
  8
0
  5
271B
 10
277.374
 20
213.969
 30
0.000000
  70
    32
  0
VERTEX
  8
0
  5
271C
 10
277.377
 20
213.965
 30
0.000000
  70
    32
  0
VERTEX
  8
0
  5
271D
 10
277.379
 20
213.962
 30
0.000000
  70
    32
  0
VERTEX
  8
0
  5
271E
 10
277.381
 20
213.959
 30
0.000000
  70
    32
  0
VERTEX
  8
0
  5
271F
 10
277.384
 20
213.957
 30
0.000000
  70
    32
  0
VERTEX
  8
0
  5
2720
 10
277.386
 20
213.955
 30
0.000000
  70
    32
  0
VERTEX
  8
0
  5
2721
 10
277.388
 20
213.953
 30
0.000000
  70
    32
  0
VERTEX
  8
0
  5
2722
 10
277.391
 20
213.952
 30
0.000000
  70
    32
  0
VERTEX
  8
0
  5
2723
 10
277.393
 20
213.951
 30
0.000000
  70
    32
  0
VERTEX
  8
0
  5
2724
 10
277.395
 20
213.950
 30
0.000000
  70
    32
  0
VERTEX
  8
0
  5
2725
 10
277.398
 20
213.950
 30
0.000000
  70
    32
  0
VERTEX
  8
0
  5
2726
 10
277.400
 20
213.950
 30
0.000000
  70
    32
  0
VERTEX
  8
0
  5
2727
 10
277.402
 20
213.950
 30
0.000000
  70
    32
  0
VERTEX
  8
0
  5
2728
 10
277.405
 20
213.951
 30
0.000000
  70
    32
  0
VERTEX
  8
0
  5
2729
 10
277.407
 20
213.952
 30
0.000000
  70
    32
  0
VERTEX
  8
0
  5
272A
 10
277.409
 20
213.954
 30
0.000000
  70
    32
  0
VERTEX
  8
0
  5
272B
 10
277.412
 20
213.955
 30
0.000000
  70
    32
  0
VERTEX
  8
0
  5
272C
 10
277.414
 20
213.957
 30
0.000000
  70
    32
  0
VERTEX
  8
0
  5
272D
 10
277.416
 20
213.960
 30
0.000000
  70
    32
  0
VERTEX
  8
0
  5
272E
 10
277.419
 20
213.963
 30
0.000000
  70
    32
  0
VERTEX
  8
0
  5
272F
 10
277.421
 20
213.966
 30
0.000000
  70
    32
  0
VERTEX
  8
0
  5
2730
 10
277.423
 20
213.969
 30
0.000000
  70
    32
  0
VERTEX
  8
0
  5
2731
 10
277.425
 20
213.973
 30
0.000000
  70
    32
  0
VERTEX
  8
0
  5
2732
 10
277.428
 20
213.977
 30
0.000000
  70
    32
  0
VERTEX
  8
0
  5
2733
 10
277.430
 20
213.982
 30
0.000000
  70
    32
  0
VERTEX
  8
0
  5
2734
 10
277.432
 20
213.987
 30
0.000000
  70
    32
  0
VERTEX
  8
0
  5
2735
 10
277.435
 20
213.992
 30
0.000000
  70
    32
  0
VERTEX
  8
0
  5
2736
 10
277.437
 20
213.997
 30
0.000000
  70
    32
  0
VERTEX
  8
0
  5
2737
 10
277.439
 20
214.003
 30
0.000000
  70
    32
  0
VERTEX
  8
0
  5
2738
 10
277.442
 20
214.009
 30
0.000000
  70
    32
  0
VERTEX
  8
0
  5
2739
 10
277.444
 20
214.016
 30
0.000000
  70
    32
  0
VERTEX
  8
0
  5
273A
 10
277.446
 20
214.023
 30
0.000000
  70
    32
  0
VERTEX
  8
0
  5
273B
 10
277.449
 20
214.030
 30
0.000000
  70
    32
  0
VERTEX
  8
0
  5
273C
 10
277.451
 20
214.038
 30
0.000000
  70
    32
  0
VERTEX
  8
0
  5
273D
 10
277.453
 20
214.046
 30
0.000000
  70
    32
  0
VERTEX
  8
0
  5
273E
 10
277.456
 20
214.054
 30
0.000000
  70
    32
  0
VERTEX
  8
0
  5
273F
 10
277.458
 20
214.062
 30
0.000000
  70
    32
  0
VERTEX
  8
0
  5
2740
 10
277.460
 20
214.071
 30
0.000000
  70
    32
  0
VERTEX
  8
0
  5
2741
 10
277.462
 20
214.081
 30
0.000000
  70
    32
  0
VERTEX
  8
0
  5
2742
 10
277.465
 20
214.090
 30
0.000000
  70
    32
  0
VERTEX
  8
0
  5
2743
 10
277.467
 20
214.100
 30
0.000000
  70
    32
  0
VERTEX
  8
0
  5
2744
 10
277.469
 20
214.111
 30
0.000000
  70
    32
  0
VERTEX
  8
0
  5
2745
 10
277.472
 20
214.121
 30
0.000000
  70
    32
  0
VERTEX
  8
0
  5
2746
 10
277.474
 20
214.132
 30
0.000000
  70
    32
  0
VERTEX
  8
0
  5
2747
 10
277.476
 20
214.143
 30
0.000000
  70
    32
  0
VERTEX
  8
0
  5
2748
 10
277.478
 20
214.155
 30
0.000000
  70
    32
  0
VERTEX
  8
0
  5
2749
 10
277.481
 20
214.167
 30
0.000000
  70
    32
  0
VERTEX
  8
0
  5
274A
 10
277.483
 20
214.179
 30
0.000000
  70
    32
  0
VERTEX
  8
0
  5
274B
 10
277.485
 20
214.192
 30
0.000000
  70
    32
  0
VERTEX
  8
0
  5
274C
 10
277.488
 20
214.205
 30
0.000000
  70
    32
  0
VERTEX
  8
0
  5
274D
 10
277.490
 20
214.218
 30
0.000000
  70
    32
  0
VERTEX
  8
0
  5
274E
 10
277.492
 20
214.232
 30
0.000000
  70
    32
  0
VERTEX
  8
0
  5
274F
 10
277.494
 20
214.246
 30
0.000000
  70
    32
  0
VERTEX
  8
0
  5
2750
 10
277.497
 20
214.261
 30
0.000000
  70
    32
  0
VERTEX
  8
0
  5
2751
 10
277.499
 20
214.275
 30
0.000000
  70
    32
  0
VERTEX
  8
0
  5
2752
 10
277.501
 20
214.290
 30
0.000000
  70
    32
  0
VERTEX
  8
0
  5
2753
 10
277.503
 20
214.306
 30
0.000000
  70
    32
  0
VERTEX
  8
0
  5
2754
 10
277.506
 20
214.321
 30
0.000000
  70
    32
  0
VERTEX
  8
0
  5
2755
 10
277.508
 20
214.337
 30
0.000000
  70
    32
  0
VERTEX
  8
0
  5
2756
 10
277.510
 20
214.354
 30
0.000000
  70
    32
  0
VERTEX
  8
0
  5
2757
 10
277.512
 20
214.370
 30
0.000000
  70
    32
  0
VERTEX
  8
0
  5
2758
 10
277.515
 20
214.387
 30
0.000000
  70
    32
  0
VERTEX
  8
0
  5
2759
 10
277.517
 20
214.405
 30
0.000000
  70
    32
  0
VERTEX
  8
0
  5
275A
 10
277.519
 20
214.422
 30
0.000000
  70
    32
  0
VERTEX
  8
0
  5
275B
 10
277.521
 20
214.440
 30
0.000000
  70
    32
  0
VERTEX
  8
0
  5
275C
 10
277.524
 20
214.459
 30
0.000000
  70
    32
  0
VERTEX
  8
0
  5
275D
 10
277.526
 20
214.477
 30
0.000000
  70
    32
  0
VERTEX
  8
0
  5
275E
 10
277.528
 20
214.496
 30
0.000000
  70
    32
  0
VERTEX
  8
0
  5
275F
 10
277.530
 20
214.516
 30
0.000000
  70
    32
  0
VERTEX
  8
0
  5
2760
 10
277.532
 20
214.535
 30
0.000000
  70
    32
  0
VERTEX
  8
0
  5
2761
 10
277.535
 20
214.555
 30
0.000000
  70
    32
  0
VERTEX
  8
0
  5
2762
 10
277.537
 20
214.576
 30
0.000000
  70
    32
  0
VERTEX
  8
0
  5
2763
 10
277.539
 20
214.596
 30
0.000000
  70
    32
  0
SEQEND
  8
0
  5
2764
  0
LINE
  5
24A3
  8
0
 10
277.2475415821001
 20
214.70010460290001
 30
0.0
 11
277.10000000000002
 21
216.2000149438272
 31
0.0
  0
LINE
  5
24A4
  8
0
 10
278.60000000000002
 20
222.10534905053709
 30
0.0
 11
278.60000000000002
 21
205.9135932036221
 31
0.0
  0
POLYLINE
  5
24A5
  8
0
 10
278.60000000000008
 20
222.10534905053697
 30
0.0
 66
     1
 70
     8
  0
VERTEX
  8
0
  5
2765
 10
278.600
 20
222.105
 30
0.000000
  70
    32
  0
VERTEX
  8
0
  5
2766
 10
278.588
 20
222.188
 30
0.000000
  70
    32
  0
VERTEX
  8
0
  5
2767
 10
278.577
 20
222.271
 30
0.000000
  70
    32
  0
VERTEX
  8
0
  5
2768
 10
278.565
 20
222.353
 30
0.000000
  70
    32
  0
VERTEX
  8
0
  5
2769
 10
278.554
 20
222.435
 30
0.000000
  70
    32
  0
VERTEX
  8
0
  5
276A
 10
278.542
 20
222.516
 30
0.000000
  70
    32
  0
VERTEX
  8
0
  5
276B
 10
278.531
 20
222.597
 30
0.000000
  70
    32
  0
VERTEX
  8
0
  5
276C
 10
278.519
 20
222.678
 30
0.000000
  70
    32
  0
VERTEX
  8
0
  5
276D
 10
278.508
 20
222.758
 30
0.000000
  70
    32
  0
VERTEX
  8
0
  5
276E
 10
278.496
 20
222.838
 30
0.000000
  70
    32
  0
VERTEX
  8
0
  5
276F
 10
278.484
 20
222.917
 30
0.000000
  70
    32
  0
VERTEX
  8
0
  5
2770
 10
278.473
 20
222.996
 30
0.000000
  70
    32
  0
VERTEX
  8
0
  5
2771
 10
278.461
 20
223.074
 30
0.000000
  70
    32
  0
VERTEX
  8
0
  5
2772
 10
278.450
 20
223.152
 30
0.000000
  70
    32
  0
VERTEX
  8
0
  5
2773
 10
278.438
 20
223.230
 30
0.000000
  70
    32
  0
VERTEX
  8
0
  5
2774
 10
278.427
 20
223.307
 30
0.000000
  70
    32
  0
VERTEX
  8
0
  5
2775
 10
278.415
 20
223.384
 30
0.000000
  70
    32
  0
VERTEX
  8
0
  5
2776
 10
278.403
 20
223.461
 30
0.000000
  70
    32
  0
VERTEX
  8
0
  5
2777
 10
278.392
 20
223.537
 30
0.000000
  70
    32
  0
VERTEX
  8
0
  5
2778
 10
278.380
 20
223.612
 30
0.000000
  70
    32
  0
VERTEX
  8
0
  5
2779
 10
278.369
 20
223.687
 30
0.000000
  70
    32
  0
VERTEX
  8
0
  5
277A
 10
278.357
 20
223.762
 30
0.000000
  70
    32
  0
VERTEX
  8
0
  5
277B
 10
278.345
 20
223.836
 30
0.000000
  70
    32
  0
VERTEX
  8
0
  5
277C
 10
278.334
 20
223.910
 30
0.000000
  70
    32
  0
VERTEX
  8
0
  5
277D
 10
278.322
 20
223.984
 30
0.000000
  70
    32
  0
VERTEX
  8
0
  5
277E
 10
278.311
 20
224.057
 30
0.000000
  70
    32
  0
VERTEX
  8
0
  5
277F
 10
278.299
 20
224.130
 30
0.000000
  70
    32
  0
VERTEX
  8
0
  5
2780
 10
278.287
 20
224.202
 30
0.000000
  70
    32
  0
VERTEX
  8
0
  5
2781
 10
278.276
 20
224.274
 30
0.000000
  70
    32
  0
VERTEX
  8
0
  5
2782
 10
278.264
 20
224.345
 30
0.000000
  70
    32
  0
VERTEX
  8
0
  5
2783
 10
278.252
 20
224.416
 30
0.000000
  70
    32
  0
VERTEX
  8
0
  5
2784
 10
278.241
 20
224.487
 30
0.000000
  70
    32
  0
VERTEX
  8
0
  5
2785
 10
278.229
 20
224.557
 30
0.000000
  70
    32
  0
VERTEX
  8
0
  5
2786
 10
278.217
 20
224.627
 30
0.000000
  70
    32
  0
VERTEX
  8
0
  5
2787
 10
278.206
 20
224.696
 30
0.000000
  70
    32
  0
VERTEX
  8
0
  5
2788
 10
278.194
 20
224.765
 30
0.000000
  70
    32
  0
VERTEX
  8
0
  5
2789
 10
278.183
 20
224.833
 30
0.000000
  70
    32
  0
VERTEX
  8
0
  5
278A
 10
278.171
 20
224.901
 30
0.000000
  70
    32
  0
VERTEX
  8
0
  5
278B
 10
278.159
 20
224.969
 30
0.000000
  70
    32
  0
VERTEX
  8
0
  5
278C
 10
278.148
 20
225.036
 30
0.000000
  70
    32
  0
VERTEX
  8
0
  5
278D
 10
278.136
 20
225.103
 30
0.000000
  70
    32
  0
VERTEX
  8
0
  5
278E
 10
278.124
 20
225.170
 30
0.000000
  70
    32
  0
VERTEX
  8
0
  5
278F
 10
278.113
 20
225.236
 30
0.000000
  70
    32
  0
VERTEX
  8
0
  5
2790
 10
278.101
 20
225.301
 30
0.000000
  70
    32
  0
VERTEX
  8
0
  5
2791
 10
278.089
 20
225.366
 30
0.000000
  70
    32
  0
VERTEX
  8
0
  5
2792
 10
278.078
 20
225.431
 30
0.000000
  70
    32
  0
VERTEX
  8
0
  5
2793
 10
278.066
 20
225.496
 30
0.000000
  70
    32
  0
VERTEX
  8
0
  5
2794
 10
278.054
 20
225.559
 30
0.000000
  70
    32
  0
VERTEX
  8
0
  5
2795
 10
278.042
 20
225.623
 30
0.000000
  70
    32
  0
VERTEX
  8
0
  5
2796
 10
278.031
 20
225.686
 30
0.000000
  70
    32
  0
VERTEX
  8
0
  5
2797
 10
278.019
 20
225.749
 30
0.000000
  70
    32
  0
VERTEX
  8
0
  5
2798
 10
278.007
 20
225.811
 30
0.000000
  70
    32
  0
VERTEX
  8
0
  5
2799
 10
277.996
 20
225.873
 30
0.000000
  70
    32
  0
VERTEX
  8
0
  5
279A
 10
277.984
 20
225.934
 30
0.000000
  70
    32
  0
VERTEX
  8
0
  5
279B
 10
277.972
 20
225.995
 30
0.000000
  70
    32
  0
VERTEX
  8
0
  5
279C
 10
277.961
 20
226.056
 30
0.000000
  70
    32
  0
VERTEX
  8
0
  5
279D
 10
277.949
 20
226.116
 30
0.000000
  70
    32
  0
VERTEX
  8
0
  5
279E
 10
277.937
 20
226.176
 30
0.000000
  70
    32
  0
VERTEX
  8
0
  5
279F
 10
277.925
 20
226.235
 30
0.000000
  70
    32
  0
VERTEX
  8
0
  5
27A0
 10
277.914
 20
226.294
 30
0.000000
  70
    32
  0
VERTEX
  8
0
  5
27A1
 10
277.902
 20
226.352
 30
0.000000
  70
    32
  0
VERTEX
  8
0
  5
27A2
 10
277.890
 20
226.411
 30
0.000000
  70
    32
  0
VERTEX
  8
0
  5
27A3
 10
277.879
 20
226.468
 30
0.000000
  70
    32
  0
VERTEX
  8
0
  5
27A4
 10
277.867
 20
226.525
 30
0.000000
  70
    32
  0
VERTEX
  8
0
  5
27A5
 10
277.855
 20
226.582
 30
0.000000
  70
    32
  0
VERTEX
  8
0
  5
27A6
 10
277.843
 20
226.639
 30
0.000000
  70
    32
  0
VERTEX
  8
0
  5
27A7
 10
277.832
 20
226.695
 30
0.000000
  70
    32
  0
VERTEX
  8
0
  5
27A8
 10
277.820
 20
226.750
 30
0.000000
  70
    32
  0
VERTEX
  8
0
  5
27A9
 10
277.808
 20
226.805
 30
0.000000
  70
    32
  0
VERTEX
  8
0
  5
27AA
 10
277.796
 20
226.860
 30
0.000000
  70
    32
  0
VERTEX
  8
0
  5
27AB
 10
277.785
 20
226.914
 30
0.000000
  70
    32
  0
VERTEX
  8
0
  5
27AC
 10
277.773
 20
226.968
 30
0.000000
  70
    32
  0
VERTEX
  8
0
  5
27AD
 10
277.761
 20
227.022
 30
0.000000
  70
    32
  0
VERTEX
  8
0
  5
27AE
 10
277.749
 20
227.075
 30
0.000000
  70
    32
  0
VERTEX
  8
0
  5
27AF
 10
277.738
 20
227.127
 30
0.000000
  70
    32
  0
VERTEX
  8
0
  5
27B0
 10
277.726
 20
227.179
 30
0.000000
  70
    32
  0
VERTEX
  8
0
  5
27B1
 10
277.714
 20
227.231
 30
0.000000
  70
    32
  0
VERTEX
  8
0
  5
27B2
 10
277.702
 20
227.282
 30
0.000000
  70
    32
  0
VERTEX
  8
0
  5
27B3
 10
277.691
 20
227.333
 30
0.000000
  70
    32
  0
VERTEX
  8
0
  5
27B4
 10
277.679
 20
227.384
 30
0.000000
  70
    32
  0
VERTEX
  8
0
  5
27B5
 10
277.667
 20
227.434
 30
0.000000
  70
    32
  0
VERTEX
  8
0
  5
27B6
 10
277.655
 20
227.484
 30
0.000000
  70
    32
  0
VERTEX
  8
0
  5
27B7
 10
277.644
 20
227.533
 30
0.000000
  70
    32
  0
VERTEX
  8
0
  5
27B8
 10
277.632
 20
227.582
 30
0.000000
  70
    32
  0
VERTEX
  8
0
  5
27B9
 10
277.620
 20
227.630
 30
0.000000
  70
    32
  0
VERTEX
  8
0
  5
27BA
 10
277.608
 20
227.678
 30
0.000000
  70
    32
  0
VERTEX
  8
0
  5
27BB
 10
277.596
 20
227.726
 30
0.000000
  70
    32
  0
VERTEX
  8
0
  5
27BC
 10
277.585
 20
227.773
 30
0.000000
  70
    32
  0
VERTEX
  8
0
  5
27BD
 10
277.573
 20
227.820
 30
0.000000
  70
    32
  0
VERTEX
  8
0
  5
27BE
 10
277.561
 20
227.866
 30
0.000000
  70
    32
  0
VERTEX
  8
0
  5
27BF
 10
277.549
 20
227.912
 30
0.000000
  70
    32
  0
VERTEX
  8
0
  5
27C0
 10
277.538
 20
227.957
 30
0.000000
  70
    32
  0
VERTEX
  8
0
  5
27C1
 10
277.526
 20
228.002
 30
0.000000
  70
    32
  0
VERTEX
  8
0
  5
27C2
 10
277.514
 20
228.047
 30
0.000000
  70
    32
  0
VERTEX
  8
0
  5
27C3
 10
277.502
 20
228.091
 30
0.000000
  70
    32
  0
VERTEX
  8
0
  5
27C4
 10
277.490
 20
228.135
 30
0.000000
  70
    32
  0
VERTEX
  8
0
  5
27C5
 10
277.479
 20
228.178
 30
0.000000
  70
    32
  0
VERTEX
  8
0
  5
27C6
 10
277.467
 20
228.221
 30
0.000000
  70
    32
  0
VERTEX
  8
0
  5
27C7
 10
277.455
 20
228.264
 30
0.000000
  70
    32
  0
VERTEX
  8
0
  5
27C8
 10
277.443
 20
228.306
 30
0.000000
  70
    32
  0
VERTEX
  8
0
  5
27C9
 10
277.431
 20
228.347
 30
0.000000
  70
    32
  0
VERTEX
  8
0
  5
27CA
 10
277.419
 20
228.389
 30
0.000000
  70
    32
  0
VERTEX
  8
0
  5
27CB
 10
277.408
 20
228.429
 30
0.000000
  70
    32
  0
VERTEX
  8
0
  5
27CC
 10
277.396
 20
228.470
 30
0.000000
  70
    32
  0
VERTEX
  8
0
  5
27CD
 10
277.384
 20
228.510
 30
0.000000
  70
    32
  0
VERTEX
  8
0
  5
27CE
 10
277.372
 20
228.549
 30
0.000000
  70
    32
  0
VERTEX
  8
0
  5
27CF
 10
277.360
 20
228.588
 30
0.000000
  70
    32
  0
VERTEX
  8
0
  5
27D0
 10
277.349
 20
228.627
 30
0.000000
  70
    32
  0
VERTEX
  8
0
  5
27D1
 10
277.337
 20
228.665
 30
0.000000
  70
    32
  0
VERTEX
  8
0
  5
27D2
 10
277.325
 20
228.703
 30
0.000000
  70
    32
  0
VERTEX
  8
0
  5
27D3
 10
277.313
 20
228.741
 30
0.000000
  70
    32
  0
VERTEX
  8
0
  5
27D4
 10
277.301
 20
228.778
 30
0.000000
  70
    32
  0
VERTEX
  8
0
  5
27D5
 10
277.289
 20
228.814
 30
0.000000
  70
    32
  0
VERTEX
  8
0
  5
27D6
 10
277.278
 20
228.850
 30
0.000000
  70
    32
  0
VERTEX
  8
0
  5
27D7
 10
277.266
 20
228.886
 30
0.000000
  70
    32
  0
VERTEX
  8
0
  5
27D8
 10
277.254
 20
228.921
 30
0.000000
  70
    32
  0
VERTEX
  8
0
  5
27D9
 10
277.242
 20
228.956
 30
0.000000
  70
    32
  0
VERTEX
  8
0
  5
27DA
 10
277.230
 20
228.991
 30
0.000000
  70
    32
  0
VERTEX
  8
0
  5
27DB
 10
277.218
 20
229.025
 30
0.000000
  70
    32
  0
VERTEX
  8
0
  5
27DC
 10
277.207
 20
229.058
 30
0.000000
  70
    32
  0
VERTEX
  8
0
  5
27DD
 10
277.195
 20
229.092
 30
0.000000
  70
    32
  0
VERTEX
  8
0
  5
27DE
 10
277.183
 20
229.124
 30
0.000000
  70
    32
  0
VERTEX
  8
0
  5
27DF
 10
277.171
 20
229.157
 30
0.000000
  70
    32
  0
VERTEX
  8
0
  5
27E0
 10
277.159
 20
229.189
 30
0.000000
  70
    32
  0
VERTEX
  8
0
  5
27E1
 10
277.147
 20
229.220
 30
0.000000
  70
    32
  0
VERTEX
  8
0
  5
27E2
 10
277.136
 20
229.251
 30
0.000000
  70
    32
  0
VERTEX
  8
0
  5
27E3
 10
277.124
 20
229.282
 30
0.000000
  70
    32
  0
VERTEX
  8
0
  5
27E4
 10
277.112
 20
229.312
 30
0.000000
  70
    32
  0
VERTEX
  8
0
  5
27E5
 10
277.100
 20
229.342
 30
0.000000
  70
    32
  0
SEQEND
  8
0
  5
27E6
  0
POLYLINE
  5
24A6
  8
0
 10
262.32388525169745
 20
214.7499999998833
 30
0.0
 66
     1
 70
     8
  0
VERTEX
  8
0
  5
27E7
 10
262.324
 20
214.750
 30
0.000000
  70
    32
  0
VERTEX
  8
0
  5
27E8
 10
262.317
 20
214.695
 30
0.000000
  70
    32
  0
VERTEX
  8
0
  5
27E9
 10
262.309
 20
214.639
 30
0.000000
  70
    32
  0
VERTEX
  8
0
  5
27EA
 10
262.302
 20
214.583
 30
0.000000
  70
    32
  0
VERTEX
  8
0
  5
27EB
 10
262.294
 20
214.527
 30
0.000000
  70
    32
  0
VERTEX
  8
0
  5
27EC
 10
262.287
 20
214.471
 30
0.000000
  70
    32
  0
VERTEX
  8
0
  5
27ED
 10
262.280
 20
214.414
 30
0.000000
  70
    32
  0
VERTEX
  8
0
  5
27EE
 10
262.272
 20
214.358
 30
0.000000
  70
    32
  0
VERTEX
  8
0
  5
27EF
 10
262.265
 20
214.301
 30
0.000000
  70
    32
  0
VERTEX
  8
0
  5
27F0
 10
262.258
 20
214.244
 30
0.000000
  70
    32
  0
VERTEX
  8
0
  5
27F1
 10
262.250
 20
214.186
 30
0.000000
  70
    32
  0
VERTEX
  8
0
  5
27F2
 10
262.243
 20
214.129
 30
0.000000
  70
    32
  0
VERTEX
  8
0
  5
27F3
 10
262.236
 20
214.071
 30
0.000000
  70
    32
  0
VERTEX
  8
0
  5
27F4
 10
262.228
 20
214.013
 30
0.000000
  70
    32
  0
VERTEX
  8
0
  5
27F5
 10
262.221
 20
213.955
 30
0.000000
  70
    32
  0
VERTEX
  8
0
  5
27F6
 10
262.214
 20
213.896
 30
0.000000
  70
    32
  0
VERTEX
  8
0
  5
27F7
 10
262.206
 20
213.838
 30
0.000000
  70
    32
  0
VERTEX
  8
0
  5
27F8
 10
262.199
 20
213.779
 30
0.000000
  70
    32
  0
VERTEX
  8
0
  5
27F9
 10
262.192
 20
213.720
 30
0.000000
  70
    32
  0
VERTEX
  8
0
  5
27FA
 10
262.184
 20
213.660
 30
0.000000
  70
    32
  0
VERTEX
  8
0
  5
27FB
 10
262.177
 20
213.601
 30
0.000000
  70
    32
  0
VERTEX
  8
0
  5
27FC
 10
262.170
 20
213.541
 30
0.000000
  70
    32
  0
VERTEX
  8
0
  5
27FD
 10
262.162
 20
213.481
 30
0.000000
  70
    32
  0
VERTEX
  8
0
  5
27FE
 10
262.155
 20
213.421
 30
0.000000
  70
    32
  0
VERTEX
  8
0
  5
27FF
 10
262.148
 20
213.361
 30
0.000000
  70
    32
  0
VERTEX
  8
0
  5
2800
 10
262.140
 20
213.300
 30
0.000000
  70
    32
  0
VERTEX
  8
0
  5
2801
 10
262.133
 20
213.239
 30
0.000000
  70
    32
  0
VERTEX
  8
0
  5
2802
 10
262.126
 20
213.178
 30
0.000000
  70
    32
  0
VERTEX
  8
0
  5
2803
 10
262.118
 20
213.117
 30
0.000000
  70
    32
  0
VERTEX
  8
0
  5
2804
 10
262.111
 20
213.055
 30
0.000000
  70
    32
  0
VERTEX
  8
0
  5
2805
 10
262.104
 20
212.994
 30
0.000000
  70
    32
  0
VERTEX
  8
0
  5
2806
 10
262.096
 20
212.932
 30
0.000000
  70
    32
  0
VERTEX
  8
0
  5
2807
 10
262.089
 20
212.870
 30
0.000000
  70
    32
  0
VERTEX
  8
0
  5
2808
 10
262.082
 20
212.807
 30
0.000000
  70
    32
  0
VERTEX
  8
0
  5
2809
 10
262.075
 20
212.745
 30
0.000000
  70
    32
  0
VERTEX
  8
0
  5
280A
 10
262.067
 20
212.682
 30
0.000000
  70
    32
  0
VERTEX
  8
0
  5
280B
 10
262.060
 20
212.619
 30
0.000000
  70
    32
  0
VERTEX
  8
0
  5
280C
 10
262.053
 20
212.556
 30
0.000000
  70
    32
  0
VERTEX
  8
0
  5
280D
 10
262.045
 20
212.493
 30
0.000000
  70
    32
  0
VERTEX
  8
0
  5
280E
 10
262.038
 20
212.429
 30
0.000000
  70
    32
  0
VERTEX
  8
0
  5
280F
 10
262.031
 20
212.365
 30
0.000000
  70
    32
  0
VERTEX
  8
0
  5
2810
 10
262.024
 20
212.301
 30
0.000000
  70
    32
  0
VERTEX
  8
0
  5
2811
 10
262.016
 20
212.237
 30
0.000000
  70
    32
  0
VERTEX
  8
0
  5
2812
 10
262.009
 20
212.172
 30
0.000000
  70
    32
  0
VERTEX
  8
0
  5
2813
 10
262.002
 20
212.108
 30
0.000000
  70
    32
  0
VERTEX
  8
0
  5
2814
 10
261.994
 20
212.043
 30
0.000000
  70
    32
  0
VERTEX
  8
0
  5
2815
 10
261.987
 20
211.978
 30
0.000000
  70
    32
  0
VERTEX
  8
0
  5
2816
 10
261.980
 20
211.912
 30
0.000000
  70
    32
  0
VERTEX
  8
0
  5
2817
 10
261.973
 20
211.847
 30
0.000000
  70
    32
  0
VERTEX
  8
0
  5
2818
 10
261.965
 20
211.781
 30
0.000000
  70
    32
  0
VERTEX
  8
0
  5
2819
 10
261.958
 20
211.715
 30
0.000000
  70
    32
  0
VERTEX
  8
0
  5
281A
 10
261.951
 20
211.649
 30
0.000000
  70
    32
  0
VERTEX
  8
0
  5
281B
 10
261.944
 20
211.582
 30
0.000000
  70
    32
  0
VERTEX
  8
0
  5
281C
 10
261.936
 20
211.516
 30
0.000000
  70
    32
  0
VERTEX
  8
0
  5
281D
 10
261.929
 20
211.449
 30
0.000000
  70
    32
  0
VERTEX
  8
0
  5
281E
 10
261.922
 20
211.382
 30
0.000000
  70
    32
  0
VERTEX
  8
0
  5
281F
 10
261.915
 20
211.315
 30
0.000000
  70
    32
  0
VERTEX
  8
0
  5
2820
 10
261.907
 20
211.247
 30
0.000000
  70
    32
  0
VERTEX
  8
0
  5
2821
 10
261.900
 20
211.179
 30
0.000000
  70
    32
  0
VERTEX
  8
0
  5
2822
 10
261.893
 20
211.111
 30
0.000000
  70
    32
  0
VERTEX
  8
0
  5
2823
 10
261.886
 20
211.043
 30
0.000000
  70
    32
  0
VERTEX
  8
0
  5
2824
 10
261.878
 20
210.975
 30
0.000000
  70
    32
  0
VERTEX
  8
0
  5
2825
 10
261.871
 20
210.906
 30
0.000000
  70
    32
  0
VERTEX
  8
0
  5
2826
 10
261.864
 20
210.838
 30
0.000000
  70
    32
  0
VERTEX
  8
0
  5
2827
 10
261.857
 20
210.769
 30
0.000000
  70
    32
  0
VERTEX
  8
0
  5
2828
 10
261.850
 20
210.699
 30
0.000000
  70
    32
  0
VERTEX
  8
0
  5
2829
 10
261.842
 20
210.630
 30
0.000000
  70
    32
  0
VERTEX
  8
0
  5
282A
 10
261.835
 20
210.560
 30
0.000000
  70
    32
  0
VERTEX
  8
0
  5
282B
 10
261.828
 20
210.491
 30
0.000000
  70
    32
  0
VERTEX
  8
0
  5
282C
 10
261.821
 20
210.421
 30
0.000000
  70
    32
  0
VERTEX
  8
0
  5
282D
 10
261.813
 20
210.350
 30
0.000000
  70
    32
  0
VERTEX
  8
0
  5
282E
 10
261.806
 20
210.280
 30
0.000000
  70
    32
  0
VERTEX
  8
0
  5
282F
 10
261.799
 20
210.209
 30
0.000000
  70
    32
  0
VERTEX
  8
0
  5
2830
 10
261.792
 20
210.138
 30
0.000000
  70
    32
  0
VERTEX
  8
0
  5
2831
 10
261.785
 20
210.067
 30
0.000000
  70
    32
  0
VERTEX
  8
0
  5
2832
 10
261.777
 20
209.996
 30
0.000000
  70
    32
  0
VERTEX
  8
0
  5
2833
 10
261.770
 20
209.924
 30
0.000000
  70
    32
  0
VERTEX
  8
0
  5
2834
 10
261.763
 20
209.853
 30
0.000000
  70
    32
  0
VERTEX
  8
0
  5
2835
 10
261.756
 20
209.781
 30
0.000000
  70
    32
  0
VERTEX
  8
0
  5
2836
 10
261.749
 20
209.708
 30
0.000000
  70
    32
  0
VERTEX
  8
0
  5
2837
 10
261.742
 20
209.636
 30
0.000000
  70
    32
  0
VERTEX
  8
0
  5
2838
 10
261.734
 20
209.563
 30
0.000000
  70
    32
  0
VERTEX
  8
0
  5
2839
 10
261.727
 20
209.491
 30
0.000000
  70
    32
  0
VERTEX
  8
0
  5
283A
 10
261.720
 20
209.418
 30
0.000000
  70
    32
  0
VERTEX
  8
0
  5
283B
 10
261.713
 20
209.344
 30
0.000000
  70
    32
  0
VERTEX
  8
0
  5
283C
 10
261.706
 20
209.271
 30
0.000000
  70
    32
  0
VERTEX
  8
0
  5
283D
 10
261.698
 20
209.197
 30
0.000000
  70
    32
  0
VERTEX
  8
0
  5
283E
 10
261.691
 20
209.123
 30
0.000000
  70
    32
  0
VERTEX
  8
0
  5
283F
 10
261.684
 20
209.049
 30
0.000000
  70
    32
  0
VERTEX
  8
0
  5
2840
 10
261.677
 20
208.975
 30
0.000000
  70
    32
  0
VERTEX
  8
0
  5
2841
 10
261.670
 20
208.901
 30
0.000000
  70
    32
  0
VERTEX
  8
0
  5
2842
 10
261.663
 20
208.826
 30
0.000000
  70
    32
  0
VERTEX
  8
0
  5
2843
 10
261.656
 20
208.751
 30
0.000000
  70
    32
  0
VERTEX
  8
0
  5
2844
 10
261.648
 20
208.676
 30
0.000000
  70
    32
  0
VERTEX
  8
0
  5
2845
 10
261.641
 20
208.600
 30
0.000000
  70
    32
  0
VERTEX
  8
0
  5
2846
 10
261.634
 20
208.525
 30
0.000000
  70
    32
  0
VERTEX
  8
0
  5
2847
 10
261.627
 20
208.449
 30
0.000000
  70
    32
  0
VERTEX
  8
0
  5
2848
 10
261.620
 20
208.373
 30
0.000000
  70
    32
  0
VERTEX
  8
0
  5
2849
 10
261.613
 20
208.297
 30
0.000000
  70
    32
  0
VERTEX
  8
0
  5
284A
 10
261.606
 20
208.221
 30
0.000000
  70
    32
  0
VERTEX
  8
0
  5
284B
 10
261.598
 20
208.144
 30
0.000000
  70
    32
  0
VERTEX
  8
0
  5
284C
 10
261.591
 20
208.067
 30
0.000000
  70
    32
  0
VERTEX
  8
0
  5
284D
 10
261.584
 20
207.990
 30
0.000000
  70
    32
  0
VERTEX
  8
0
  5
284E
 10
261.577
 20
207.913
 30
0.000000
  70
    32
  0
VERTEX
  8
0
  5
284F
 10
261.570
 20
207.835
 30
0.000000
  70
    32
  0
VERTEX
  8
0
  5
2850
 10
261.563
 20
207.758
 30
0.000000
  70
    32
  0
VERTEX
  8
0
  5
2851
 10
261.556
 20
207.680
 30
0.000000
  70
    32
  0
VERTEX
  8
0
  5
2852
 10
261.549
 20
207.602
 30
0.000000
  70
    32
  0
VERTEX
  8
0
  5
2853
 10
261.542
 20
207.523
 30
0.000000
  70
    32
  0
VERTEX
  8
0
  5
2854
 10
261.534
 20
207.445
 30
0.000000
  70
    32
  0
VERTEX
  8
0
  5
2855
 10
261.527
 20
207.366
 30
0.000000
  70
    32
  0
VERTEX
  8
0
  5
2856
 10
261.520
 20
207.287
 30
0.000000
  70
    32
  0
VERTEX
  8
0
  5
2857
 10
261.513
 20
207.208
 30
0.000000
  70
    32
  0
VERTEX
  8
0
  5
2858
 10
261.506
 20
207.129
 30
0.000000
  70
    32
  0
VERTEX
  8
0
  5
2859
 10
261.499
 20
207.049
 30
0.000000
  70
    32
  0
VERTEX
  8
0
  5
285A
 10
261.492
 20
206.970
 30
0.000000
  70
    32
  0
VERTEX
  8
0
  5
285B
 10
261.485
 20
206.890
 30
0.000000
  70
    32
  0
VERTEX
  8
0
  5
285C
 10
261.478
 20
206.809
 30
0.000000
  70
    32
  0
VERTEX
  8
0
  5
285D
 10
261.471
 20
206.729
 30
0.000000
  70
    32
  0
VERTEX
  8
0
  5
285E
 10
261.464
 20
206.648
 30
0.000000
  70
    32
  0
VERTEX
  8
0
  5
285F
 10
261.456
 20
206.568
 30
0.000000
  70
    32
  0
VERTEX
  8
0
  5
2860
 10
261.449
 20
206.487
 30
0.000000
  70
    32
  0
VERTEX
  8
0
  5
2861
 10
261.442
 20
206.405
 30
0.000000
  70
    32
  0
VERTEX
  8
0
  5
2862
 10
261.435
 20
206.324
 30
0.000000
  70
    32
  0
VERTEX
  8
0
  5
2863
 10
261.428
 20
206.242
 30
0.000000
  70
    32
  0
VERTEX
  8
0
  5
2864
 10
261.421
 20
206.160
 30
0.000000
  70
    32
  0
VERTEX
  8
0
  5
2865
 10
261.414
 20
206.078
 30
0.000000
  70
    32
  0
VERTEX
  8
0
  5
2866
 10
261.407
 20
205.996
 30
0.000000
  70
    32
  0
VERTEX
  8
0
  5
2867
 10
261.400
 20
205.914
 30
0.000000
  70
    32
  0
SEQEND
  8
0
  5
2868
  0
LINE
  5
24A7
  8
0
 10
262.89999999999998
 20
216.2000149431251
 30
0.0
 11
262.75245841790002
 21
214.70010460290001
 31
0.0
  0
POLYLINE
  5
24A8
  8
0
 10
262.46088814859974
 20
214.59636984141665
 30
0.0
 66
     1
 70
     8
  0
VERTEX
  8
0
  5
2869
 10
262.461
 20
214.596
 30
0.000000
  70
    32
  0
VERTEX
  8
0
  5
286A
 10
262.463
 20
214.576
 30
0.000000
  70
    32
  0
VERTEX
  8
0
  5
286B
 10
262.465
 20
214.555
 30
0.000000
  70
    32
  0
VERTEX
  8
0
  5
286C
 10
262.468
 20
214.535
 30
0.000000
  70
    32
  0
VERTEX
  8
0
  5
286D
 10
262.470
 20
214.516
 30
0.000000
  70
    32
  0
VERTEX
  8
0
  5
286E
 10
262.472
 20
214.496
 30
0.000000
  70
    32
  0
VERTEX
  8
0
  5
286F
 10
262.474
 20
214.477
 30
0.000000
  70
    32
  0
VERTEX
  8
0
  5
2870
 10
262.476
 20
214.459
 30
0.000000
  70
    32
  0
VERTEX
  8
0
  5
2871
 10
262.479
 20
214.440
 30
0.000000
  70
    32
  0
VERTEX
  8
0
  5
2872
 10
262.481
 20
214.422
 30
0.000000
  70
    32
  0
VERTEX
  8
0
  5
2873
 10
262.483
 20
214.405
 30
0.000000
  70
    32
  0
VERTEX
  8
0
  5
2874
 10
262.485
 20
214.387
 30
0.000000
  70
    32
  0
VERTEX
  8
0
  5
2875
 10
262.488
 20
214.370
 30
0.000000
  70
    32
  0
VERTEX
  8
0
  5
2876
 10
262.490
 20
214.354
 30
0.000000
  70
    32
  0
VERTEX
  8
0
  5
2877
 10
262.492
 20
214.337
 30
0.000000
  70
    32
  0
VERTEX
  8
0
  5
2878
 10
262.494
 20
214.321
 30
0.000000
  70
    32
  0
VERTEX
  8
0
  5
2879
 10
262.497
 20
214.306
 30
0.000000
  70
    32
  0
VERTEX
  8
0
  5
287A
 10
262.499
 20
214.290
 30
0.000000
  70
    32
  0
VERTEX
  8
0
  5
287B
 10
262.501
 20
214.275
 30
0.000000
  70
    32
  0
VERTEX
  8
0
  5
287C
 10
262.503
 20
214.261
 30
0.000000
  70
    32
  0
VERTEX
  8
0
  5
287D
 10
262.506
 20
214.246
 30
0.000000
  70
    32
  0
VERTEX
  8
0
  5
287E
 10
262.508
 20
214.232
 30
0.000000
  70
    32
  0
VERTEX
  8
0
  5
287F
 10
262.510
 20
214.218
 30
0.000000
  70
    32
  0
VERTEX
  8
0
  5
2880
 10
262.512
 20
214.205
 30
0.000000
  70
    32
  0
VERTEX
  8
0
  5
2881
 10
262.515
 20
214.192
 30
0.000000
  70
    32
  0
VERTEX
  8
0
  5
2882
 10
262.517
 20
214.179
 30
0.000000
  70
    32
  0
VERTEX
  8
0
  5
2883
 10
262.519
 20
214.167
 30
0.000000
  70
    32
  0
VERTEX
  8
0
  5
2884
 10
262.522
 20
214.155
 30
0.000000
  70
    32
  0
VERTEX
  8
0
  5
2885
 10
262.524
 20
214.143
 30
0.000000
  70
    32
  0
VERTEX
  8
0
  5
2886
 10
262.526
 20
214.132
 30
0.000000
  70
    32
  0
VERTEX
  8
0
  5
2887
 10
262.528
 20
214.121
 30
0.000000
  70
    32
  0
VERTEX
  8
0
  5
2888
 10
262.531
 20
214.111
 30
0.000000
  70
    32
  0
VERTEX
  8
0
  5
2889
 10
262.533
 20
214.100
 30
0.000000
  70
    32
  0
VERTEX
  8
0
  5
288A
 10
262.535
 20
214.090
 30
0.000000
  70
    32
  0
VERTEX
  8
0
  5
288B
 10
262.538
 20
214.081
 30
0.000000
  70
    32
  0
VERTEX
  8
0
  5
288C
 10
262.540
 20
214.071
 30
0.000000
  70
    32
  0
VERTEX
  8
0
  5
288D
 10
262.542
 20
214.062
 30
0.000000
  70
    32
  0
VERTEX
  8
0
  5
288E
 10
262.544
 20
214.054
 30
0.000000
  70
    32
  0
VERTEX
  8
0
  5
288F
 10
262.547
 20
214.046
 30
0.000000
  70
    32
  0
VERTEX
  8
0
  5
2890
 10
262.549
 20
214.038
 30
0.000000
  70
    32
  0
VERTEX
  8
0
  5
2891
 10
262.551
 20
214.030
 30
0.000000
  70
    32
  0
VERTEX
  8
0
  5
2892
 10
262.554
 20
214.023
 30
0.000000
  70
    32
  0
VERTEX
  8
0
  5
2893
 10
262.556
 20
214.016
 30
0.000000
  70
    32
  0
VERTEX
  8
0
  5
2894
 10
262.558
 20
214.009
 30
0.000000
  70
    32
  0
VERTEX
  8
0
  5
2895
 10
262.561
 20
214.003
 30
0.000000
  70
    32
  0
VERTEX
  8
0
  5
2896
 10
262.563
 20
213.997
 30
0.000000
  70
    32
  0
VERTEX
  8
0
  5
2897
 10
262.565
 20
213.992
 30
0.000000
  70
    32
  0
VERTEX
  8
0
  5
2898
 10
262.568
 20
213.987
 30
0.000000
  70
    32
  0
VERTEX
  8
0
  5
2899
 10
262.570
 20
213.982
 30
0.000000
  70
    32
  0
VERTEX
  8
0
  5
289A
 10
262.572
 20
213.977
 30
0.000000
  70
    32
  0
VERTEX
  8
0
  5
289B
 10
262.575
 20
213.973
 30
0.000000
  70
    32
  0
VERTEX
  8
0
  5
289C
 10
262.577
 20
213.969
 30
0.000000
  70
    32
  0
VERTEX
  8
0
  5
289D
 10
262.579
 20
213.966
 30
0.000000
  70
    32
  0
VERTEX
  8
0
  5
289E
 10
262.581
 20
213.963
 30
0.000000
  70
    32
  0
VERTEX
  8
0
  5
289F
 10
262.584
 20
213.960
 30
0.000000
  70
    32
  0
VERTEX
  8
0
  5
28A0
 10
262.586
 20
213.957
 30
0.000000
  70
    32
  0
VERTEX
  8
0
  5
28A1
 10
262.588
 20
213.955
 30
0.000000
  70
    32
  0
VERTEX
  8
0
  5
28A2
 10
262.591
 20
213.954
 30
0.000000
  70
    32
  0
VERTEX
  8
0
  5
28A3
 10
262.593
 20
213.952
 30
0.000000
  70
    32
  0
VERTEX
  8
0
  5
28A4
 10
262.595
 20
213.951
 30
0.000000
  70
    32
  0
VERTEX
  8
0
  5
28A5
 10
262.598
 20
213.950
 30
0.000000
  70
    32
  0
VERTEX
  8
0
  5
28A6
 10
262.600
 20
213.950
 30
0.000000
  70
    32
  0
VERTEX
  8
0
  5
28A7
 10
262.602
 20
213.950
 30
0.000000
  70
    32
  0
VERTEX
  8
0
  5
28A8
 10
262.605
 20
213.950
 30
0.000000
  70
    32
  0
VERTEX
  8
0
  5
28A9
 10
262.607
 20
213.951
 30
0.000000
  70
    32
  0
VERTEX
  8
0
  5
28AA
 10
262.609
 20
213.952
 30
0.000000
  70
    32
  0
VERTEX
  8
0
  5
28AB
 10
262.612
 20
213.953
 30
0.000000
  70
    32
  0
VERTEX
  8
0
  5
28AC
 10
262.614
 20
213.955
 30
0.000000
  70
    32
  0
VERTEX
  8
0
  5
28AD
 10
262.616
 20
213.957
 30
0.000000
  70
    32
  0
VERTEX
  8
0
  5
28AE
 10
262.619
 20
213.959
 30
0.000000
  70
    32
  0
VERTEX
  8
0
  5
28AF
 10
262.621
 20
213.962
 30
0.000000
  70
    32
  0
VERTEX
  8
0
  5
28B0
 10
262.623
 20
213.965
 30
0.000000
  70
    32
  0
VERTEX
  8
0
  5
28B1
 10
262.626
 20
213.969
 30
0.000000
  70
    32
  0
VERTEX
  8
0
  5
28B2
 10
262.628
 20
213.972
 30
0.000000
  70
    32
  0
VERTEX
  8
0
  5
28B3
 10
262.630
 20
213.976
 30
0.000000
  70
    32
  0
VERTEX
  8
0
  5
28B4
 10
262.632
 20
213.981
 30
0.000000
  70
    32
  0
VERTEX
  8
0
  5
28B5
 10
262.635
 20
213.986
 30
0.000000
  70
    32
  0
VERTEX
  8
0
  5
28B6
 10
262.637
 20
213.991
 30
0.000000
  70
    32
  0
VERTEX
  8
0
  5
28B7
 10
262.639
 20
213.996
 30
0.000000
  70
    32
  0
VERTEX
  8
0
  5
28B8
 10
262.642
 20
214.002
 30
0.000000
  70
    32
  0
VERTEX
  8
0
  5
28B9
 10
262.644
 20
214.008
 30
0.000000
  70
    32
  0
VERTEX
  8
0
  5
28BA
 10
262.646
 20
214.015
 30
0.000000
  70
    32
  0
VERTEX
  8
0
  5
28BB
 10
262.649
 20
214.021
 30
0.000000
  70
    32
  0
VERTEX
  8
0
  5
28BC
 10
262.651
 20
214.029
 30
0.000000
  70
    32
  0
VERTEX
  8
0
  5
28BD
 10
262.653
 20
214.036
 30
0.000000
  70
    32
  0
VERTEX
  8
0
  5
28BE
 10
262.656
 20
214.044
 30
0.000000
  70
    32
  0
VERTEX
  8
0
  5
28BF
 10
262.658
 20
214.052
 30
0.000000
  70
    32
  0
VERTEX
  8
0
  5
28C0
 10
262.660
 20
214.061
 30
0.000000
  70
    32
  0
VERTEX
  8
0
  5
28C1
 10
262.662
 20
214.070
 30
0.000000
  70
    32
  0
VERTEX
  8
0
  5
28C2
 10
262.665
 20
214.079
 30
0.000000
  70
    32
  0
VERTEX
  8
0
  5
28C3
 10
262.667
 20
214.088
 30
0.000000
  70
    32
  0
VERTEX
  8
0
  5
28C4
 10
262.669
 20
214.098
 30
0.000000
  70
    32
  0
VERTEX
  8
0
  5
28C5
 10
262.672
 20
214.108
 30
0.000000
  70
    32
  0
VERTEX
  8
0
  5
28C6
 10
262.674
 20
214.119
 30
0.000000
  70
    32
  0
VERTEX
  8
0
  5
28C7
 10
262.676
 20
214.130
 30
0.000000
  70
    32
  0
VERTEX
  8
0
  5
28C8
 10
262.679
 20
214.141
 30
0.000000
  70
    32
  0
VERTEX
  8
0
  5
28C9
 10
262.681
 20
214.153
 30
0.000000
  70
    32
  0
VERTEX
  8
0
  5
28CA
 10
262.683
 20
214.165
 30
0.000000
  70
    32
  0
VERTEX
  8
0
  5
28CB
 10
262.685
 20
214.177
 30
0.000000
  70
    32
  0
VERTEX
  8
0
  5
28CC
 10
262.688
 20
214.190
 30
0.000000
  70
    32
  0
VERTEX
  8
0
  5
28CD
 10
262.690
 20
214.203
 30
0.000000
  70
    32
  0
VERTEX
  8
0
  5
28CE
 10
262.692
 20
214.216
 30
0.000000
  70
    32
  0
VERTEX
  8
0
  5
28CF
 10
262.694
 20
214.229
 30
0.000000
  70
    32
  0
VERTEX
  8
0
  5
28D0
 10
262.697
 20
214.243
 30
0.000000
  70
    32
  0
VERTEX
  8
0
  5
28D1
 10
262.699
 20
214.258
 30
0.000000
  70
    32
  0
VERTEX
  8
0
  5
28D2
 10
262.701
 20
214.272
 30
0.000000
  70
    32
  0
VERTEX
  8
0
  5
28D3
 10
262.704
 20
214.287
 30
0.000000
  70
    32
  0
VERTEX
  8
0
  5
28D4
 10
262.706
 20
214.303
 30
0.000000
  70
    32
  0
VERTEX
  8
0
  5
28D5
 10
262.708
 20
214.318
 30
0.000000
  70
    32
  0
VERTEX
  8
0
  5
28D6
 10
262.710
 20
214.334
 30
0.000000
  70
    32
  0
VERTEX
  8
0
  5
28D7
 10
262.713
 20
214.350
 30
0.000000
  70
    32
  0
VERTEX
  8
0
  5
28D8
 10
262.715
 20
214.367
 30
0.000000
  70
    32
  0
VERTEX
  8
0
  5
28D9
 10
262.717
 20
214.384
 30
0.000000
  70
    32
  0
VERTEX
  8
0
  5
28DA
 10
262.719
 20
214.401
 30
0.000000
  70
    32
  0
VERTEX
  8
0
  5
28DB
 10
262.722
 20
214.419
 30
0.000000
  70
    32
  0
VERTEX
  8
0
  5
28DC
 10
262.724
 20
214.437
 30
0.000000
  70
    32
  0
VERTEX
  8
0
  5
28DD
 10
262.726
 20
214.455
 30
0.000000
  70
    32
  0
VERTEX
  8
0
  5
28DE
 10
262.728
 20
214.474
 30
0.000000
  70
    32
  0
VERTEX
  8
0
  5
28DF
 10
262.730
 20
214.493
 30
0.000000
  70
    32
  0
VERTEX
  8
0
  5
28E0
 10
262.733
 20
214.512
 30
0.000000
  70
    32
  0
VERTEX
  8
0
  5
28E1
 10
262.735
 20
214.532
 30
0.000000
  70
    32
  0
VERTEX
  8
0
  5
28E2
 10
262.737
 20
214.551
 30
0.000000
  70
    32
  0
VERTEX
  8
0
  5
28E3
 10
262.739
 20
214.572
 30
0.000000
  70
    32
  0
VERTEX
  8
0
  5
28E4
 10
262.741
 20
214.592
 30
0.000000
  70
    32
  0
VERTEX
  8
0
  5
28E5
 10
262.744
 20
214.613
 30
0.000000
  70
    32
  0
VERTEX
  8
0
  5
28E6
 10
262.746
 20
214.634
 30
0.000000
  70
    32
  0
VERTEX
  8
0
  5
28E7
 10
262.748
 20
214.656
 30
0.000000
  70
    32
  0
VERTEX
  8
0
  5
28E8
 10
262.750
 20
214.678
 30
0.000000
  70
    32
  0
VERTEX
  8
0
  5
28E9
 10
262.752
 20
214.700
 30
0.000000
  70
    32
  0
SEQEND
  8
0
  5
28EA
  0
POLYLINE
  5
24A9
  8
0
 10
262.46088814854659
 20
214.59636984141684
 30
0.0
 66
     1
 70
     8
  0
VERTEX
  8
0
  5
28EB
 10
262.461
 20
214.596
 30
0.000000
  70
    32
  0
VERTEX
  8
0
  5
28EC
 10
262.460
 20
214.606
 30
0.000000
  70
    32
  0
VERTEX
  8
0
  5
28ED
 10
262.459
 20
214.615
 30
0.000000
  70
    32
  0
VERTEX
  8
0
  5
28EE
 10
262.458
 20
214.625
 30
0.000000
  70
    32
  0
VERTEX
  8
0
  5
28EF
 10
262.457
 20
214.634
 30
0.000000
  70
    32
  0
VERTEX
  8
0
  5
28F0
 10
262.456
 20
214.643
 30
0.000000
  70
    32
  0
VERTEX
  8
0
  5
28F1
 10
262.455
 20
214.652
 30
0.000000
  70
    32
  0
VERTEX
  8
0
  5
28F2
 10
262.454
 20
214.661
 30
0.000000
  70
    32
  0
VERTEX
  8
0
  5
28F3
 10
262.453
 20
214.669
 30
0.000000
  70
    32
  0
VERTEX
  8
0
  5
28F4
 10
262.452
 20
214.678
 30
0.000000
  70
    32
  0
VERTEX
  8
0
  5
28F5
 10
262.451
 20
214.686
 30
0.000000
  70
    32
  0
VERTEX
  8
0
  5
28F6
 10
262.449
 20
214.695
 30
0.000000
  70
    32
  0
VERTEX
  8
0
  5
28F7
 10
262.448
 20
214.703
 30
0.000000
  70
    32
  0
VERTEX
  8
0
  5
28F8
 10
262.447
 20
214.711
 30
0.000000
  70
    32
  0
VERTEX
  8
0
  5
28F9
 10
262.446
 20
214.719
 30
0.000000
  70
    32
  0
VERTEX
  8
0
  5
28FA
 10
262.445
 20
214.727
 30
0.000000
  70
    32
  0
VERTEX
  8
0
  5
28FB
 10
262.444
 20
214.734
 30
0.000000
  70
    32
  0
VERTEX
  8
0
  5
28FC
 10
262.443
 20
214.742
 30
0.000000
  70
    32
  0
VERTEX
  8
0
  5
28FD
 10
262.442
 20
214.749
 30
0.000000
  70
    32
  0
VERTEX
  8
0
  5
28FE
 10
262.441
 20
214.757
 30
0.000000
  70
    32
  0
VERTEX
  8
0
  5
28FF
 10
262.440
 20
214.764
 30
0.000000
  70
    32
  0
VERTEX
  8
0
  5
2900
 10
262.439
 20
214.771
 30
0.000000
  70
    32
  0
VERTEX
  8
0
  5
2901
 10
262.438
 20
214.778
 30
0.000000
  70
    32
  0
VERTEX
  8
0
  5
2902
 10
262.437
 20
214.784
 30
0.000000
  70
    32
  0
VERTEX
  8
0
  5
2903
 10
262.436
 20
214.791
 30
0.000000
  70
    32
  0
VERTEX
  8
0
  5
2904
 10
262.435
 20
214.797
 30
0.000000
  70
    32
  0
VERTEX
  8
0
  5
2905
 10
262.434
 20
214.804
 30
0.000000
  70
    32
  0
VERTEX
  8
0
  5
2906
 10
262.433
 20
214.810
 30
0.000000
  70
    32
  0
VERTEX
  8
0
  5
2907
 10
262.432
 20
214.816
 30
0.000000
  70
    32
  0
VERTEX
  8
0
  5
2908
 10
262.430
 20
214.822
 30
0.000000
  70
    32
  0
VERTEX
  8
0
  5
2909
 10
262.429
 20
214.828
 30
0.000000
  70
    32
  0
VERTEX
  8
0
  5
290A
 10
262.428
 20
214.833
 30
0.000000
  70
    32
  0
VERTEX
  8
0
  5
290B
 10
262.427
 20
214.839
 30
0.000000
  70
    32
  0
VERTEX
  8
0
  5
290C
 10
262.426
 20
214.844
 30
0.000000
  70
    32
  0
VERTEX
  8
0
  5
290D
 10
262.425
 20
214.850
 30
0.000000
  70
    32
  0
VERTEX
  8
0
  5
290E
 10
262.424
 20
214.855
 30
0.000000
  70
    32
  0
VERTEX
  8
0
  5
290F
 10
262.423
 20
214.860
 30
0.000000
  70
    32
  0
VERTEX
  8
0
  5
2910
 10
262.422
 20
214.865
 30
0.000000
  70
    32
  0
VERTEX
  8
0
  5
2911
 10
262.421
 20
214.870
 30
0.000000
  70
    32
  0
VERTEX
  8
0
  5
2912
 10
262.420
 20
214.874
 30
0.000000
  70
    32
  0
VERTEX
  8
0
  5
2913
 10
262.419
 20
214.879
 30
0.000000
  70
    32
  0
VERTEX
  8
0
  5
2914
 10
262.418
 20
214.883
 30
0.000000
  70
    32
  0
VERTEX
  8
0
  5
2915
 10
262.417
 20
214.887
 30
0.000000
  70
    32
  0
VERTEX
  8
0
  5
2916
 10
262.415
 20
214.891
 30
0.000000
  70
    32
  0
VERTEX
  8
0
  5
2917
 10
262.414
 20
214.895
 30
0.000000
  70
    32
  0
VERTEX
  8
0
  5
2918
 10
262.413
 20
214.899
 30
0.000000
  70
    32
  0
VERTEX
  8
0
  5
2919
 10
262.412
 20
214.903
 30
0.000000
  70
    32
  0
VERTEX
  8
0
  5
291A
 10
262.411
 20
214.906
 30
0.000000
  70
    32
  0
VERTEX
  8
0
  5
291B
 10
262.410
 20
214.910
 30
0.000000
  70
    32
  0
VERTEX
  8
0
  5
291C
 10
262.409
 20
214.913
 30
0.000000
  70
    32
  0
VERTEX
  8
0
  5
291D
 10
262.408
 20
214.916
 30
0.000000
  70
    32
  0
VERTEX
  8
0
  5
291E
 10
262.407
 20
214.919
 30
0.000000
  70
    32
  0
VERTEX
  8
0
  5
291F
 10
262.406
 20
214.922
 30
0.000000
  70
    32
  0
VERTEX
  8
0
  5
2920
 10
262.405
 20
214.925
 30
0.000000
  70
    32
  0
VERTEX
  8
0
  5
2921
 10
262.404
 20
214.928
 30
0.000000
  70
    32
  0
VERTEX
  8
0
  5
2922
 10
262.403
 20
214.930
 30
0.000000
  70
    32
  0
VERTEX
  8
0
  5
2923
 10
262.401
 20
214.932
 30
0.000000
  70
    32
  0
VERTEX
  8
0
  5
2924
 10
262.400
 20
214.935
 30
0.000000
  70
    32
  0
VERTEX
  8
0
  5
2925
 10
262.399
 20
214.937
 30
0.000000
  70
    32
  0
VERTEX
  8
0
  5
2926
 10
262.398
 20
214.939
 30
0.000000
  70
    32
  0
VERTEX
  8
0
  5
2927
 10
262.397
 20
214.940
 30
0.000000
  70
    32
  0
VERTEX
  8
0
  5
2928
 10
262.396
 20
214.942
 30
0.000000
  70
    32
  0
VERTEX
  8
0
  5
2929
 10
262.395
 20
214.944
 30
0.000000
  70
    32
  0
VERTEX
  8
0
  5
292A
 10
262.394
 20
214.945
 30
0.000000
  70
    32
  0
VERTEX
  8
0
  5
292B
 10
262.393
 20
214.946
 30
0.000000
  70
    32
  0
VERTEX
  8
0
  5
292C
 10
262.392
 20
214.948
 30
0.000000
  70
    32
  0
VERTEX
  8
0
  5
292D
 10
262.391
 20
214.949
 30
0.000000
  70
    32
  0
VERTEX
  8
0
  5
292E
 10
262.390
 20
214.949
 30
0.000000
  70
    32
  0
VERTEX
  8
0
  5
292F
 10
262.388
 20
214.950
 30
0.000000
  70
    32
  0
VERTEX
  8
0
  5
2930
 10
262.387
 20
214.951
 30
0.000000
  70
    32
  0
VERTEX
  8
0
  5
2931
 10
262.386
 20
214.951
 30
0.000000
  70
    32
  0
VERTEX
  8
0
  5
2932
 10
262.385
 20
214.952
 30
0.000000
  70
    32
  0
VERTEX
  8
0
  5
2933
 10
262.384
 20
214.952
 30
0.000000
  70
    32
  0
VERTEX
  8
0
  5
2934
 10
262.383
 20
214.952
 30
0.000000
  70
    32
  0
VERTEX
  8
0
  5
2935
 10
262.382
 20
214.952
 30
0.000000
  70
    32
  0
VERTEX
  8
0
  5
2936
 10
262.381
 20
214.952
 30
0.000000
  70
    32
  0
VERTEX
  8
0
  5
2937
 10
262.380
 20
214.951
 30
0.000000
  70
    32
  0
VERTEX
  8
0
  5
2938
 10
262.379
 20
214.951
 30
0.000000
  70
    32
  0
VERTEX
  8
0
  5
2939
 10
262.378
 20
214.950
 30
0.000000
  70
    32
  0
VERTEX
  8
0
  5
293A
 10
262.376
 20
214.950
 30
0.000000
  70
    32
  0
VERTEX
  8
0
  5
293B
 10
262.375
 20
214.949
 30
0.000000
  70
    32
  0
VERTEX
  8
0
  5
293C
 10
262.374
 20
214.948
 30
0.000000
  70
    32
  0
VERTEX
  8
0
  5
293D
 10
262.373
 20
214.947
 30
0.000000
  70
    32
  0
VERTEX
  8
0
  5
293E
 10
262.372
 20
214.945
 30
0.000000
  70
    32
  0
VERTEX
  8
0
  5
293F
 10
262.371
 20
214.944
 30
0.000000
  70
    32
  0
VERTEX
  8
0
  5
2940
 10
262.370
 20
214.942
 30
0.000000
  70
    32
  0
VERTEX
  8
0
  5
2941
 10
262.369
 20
214.941
 30
0.000000
  70
    32
  0
VERTEX
  8
0
  5
2942
 10
262.368
 20
214.939
 30
0.000000
  70
    32
  0
VERTEX
  8
0
  5
2943
 10
262.367
 20
214.937
 30
0.000000
  70
    32
  0
VERTEX
  8
0
  5
2944
 10
262.366
 20
214.935
 30
0.000000
  70
    32
  0
VERTEX
  8
0
  5
2945
 10
262.365
 20
214.933
 30
0.000000
  70
    32
  0
VERTEX
  8
0
  5
2946
 10
262.363
 20
214.930
 30
0.000000
  70
    32
  0
VERTEX
  8
0
  5
2947
 10
262.362
 20
214.928
 30
0.000000
  70
    32
  0
VERTEX
  8
0
  5
2948
 10
262.361
 20
214.925
 30
0.000000
  70
    32
  0
VERTEX
  8
0
  5
2949
 10
262.360
 20
214.922
 30
0.000000
  70
    32
  0
VERTEX
  8
0
  5
294A
 10
262.359
 20
214.920
 30
0.000000
  70
    32
  0
VERTEX
  8
0
  5
294B
 10
262.358
 20
214.917
 30
0.000000
  70
    32
  0
VERTEX
  8
0
  5
294C
 10
262.357
 20
214.913
 30
0.000000
  70
    32
  0
VERTEX
  8
0
  5
294D
 10
262.356
 20
214.910
 30
0.000000
  70
    32
  0
VERTEX
  8
0
  5
294E
 10
262.355
 20
214.907
 30
0.000000
  70
    32
  0
VERTEX
  8
0
  5
294F
 10
262.354
 20
214.903
 30
0.000000
  70
    32
  0
VERTEX
  8
0
  5
2950
 10
262.353
 20
214.900
 30
0.000000
  70
    32
  0
VERTEX
  8
0
  5
2951
 10
262.352
 20
214.896
 30
0.000000
  70
    32
  0
VERTEX
  8
0
  5
2952
 10
262.351
 20
214.892
 30
0.000000
  70
    32
  0
VERTEX
  8
0
  5
2953
 10
262.349
 20
214.888
 30
0.000000
  70
    32
  0
VERTEX
  8
0
  5
2954
 10
262.348
 20
214.883
 30
0.000000
  70
    32
  0
VERTEX
  8
0
  5
2955
 10
262.347
 20
214.879
 30
0.000000
  70
    32
  0
VERTEX
  8
0
  5
2956
 10
262.346
 20
214.875
 30
0.000000
  70
    32
  0
VERTEX
  8
0
  5
2957
 10
262.345
 20
214.870
 30
0.000000
  70
    32
  0
VERTEX
  8
0
  5
2958
 10
262.344
 20
214.865
 30
0.000000
  70
    32
  0
VERTEX
  8
0
  5
2959
 10
262.343
 20
214.860
 30
0.000000
  70
    32
  0
VERTEX
  8
0
  5
295A
 10
262.342
 20
214.855
 30
0.000000
  70
    32
  0
VERTEX
  8
0
  5
295B
 10
262.341
 20
214.850
 30
0.000000
  70
    32
  0
VERTEX
  8
0
  5
295C
 10
262.340
 20
214.845
 30
0.000000
  70
    32
  0
VERTEX
  8
0
  5
295D
 10
262.339
 20
214.840
 30
0.000000
  70
    32
  0
VERTEX
  8
0
  5
295E
 10
262.338
 20
214.834
 30
0.000000
  70
    32
  0
VERTEX
  8
0
  5
295F
 10
262.337
 20
214.828
 30
0.000000
  70
    32
  0
VERTEX
  8
0
  5
2960
 10
262.336
 20
214.823
 30
0.000000
  70
    32
  0
VERTEX
  8
0
  5
2961
 10
262.334
 20
214.817
 30
0.000000
  70
    32
  0
VERTEX
  8
0
  5
2962
 10
262.333
 20
214.811
 30
0.000000
  70
    32
  0
VERTEX
  8
0
  5
2963
 10
262.332
 20
214.804
 30
0.000000
  70
    32
  0
VERTEX
  8
0
  5
2964
 10
262.331
 20
214.798
 30
0.000000
  70
    32
  0
VERTEX
  8
0
  5
2965
 10
262.330
 20
214.792
 30
0.000000
  70
    32
  0
VERTEX
  8
0
  5
2966
 10
262.329
 20
214.785
 30
0.000000
  70
    32
  0
VERTEX
  8
0
  5
2967
 10
262.328
 20
214.778
 30
0.000000
  70
    32
  0
VERTEX
  8
0
  5
2968
 10
262.327
 20
214.771
 30
0.000000
  70
    32
  0
VERTEX
  8
0
  5
2969
 10
262.326
 20
214.764
 30
0.000000
  70
    32
  0
VERTEX
  8
0
  5
296A
 10
262.325
 20
214.757
 30
0.000000
  70
    32
  0
VERTEX
  8
0
  5
296B
 10
262.324
 20
214.750
 30
0.000000
  70
    32
  0
SEQEND
  8
0
  5
296C
  0
ARC
  5
24AA
  8
0
 10
276.45636584358238
 20
205.850366474975
 30
0.0
 40
2.144566393417437
 50
338.88895846034319
 51
1.6894556033512429
  0
ARC
  5
24AB
  8
0
 10
288.63071118379997
 20
201.6656825103
 30
0.0
 40
10.73070226283274
 50
161.45855787069661
 51
198.1877935595013
  0
ARC
  5
24AC
  8
0
 10
290.54063978969998
 20
222.940058007
 30
0.0
 40
13.421950412128099
 50
207.17255563508041
 51
227.58442835290279
  0
ARC
  5
24AD
  8
0
 10
249.44252310659999
 20
222.95091064139999
 30
0.0
 40
13.44132025814895
 50
312.43735481310262
 51
332.8237576530812
  0
ARC
  5
24B1
  8
0
 10
259.97594212993829
 20
211.09442536412871
 30
0.0
 40
2.4273425430972981
 50
127.0775976363451
 51
181.94635058519319
  0
ARC
  5
24B2
  8
0
 10
279.65480458773732
 20
210.91849977172899
 30
0.0
 40
2.7966828209809722
 50
1.8687466809499289
 51
49.056992125606499
  0
ARC
  5
24B3
  8
0
 10
118.38368604703869
 20
187.58593337429539
 30
0.0
 40
36.49086074587764
 50
169.97474512380921
 51
171.98317997467049
  0
ARC
  5
24B4
  8
0
 10
21.61631395260429
 20
187.5859333742352
 30
0.0
 40
36.49086074623952
 50
8.0168200253435788
 51
10.02525487618637
  0
ARC
  5
24B5
  8
0
 10
59.699999999999932
 20
166.65000000000001
 30
0.0
 40
1.5000000000000171
 50
180.98888823330091
 51
260.70461183110172
  0
ARC
  5
24B6
  8
0
 10
80.299999999999955
 20
166.65000000000001
 30
0.0
 40
1.5000000000000191
 50
279.29538816889828
 51
359.01111176669912
  0
LINE
  5
24B7
  8
0
 10
59.457713419600047
 20
165.16969691849999
 30
0.0
 11
60.799999999999947
 21
164.94999999999999
 31
0.0
  0
LINE
  5
24B8
  8
0
 10
79.199999999999932
 20
164.94999999999999
 30
0.0
 11
80.542286580499976
 21
165.16969691849999
 31
0.0
  0
LINE
  5
24CA
  8
0
 10
162.24944428910001
 20
192.67508758240001
 30
0.0
 11
161.7999999999999
 21
166.65000000000001
 31
0.0
  0
ARC
  5
24CB
  8
0
 10
160.2999999999999
 20
166.65000000000001
 30
0.0
 40
1.5000000000000191
 50
279.29538816889828
 51
0.0
  0
LINE
  5
24CC
  8
0
 10
61.400000001799981
 20
221.84473074409999
 30
0.0
 11
61.400000001799981
 21
216.80323760723351
 31
0.0
  0
ARC
  5
24CD
  8
0
 10
49.146549062999952
 20
223.1915233544
 30
0.0
 40
13.818728403765281
 50
312.66984313190312
 51
334.53487321070298
  0
ARC
  5
24CE
  8
0
 10
57.717914742900007
 20
219.2371712801
 30
0.0
 40
4.381389866223067
 50
333.02844133439811
 51
29.187251948401951
  0
LINE
  5
24CF
  8
0
 10
62.9318666291
 20
229.3647438127
 30
0.0
 11
63.051552322500008
 21
229.4500000000001
 31
0.0
  0
LINE
  5
24D0
  8
0
 10
76.948447677499985
 20
229.4500000000001
 30
0.0
 11
63.051552322500008
 21
229.4500000000001
 31
0.0
  0
LINE
  5
24D1
  8
0
 10
76.948447677499985
 20
229.4500000000001
 30
0.0
 11
77.068133371000044
 21
229.3647438127
 31
0.0
  0
ARC
  5
24D2
  8
0
 10
62.230784535237042
 20
221.8398517166635
 30
0.0
 40
0.8307988600780131
 50
172.53480977793819
 51
214.12081072516261
  0
POLYLINE
  5
24D3
  8
0
 10
62.931866629414884
 20
229.36474381273402
 30
0.0
 66
     1
 70
     8
  0
VERTEX
  8
0
  5
296D
 10
62.9319
 20
229.365
 30
0.000000
  70
    32
  0
VERTEX
  8
0
  5
296E
 10
62.9198
 20
229.334
 30
0.000000
  70
    32
  0
VERTEX
  8
0
  5
296F
 10
62.9078
 20
229.304
 30
0.000000
  70
    32
  0
VERTEX
  8
0
  5
2970
 10
62.8957
 20
229.272
 30
0.000000
  70
    32
  0
VERTEX
  8
0
  5
2971
 10
62.8837
 20
229.241
 30
0.000000
  70
    32
  0
VERTEX
  8
0
  5
2972
 10
62.8716
 20
229.209
 30
0.000000
  70
    32
  0
VERTEX
  8
0
  5
2973
 10
62.8596
 20
229.176
 30
0.000000
  70
    32
  0
VERTEX
  8
0
  5
2974
 10
62.8475
 20
229.143
 30
0.000000
  70
    32
  0
VERTEX
  8
0
  5
2975
 10
62.8355
 20
229.110
 30
0.000000
  70
    32
  0
VERTEX
  8
0
  5
2976
 10
62.8235
 20
229.076
 30
0.000000
  70
    32
  0
VERTEX
  8
0
  5
2977
 10
62.8114
 20
229.042
 30
0.000000
  70
    32
  0
VERTEX
  8
0
  5
2978
 10
62.7994
 20
229.007
 30
0.000000
  70
    32
  0
VERTEX
  8
0
  5
2979
 10
62.7873
 20
228.972
 30
0.000000
  70
    32
  0
VERTEX
  8
0
  5
297A
 10
62.7753
 20
228.936
 30
0.000000
  70
    32
  0
VERTEX
  8
0
  5
297B
 10
62.7633
 20
228.900
 30
0.000000
  70
    32
  0
VERTEX
  8
0
  5
297C
 10
62.7512
 20
228.864
 30
0.000000
  70
    32
  0
VERTEX
  8
0
  5
297D
 10
62.7392
 20
228.827
 30
0.000000
  70
    32
  0
VERTEX
  8
0
  5
297E
 10
62.7272
 20
228.790
 30
0.000000
  70
    32
  0
VERTEX
  8
0
  5
297F
 10
62.7152
 20
228.752
 30
0.000000
  70
    32
  0
VERTEX
  8
0
  5
2980
 10
62.7031
 20
228.714
 30
0.000000
  70
    32
  0
VERTEX
  8
0
  5
2981
 10
62.6911
 20
228.675
 30
0.000000
  70
    32
  0
VERTEX
  8
0
  5
2982
 10
62.6791
 20
228.636
 30
0.000000
  70
    32
  0
VERTEX
  8
0
  5
2983
 10
62.6671
 20
228.597
 30
0.000000
  70
    32
  0
VERTEX
  8
0
  5
2984
 10
62.6551
 20
228.557
 30
0.000000
  70
    32
  0
VERTEX
  8
0
  5
2985
 10
62.6430
 20
228.516
 30
0.000000
  70
    32
  0
VERTEX
  8
0
  5
2986
 10
62.6310
 20
228.475
 30
0.000000
  70
    32
  0
VERTEX
  8
0
  5
2987
 10
62.6190
 20
228.434
 30
0.000000
  70
    32
  0
VERTEX
  8
0
  5
2988
 10
62.6070
 20
228.393
 30
0.000000
  70
    32
  0
VERTEX
  8
0
  5
2989
 10
62.5950
 20
228.350
 30
0.000000
  70
    32
  0
VERTEX
  8
0
  5
298A
 10
62.5830
 20
228.308
 30
0.000000
  70
    32
  0
VERTEX
  8
0
  5
298B
 10
62.5710
 20
228.265
 30
0.000000
  70
    32
  0
VERTEX
  8
0
  5
298C
 10
62.5590
 20
228.221
 30
0.000000
  70
    32
  0
VERTEX
  8
0
  5
298D
 10
62.5470
 20
228.178
 30
0.000000
  70
    32
  0
VERTEX
  8
0
  5
298E
 10
62.5350
 20
228.133
 30
0.000000
  70
    32
  0
VERTEX
  8
0
  5
298F
 10
62.5230
 20
228.088
 30
0.000000
  70
    32
  0
VERTEX
  8
0
  5
2990
 10
62.5110
 20
228.043
 30
0.000000
  70
    32
  0
VERTEX
  8
0
  5
2991
 10
62.4990
 20
227.998
 30
0.000000
  70
    32
  0
VERTEX
  8
0
  5
2992
 10
62.4870
 20
227.952
 30
0.000000
  70
    32
  0
VERTEX
  8
0
  5
2993
 10
62.4750
 20
227.905
 30
0.000000
  70
    32
  0
VERTEX
  8
0
  5
2994
 10
62.4630
 20
227.858
 30
0.000000
  70
    32
  0
VERTEX
  8
0
  5
2995
 10
62.4511
 20
227.811
 30
0.000000
  70
    32
  0
VERTEX
  8
0
  5
2996
 10
62.4391
 20
227.763
 30
0.000000
  70
    32
  0
VERTEX
  8
0
  5
2997
 10
62.4271
 20
227.715
 30
0.000000
  70
    32
  0
VERTEX
  8
0
  5
2998
 10
62.4151
 20
227.666
 30
0.000000
  70
    32
  0
VERTEX
  8
0
  5
2999
 10
62.4031
 20
227.617
 30
0.000000
  70
    32
  0
VERTEX
  8
0
  5
299A
 10
62.3912
 20
227.567
 30
0.000000
  70
    32
  0
VERTEX
  8
0
  5
299B
 10
62.3792
 20
227.518
 30
0.000000
  70
    32
  0
VERTEX
  8
0
  5
299C
 10
62.3672
 20
227.467
 30
0.000000
  70
    32
  0
VERTEX
  8
0
  5
299D
 10
62.3553
 20
227.416
 30
0.000000
  70
    32
  0
VERTEX
  8
0
  5
299E
 10
62.3433
 20
227.365
 30
0.000000
  70
    32
  0
VERTEX
  8
0
  5
299F
 10
62.3313
 20
227.313
 30
0.000000
  70
    32
  0
VERTEX
  8
0
  5
29A0
 10
62.3194
 20
227.261
 30
0.000000
  70
    32
  0
VERTEX
  8
0
  5
29A1
 10
62.3074
 20
227.209
 30
0.000000
  70
    32
  0
VERTEX
  8
0
  5
29A2
 10
62.2955
 20
227.156
 30
0.000000
  70
    32
  0
VERTEX
  8
0
  5
29A3
 10
62.2835
 20
227.102
 30
0.000000
  70
    32
  0
VERTEX
  8
0
  5
29A4
 10
62.2716
 20
227.048
 30
0.000000
  70
    32
  0
VERTEX
  8
0
  5
29A5
 10
62.2596
 20
226.994
 30
0.000000
  70
    32
  0
VERTEX
  8
0
  5
29A6
 10
62.2477
 20
226.939
 30
0.000000
  70
    32
  0
VERTEX
  8
0
  5
29A7
 10
62.2357
 20
226.884
 30
0.000000
  70
    32
  0
VERTEX
  8
0
  5
29A8
 10
62.2238
 20
226.828
 30
0.000000
  70
    32
  0
VERTEX
  8
0
  5
29A9
 10
62.2118
 20
226.772
 30
0.000000
  70
    32
  0
VERTEX
  8
0
  5
29AA
 10
62.1999
 20
226.716
 30
0.000000
  70
    32
  0
VERTEX
  8
0
  5
29AB
 10
62.1880
 20
226.659
 30
0.000000
  70
    32
  0
VERTEX
  8
0
  5
29AC
 10
62.1760
 20
226.601
 30
0.000000
  70
    32
  0
VERTEX
  8
0
  5
29AD
 10
62.1641
 20
226.544
 30
0.000000
  70
    32
  0
VERTEX
  8
0
  5
29AE
 10
62.1522
 20
226.485
 30
0.000000
  70
    32
  0
VERTEX
  8
0
  5
29AF
 10
62.1403
 20
226.427
 30
0.000000
  70
    32
  0
VERTEX
  8
0
  5
29B0
 10
62.1284
 20
226.368
 30
0.000000
  70
    32
  0
VERTEX
  8
0
  5
29B1
 10
62.1164
 20
226.308
 30
0.000000
  70
    32
  0
VERTEX
  8
0
  5
29B2
 10
62.1045
 20
226.248
 30
0.000000
  70
    32
  0
VERTEX
  8
0
  5
29B3
 10
62.0926
 20
226.188
 30
0.000000
  70
    32
  0
VERTEX
  8
0
  5
29B4
 10
62.0807
 20
226.127
 30
0.000000
  70
    32
  0
VERTEX
  8
0
  5
29B5
 10
62.0688
 20
226.066
 30
0.000000
  70
    32
  0
VERTEX
  8
0
  5
29B6
 10
62.0569
 20
226.004
 30
0.000000
  70
    32
  0
VERTEX
  8
0
  5
29B7
 10
62.0450
 20
225.942
 30
0.000000
  70
    32
  0
VERTEX
  8
0
  5
29B8
 10
62.0331
 20
225.879
 30
0.000000
  70
    32
  0
VERTEX
  8
0
  5
29B9
 10
62.0212
 20
225.816
 30
0.000000
  70
    32
  0
VERTEX
  8
0
  5
29BA
 10
62.0093
 20
225.753
 30
0.000000
  70
    32
  0
VERTEX
  8
0
  5
29BB
 10
61.9974
 20
225.689
 30
0.000000
  70
    32
  0
VERTEX
  8
0
  5
29BC
 10
61.9855
 20
225.625
 30
0.000000
  70
    32
  0
VERTEX
  8
0
  5
29BD
 10
61.9736
 20
225.560
 30
0.000000
  70
    32
  0
VERTEX
  8
0
  5
29BE
 10
61.9618
 20
225.495
 30
0.000000
  70
    32
  0
VERTEX
  8
0
  5
29BF
 10
61.9499
 20
225.429
 30
0.000000
  70
    32
  0
VERTEX
  8
0
  5
29C0
 10
61.9380
 20
225.363
 30
0.000000
  70
    32
  0
VERTEX
  8
0
  5
29C1
 10
61.9261
 20
225.297
 30
0.000000
  70
    32
  0
VERTEX
  8
0
  5
29C2
 10
61.9143
 20
225.230
 30
0.000000
  70
    32
  0
VERTEX
  8
0
  5
29C3
 10
61.9024
 20
225.163
 30
0.000000
  70
    32
  0
VERTEX
  8
0
  5
29C4
 10
61.8905
 20
225.095
 30
0.000000
  70
    32
  0
VERTEX
  8
0
  5
29C5
 10
61.8787
 20
225.027
 30
0.000000
  70
    32
  0
VERTEX
  8
0
  5
29C6
 10
61.8668
 20
224.958
 30
0.000000
  70
    32
  0
VERTEX
  8
0
  5
29C7
 10
61.8550
 20
224.889
 30
0.000000
  70
    32
  0
VERTEX
  8
0
  5
29C8
 10
61.8431
 20
224.820
 30
0.000000
  70
    32
  0
VERTEX
  8
0
  5
29C9
 10
61.8313
 20
224.750
 30
0.000000
  70
    32
  0
VERTEX
  8
0
  5
29CA
 10
61.8194
 20
224.679
 30
0.000000
  70
    32
  0
VERTEX
  8
0
  5
29CB
 10
61.8076
 20
224.609
 30
0.000000
  70
    32
  0
VERTEX
  8
0
  5
29CC
 10
61.7958
 20
224.538
 30
0.000000
  70
    32
  0
VERTEX
  8
0
  5
29CD
 10
61.7839
 20
224.466
 30
0.000000
  70
    32
  0
VERTEX
  8
0
  5
29CE
 10
61.7721
 20
224.394
 30
0.000000
  70
    32
  0
VERTEX
  8
0
  5
29CF
 10
61.7603
 20
224.321
 30
0.000000
  70
    32
  0
VERTEX
  8
0
  5
29D0
 10
61.7484
 20
224.249
 30
0.000000
  70
    32
  0
VERTEX
  8
0
  5
29D1
 10
61.7366
 20
224.175
 30
0.000000
  70
    32
  0
VERTEX
  8
0
  5
29D2
 10
61.7248
 20
224.101
 30
0.000000
  70
    32
  0
VERTEX
  8
0
  5
29D3
 10
61.7130
 20
224.027
 30
0.000000
  70
    32
  0
VERTEX
  8
0
  5
29D4
 10
61.7012
 20
223.953
 30
0.000000
  70
    32
  0
VERTEX
  8
0
  5
29D5
 10
61.6894
 20
223.878
 30
0.000000
  70
    32
  0
VERTEX
  8
0
  5
29D6
 10
61.6776
 20
223.802
 30
0.000000
  70
    32
  0
VERTEX
  8
0
  5
29D7
 10
61.6658
 20
223.726
 30
0.000000
  70
    32
  0
VERTEX
  8
0
  5
29D8
 10
61.6540
 20
223.650
 30
0.000000
  70
    32
  0
VERTEX
  8
0
  5
29D9
 10
61.6422
 20
223.573
 30
0.000000
  70
    32
  0
VERTEX
  8
0
  5
29DA
 10
61.6304
 20
223.496
 30
0.000000
  70
    32
  0
VERTEX
  8
0
  5
29DB
 10
61.6186
 20
223.418
 30
0.000000
  70
    32
  0
VERTEX
  8
0
  5
29DC
 10
61.6068
 20
223.340
 30
0.000000
  70
    32
  0
VERTEX
  8
0
  5
29DD
 10
61.5950
 20
223.262
 30
0.000000
  70
    32
  0
VERTEX
  8
0
  5
29DE
 10
61.5832
 20
223.183
 30
0.000000
  70
    32
  0
VERTEX
  8
0
  5
29DF
 10
61.5715
 20
223.103
 30
0.000000
  70
    32
  0
VERTEX
  8
0
  5
29E0
 10
61.5597
 20
223.024
 30
0.000000
  70
    32
  0
VERTEX
  8
0
  5
29E1
 10
61.5479
 20
222.943
 30
0.000000
  70
    32
  0
VERTEX
  8
0
  5
29E2
 10
61.5362
 20
222.863
 30
0.000000
  70
    32
  0
VERTEX
  8
0
  5
29E3
 10
61.5244
 20
222.782
 30
0.000000
  70
    32
  0
VERTEX
  8
0
  5
29E4
 10
61.5127
 20
222.700
 30
0.000000
  70
    32
  0
VERTEX
  8
0
  5
29E5
 10
61.5009
 20
222.618
 30
0.000000
  70
    32
  0
VERTEX
  8
0
  5
29E6
 10
61.4892
 20
222.536
 30
0.000000
  70
    32
  0
VERTEX
  8
0
  5
29E7
 10
61.4774
 20
222.453
 30
0.000000
  70
    32
  0
VERTEX
  8
0
  5
29E8
 10
61.4657
 20
222.370
 30
0.000000
  70
    32
  0
VERTEX
  8
0
  5
29E9
 10
61.4539
 20
222.287
 30
0.000000
  70
    32
  0
VERTEX
  8
0
  5
29EA
 10
61.4422
 20
222.202
 30
0.000000
  70
    32
  0
VERTEX
  8
0
  5
29EB
 10
61.4305
 20
222.118
 30
0.000000
  70
    32
  0
VERTEX
  8
0
  5
29EC
 10
61.4187
 20
222.033
 30
0.000000
  70
    32
  0
VERTEX
  8
0
  5
29ED
 10
61.4070
 20
221.948
 30
0.000000
  70
    32
  0
SEQEND
  8
0
  5
29EE
  0
ARC
  5
24D4
  8
0
 10
60.65057733893763
 20
210.77261512951671
 30
0.0
 40
3.1099324693696331
 50
133.43233271694149
 51
175.55475192145099
  0
LINE
  5
24D5
  8
0
 10
78.599999998200019
 20
221.84473074409999
 30
0.0
 11
78.599999998200019
 21
216.80323760723351
 31
0.0
  0
ARC
  5
24D6
  8
0
 10
90.853450936999934
 20
223.1915233544
 30
0.0
 40
13.818728403765281
 50
205.4651267892971
 51
227.33015686809691
  0
ARC
  5
24D7
  8
0
 10
82.282085257099993
 20
219.2371712801
 30
0.0
 40
4.381389866223067
 50
150.81274805159799
 51
206.97155866560189
  0
ARC
  5
24D8
  8
0
 10
77.769215464762965
 20
221.8398517166635
 30
0.0
 40
0.8307988600780131
 50
325.8791892748373
 51
7.4651902220617838
  0
POLYLINE
  5
24D9
  8
0
 10
77.068133370585002
 20
229.36474381273402
 30
0.0
 66
     1
 70
     8
  0
VERTEX
  8
0
  5
29EF
 10
77.0681
 20
229.365
 30
0.000000
  70
    32
  0
VERTEX
  8
0
  5
29F0
 10
77.0802
 20
229.334
 30
0.000000
  70
    32
  0
VERTEX
  8
0
  5
29F1
 10
77.0922
 20
229.304
 30
0.000000
  70
    32
  0
VERTEX
  8
0
  5
29F2
 10
77.1043
 20
229.272
 30
0.000000
  70
    32
  0
VERTEX
  8
0
  5
29F3
 10
77.1163
 20
229.241
 30
0.000000
  70
    32
  0
VERTEX
  8
0
  5
29F4
 10
77.1284
 20
229.209
 30
0.000000
  70
    32
  0
VERTEX
  8
0
  5
29F5
 10
77.1404
 20
229.176
 30
0.000000
  70
    32
  0
VERTEX
  8
0
  5
29F6
 10
77.1525
 20
229.143
 30
0.000000
  70
    32
  0
VERTEX
  8
0
  5
29F7
 10
77.1645
 20
229.110
 30
0.000000
  70
    32
  0
VERTEX
  8
0
  5
29F8
 10
77.1765
 20
229.076
 30
0.000000
  70
    32
  0
VERTEX
  8
0
  5
29F9
 10
77.1886
 20
229.042
 30
0.000000
  70
    32
  0
VERTEX
  8
0
  5
29FA
 10
77.2006
 20
229.007
 30
0.000000
  70
    32
  0
VERTEX
  8
0
  5
29FB
 10
77.2127
 20
228.972
 30
0.000000
  70
    32
  0
VERTEX
  8
0
  5
29FC
 10
77.2247
 20
228.936
 30
0.000000
  70
    32
  0
VERTEX
  8
0
  5
29FD
 10
77.2367
 20
228.900
 30
0.000000
  70
    32
  0
VERTEX
  8
0
  5
29FE
 10
77.2488
 20
228.864
 30
0.000000
  70
    32
  0
VERTEX
  8
0
  5
29FF
 10
77.2608
 20
228.827
 30
0.000000
  70
    32
  0
VERTEX
  8
0
  5
2A00
 10
77.2728
 20
228.790
 30
0.000000
  70
    32
  0
VERTEX
  8
0
  5
2A01
 10
77.2848
 20
228.752
 30
0.000000
  70
    32
  0
VERTEX
  8
0
  5
2A02
 10
77.2969
 20
228.714
 30
0.000000
  70
    32
  0
VERTEX
  8
0
  5
2A03
 10
77.3089
 20
228.675
 30
0.000000
  70
    32
  0
VERTEX
  8
0
  5
2A04
 10
77.3209
 20
228.636
 30
0.000000
  70
    32
  0
VERTEX
  8
0
  5
2A05
 10
77.3329
 20
228.597
 30
0.000000
  70
    32
  0
VERTEX
  8
0
  5
2A06
 10
77.3449
 20
228.557
 30
0.000000
  70
    32
  0
VERTEX
  8
0
  5
2A07
 10
77.3570
 20
228.516
 30
0.000000
  70
    32
  0
VERTEX
  8
0
  5
2A08
 10
77.3690
 20
228.475
 30
0.000000
  70
    32
  0
VERTEX
  8
0
  5
2A09
 10
77.3810
 20
228.434
 30
0.000000
  70
    32
  0
VERTEX
  8
0
  5
2A0A
 10
77.3930
 20
228.393
 30
0.000000
  70
    32
  0
VERTEX
  8
0
  5
2A0B
 10
77.4050
 20
228.350
 30
0.000000
  70
    32
  0
VERTEX
  8
0
  5
2A0C
 10
77.4170
 20
228.308
 30
0.000000
  70
    32
  0
VERTEX
  8
0
  5
2A0D
 10
77.4290
 20
228.265
 30
0.000000
  70
    32
  0
VERTEX
  8
0
  5
2A0E
 10
77.4410
 20
228.221
 30
0.000000
  70
    32
  0
VERTEX
  8
0
  5
2A0F
 10
77.4530
 20
228.178
 30
0.000000
  70
    32
  0
VERTEX
  8
0
  5
2A10
 10
77.4650
 20
228.133
 30
0.000000
  70
    32
  0
VERTEX
  8
0
  5
2A11
 10
77.4770
 20
228.088
 30
0.000000
  70
    32
  0
VERTEX
  8
0
  5
2A12
 10
77.4890
 20
228.043
 30
0.000000
  70
    32
  0
VERTEX
  8
0
  5
2A13
 10
77.5010
 20
227.998
 30
0.000000
  70
    32
  0
VERTEX
  8
0
  5
2A14
 10
77.5130
 20
227.952
 30
0.000000
  70
    32
  0
VERTEX
  8
0
  5
2A15
 10
77.5250
 20
227.905
 30
0.000000
  70
    32
  0
VERTEX
  8
0
  5
2A16
 10
77.5370
 20
227.858
 30
0.000000
  70
    32
  0
VERTEX
  8
0
  5
2A17
 10
77.5489
 20
227.811
 30
0.000000
  70
    32
  0
VERTEX
  8
0
  5
2A18
 10
77.5609
 20
227.763
 30
0.000000
  70
    32
  0
VERTEX
  8
0
  5
2A19
 10
77.5729
 20
227.715
 30
0.000000
  70
    32
  0
VERTEX
  8
0
  5
2A1A
 10
77.5849
 20
227.666
 30
0.000000
  70
    32
  0
VERTEX
  8
0
  5
2A1B
 10
77.5969
 20
227.617
 30
0.000000
  70
    32
  0
VERTEX
  8
0
  5
2A1C
 10
77.6088
 20
227.567
 30
0.000000
  70
    32
  0
VERTEX
  8
0
  5
2A1D
 10
77.6208
 20
227.518
 30
0.000000
  70
    32
  0
VERTEX
  8
0
  5
2A1E
 10
77.6328
 20
227.467
 30
0.000000
  70
    32
  0
VERTEX
  8
0
  5
2A1F
 10
77.6447
 20
227.416
 30
0.000000
  70
    32
  0
VERTEX
  8
0
  5
2A20
 10
77.6567
 20
227.365
 30
0.000000
  70
    32
  0
VERTEX
  8
0
  5
2A21
 10
77.6687
 20
227.313
 30
0.000000
  70
    32
  0
VERTEX
  8
0
  5
2A22
 10
77.6806
 20
227.261
 30
0.000000
  70
    32
  0
VERTEX
  8
0
  5
2A23
 10
77.6926
 20
227.209
 30
0.000000
  70
    32
  0
VERTEX
  8
0
  5
2A24
 10
77.7045
 20
227.156
 30
0.000000
  70
    32
  0
VERTEX
  8
0
  5
2A25
 10
77.7165
 20
227.102
 30
0.000000
  70
    32
  0
VERTEX
  8
0
  5
2A26
 10
77.7284
 20
227.048
 30
0.000000
  70
    32
  0
VERTEX
  8
0
  5
2A27
 10
77.7404
 20
226.994
 30
0.000000
  70
    32
  0
VERTEX
  8
0
  5
2A28
 10
77.7523
 20
226.939
 30
0.000000
  70
    32
  0
VERTEX
  8
0
  5
2A29
 10
77.7643
 20
226.884
 30
0.000000
  70
    32
  0
VERTEX
  8
0
  5
2A2A
 10
77.7762
 20
226.828
 30
0.000000
  70
    32
  0
VERTEX
  8
0
  5
2A2B
 10
77.7882
 20
226.772
 30
0.000000
  70
    32
  0
VERTEX
  8
0
  5
2A2C
 10
77.8001
 20
226.716
 30
0.000000
  70
    32
  0
VERTEX
  8
0
  5
2A2D
 10
77.8120
 20
226.659
 30
0.000000
  70
    32
  0
VERTEX
  8
0
  5
2A2E
 10
77.8240
 20
226.601
 30
0.000000
  70
    32
  0
VERTEX
  8
0
  5
2A2F
 10
77.8359
 20
226.544
 30
0.000000
  70
    32
  0
VERTEX
  8
0
  5
2A30
 10
77.8478
 20
226.485
 30
0.000000
  70
    32
  0
VERTEX
  8
0
  5
2A31
 10
77.8597
 20
226.427
 30
0.000000
  70
    32
  0
VERTEX
  8
0
  5
2A32
 10
77.8716
 20
226.368
 30
0.000000
  70
    32
  0
VERTEX
  8
0
  5
2A33
 10
77.8836
 20
226.308
 30
0.000000
  70
    32
  0
VERTEX
  8
0
  5
2A34
 10
77.8955
 20
226.248
 30
0.000000
  70
    32
  0
VERTEX
  8
0
  5
2A35
 10
77.9074
 20
226.188
 30
0.000000
  70
    32
  0
VERTEX
  8
0
  5
2A36
 10
77.9193
 20
226.127
 30
0.000000
  70
    32
  0
VERTEX
  8
0
  5
2A37
 10
77.9312
 20
226.066
 30
0.000000
  70
    32
  0
VERTEX
  8
0
  5
2A38
 10
77.9431
 20
226.004
 30
0.000000
  70
    32
  0
VERTEX
  8
0
  5
2A39
 10
77.9550
 20
225.942
 30
0.000000
  70
    32
  0
VERTEX
  8
0
  5
2A3A
 10
77.9669
 20
225.879
 30
0.000000
  70
    32
  0
VERTEX
  8
0
  5
2A3B
 10
77.9788
 20
225.816
 30
0.000000
  70
    32
  0
VERTEX
  8
0
  5
2A3C
 10
77.9907
 20
225.753
 30
0.000000
  70
    32
  0
VERTEX
  8
0
  5
2A3D
 10
78.0026
 20
225.689
 30
0.000000
  70
    32
  0
VERTEX
  8
0
  5
2A3E
 10
78.0145
 20
225.625
 30
0.000000
  70
    32
  0
VERTEX
  8
0
  5
2A3F
 10
78.0264
 20
225.560
 30
0.000000
  70
    32
  0
VERTEX
  8
0
  5
2A40
 10
78.0382
 20
225.495
 30
0.000000
  70
    32
  0
VERTEX
  8
0
  5
2A41
 10
78.0501
 20
225.429
 30
0.000000
  70
    32
  0
VERTEX
  8
0
  5
2A42
 10
78.0620
 20
225.363
 30
0.000000
  70
    32
  0
VERTEX
  8
0
  5
2A43
 10
78.0739
 20
225.297
 30
0.000000
  70
    32
  0
VERTEX
  8
0
  5
2A44
 10
78.0857
 20
225.230
 30
0.000000
  70
    32
  0
VERTEX
  8
0
  5
2A45
 10
78.0976
 20
225.163
 30
0.000000
  70
    32
  0
VERTEX
  8
0
  5
2A46
 10
78.1095
 20
225.095
 30
0.000000
  70
    32
  0
VERTEX
  8
0
  5
2A47
 10
78.1213
 20
225.027
 30
0.000000
  70
    32
  0
VERTEX
  8
0
  5
2A48
 10
78.1332
 20
224.958
 30
0.000000
  70
    32
  0
VERTEX
  8
0
  5
2A49
 10
78.1450
 20
224.889
 30
0.000000
  70
    32
  0
VERTEX
  8
0
  5
2A4A
 10
78.1569
 20
224.820
 30
0.000000
  70
    32
  0
VERTEX
  8
0
  5
2A4B
 10
78.1687
 20
224.750
 30
0.000000
  70
    32
  0
VERTEX
  8
0
  5
2A4C
 10
78.1806
 20
224.679
 30
0.000000
  70
    32
  0
VERTEX
  8
0
  5
2A4D
 10
78.1924
 20
224.609
 30
0.000000
  70
    32
  0
VERTEX
  8
0
  5
2A4E
 10
78.2042
 20
224.538
 30
0.000000
  70
    32
  0
VERTEX
  8
0
  5
2A4F
 10
78.2161
 20
224.466
 30
0.000000
  70
    32
  0
VERTEX
  8
0
  5
2A50
 10
78.2279
 20
224.394
 30
0.000000
  70
    32
  0
VERTEX
  8
0
  5
2A51
 10
78.2397
 20
224.321
 30
0.000000
  70
    32
  0
VERTEX
  8
0
  5
2A52
 10
78.2516
 20
224.249
 30
0.000000
  70
    32
  0
VERTEX
  8
0
  5
2A53
 10
78.2634
 20
224.175
 30
0.000000
  70
    32
  0
VERTEX
  8
0
  5
2A54
 10
78.2752
 20
224.101
 30
0.000000
  70
    32
  0
VERTEX
  8
0
  5
2A55
 10
78.2870
 20
224.027
 30
0.000000
  70
    32
  0
VERTEX
  8
0
  5
2A56
 10
78.2988
 20
223.953
 30
0.000000
  70
    32
  0
VERTEX
  8
0
  5
2A57
 10
78.3106
 20
223.878
 30
0.000000
  70
    32
  0
VERTEX
  8
0
  5
2A58
 10
78.3224
 20
223.802
 30
0.000000
  70
    32
  0
VERTEX
  8
0
  5
2A59
 10
78.3342
 20
223.726
 30
0.000000
  70
    32
  0
VERTEX
  8
0
  5
2A5A
 10
78.3460
 20
223.650
 30
0.000000
  70
    32
  0
VERTEX
  8
0
  5
2A5B
 10
78.3578
 20
223.573
 30
0.000000
  70
    32
  0
VERTEX
  8
0
  5
2A5C
 10
78.3696
 20
223.496
 30
0.000000
  70
    32
  0
VERTEX
  8
0
  5
2A5D
 10
78.3814
 20
223.418
 30
0.000000
  70
    32
  0
VERTEX
  8
0
  5
2A5E
 10
78.3932
 20
223.340
 30
0.000000
  70
    32
  0
VERTEX
  8
0
  5
2A5F
 10
78.4050
 20
223.262
 30
0.000000
  70
    32
  0
VERTEX
  8
0
  5
2A60
 10
78.4168
 20
223.183
 30
0.000000
  70
    32
  0
VERTEX
  8
0
  5
2A61
 10
78.4285
 20
223.103
 30
0.000000
  70
    32
  0
VERTEX
  8
0
  5
2A62
 10
78.4403
 20
223.024
 30
0.000000
  70
    32
  0
VERTEX
  8
0
  5
2A63
 10
78.4521
 20
222.943
 30
0.000000
  70
    32
  0
VERTEX
  8
0
  5
2A64
 10
78.4638
 20
222.863
 30
0.000000
  70
    32
  0
VERTEX
  8
0
  5
2A65
 10
78.4756
 20
222.782
 30
0.000000
  70
    32
  0
VERTEX
  8
0
  5
2A66
 10
78.4873
 20
222.700
 30
0.000000
  70
    32
  0
VERTEX
  8
0
  5
2A67
 10
78.4991
 20
222.618
 30
0.000000
  70
    32
  0
VERTEX
  8
0
  5
2A68
 10
78.5108
 20
222.536
 30
0.000000
  70
    32
  0
VERTEX
  8
0
  5
2A69
 10
78.5226
 20
222.453
 30
0.000000
  70
    32
  0
VERTEX
  8
0
  5
2A6A
 10
78.5343
 20
222.370
 30
0.000000
  70
    32
  0
VERTEX
  8
0
  5
2A6B
 10
78.5461
 20
222.287
 30
0.000000
  70
    32
  0
VERTEX
  8
0
  5
2A6C
 10
78.5578
 20
222.202
 30
0.000000
  70
    32
  0
VERTEX
  8
0
  5
2A6D
 10
78.5695
 20
222.118
 30
0.000000
  70
    32
  0
VERTEX
  8
0
  5
2A6E
 10
78.5813
 20
222.033
 30
0.000000
  70
    32
  0
VERTEX
  8
0
  5
2A6F
 10
78.5930
 20
221.948
 30
0.000000
  70
    32
  0
SEQEND
  8
0
  5
2A70
  0
ARC
  5
24DA
  8
0
 10
79.349422661062249
 20
210.77261512951671
 30
0.0
 40
3.1099324693696331
 50
4.445248078549012
 51
46.567667283058782
  0
LINE
  5
24DB
  8
0
 10
57.55000000004997
 20
211.01365481369999
 30
0.0
 11
57.55000000004997
 21
193.9383443376
 31
0.0
  0
LINE
  5
24DC
  8
0
 10
82.450000000050053
 20
193.9383443376
 30
0.0
 11
82.450000000050053
 21
211.01365481369999
 31
0.0
  0
LINE
  5
24DD
  8
0
 10
257.7505557108999
 20
192.67508758240001
 30
0.0
 11
258.20022340849988
 21
166.62411225189999
 31
0.0
  0
LINE
  5
24DE
  8
0
 10
281.79977659149989
 20
166.62411225189999
 30
0.0
 11
282.24944428919991
 21
192.67508758240001
 31
0.0
  0
LINE
  5
2500
  8
0
 10
57.750555710900016
 20
192.67508758240001
 30
0.0
 11
58.200000000000038
 21
166.65000000000001
 31
0.0
  0
LINE
  5
2501
  8
0
 10
82.249444289099969
 20
192.67508758240001
 30
0.0
 11
81.799999999999955
 21
166.65000000000001
 31
0.0
  0
POLYLINE
  5
2507
  8
0
 66
     1
 10
0.0
 20
0.0
 30
0.0
  0
VERTEX
  5
2508
  8
0
 10
57.55000000005009
 20
211.01365481415939
 30
0.0
 42
0.1804470622436327
  0
VERTEX
  5
2509
  8
0
 10
58.294362028764787
 20
209.01826419421289
 30
0.0
 42
0.103077630965543
  0
VERTEX
  5
250A
  8
0
 10
61.196520574146462
 20
206.8062419923744
 30
0.0
 42
0.0626810158734109
 70
     2
 50
334.45564591193568
  0
VERTEX
  5
250B
  8
0
 10
64.955147527878793
 20
205.5580240940146
 30
0.0
 42
0.0488980678205214
 50
334.45564591193568
  0
VERTEX
  5
250C
  8
0
 10
69.999999999850047
 20
205.0634745388372
 30
0.0
 42
0.0488980678205202
  0
VERTEX
  5
250D
  8
0
 10
75.044852471850504
 20
205.55802409371799
 30
0.0
 42
0.0626810158734071
  0
VERTEX
  5
250E
  8
0
 10
78.803479425655951
 20
206.80624199185689
 30
0.0
 42
0.1030776309655196
 70
     2
 50
25.54435408469606
  0
VERTEX
  5
250F
  8
0
 10
81.705637971167789
 20
209.01826419352469
 30
0.0
 42
0.1804470622512109
 50
25.54435408469606
  0
VERTEX
  5
2510
  8
0
 10
82.449999999999932
 20
211.01365481351709
 30
0.0
 42
0.1804470622512082
  0
SEQEND
  5
2511
  8
0
  0
LINE
  5
2527
  8
0
 10
261.4000000000002
 20
222.1053490505372
 30
0.0
 11
261.39999999999998
 21
205.91359320362221
 31
0.0
  0
POLYLINE
  5
2528
  8
0
 10
261.40000000000015
 20
222.10534905053711
 30
0.0
 66
     1
 70
     8
  0
VERTEX
  8
0
  5
2A71
 10
261.400
 20
222.105
 30
0.000000
  70
    32
  0
VERTEX
  8
0
  5
2A72
 10
261.412
 20
222.188
 30
0.000000
  70
    32
  0
VERTEX
  8
0
  5
2A73
 10
261.423
 20
222.271
 30
0.000000
  70
    32
  0
VERTEX
  8
0
  5
2A74
 10
261.435
 20
222.353
 30
0.000000
  70
    32
  0
VERTEX
  8
0
  5
2A75
 10
261.446
 20
222.435
 30
0.000000
  70
    32
  0
VERTEX
  8
0
  5
2A76
 10
261.458
 20
222.516
 30
0.000000
  70
    32
  0
VERTEX
  8
0
  5
2A77
 10
261.469
 20
222.597
 30
0.000000
  70
    32
  0
VERTEX
  8
0
  5
2A78
 10
261.481
 20
222.678
 30
0.000000
  70
    32
  0
VERTEX
  8
0
  5
2A79
 10
261.492
 20
222.758
 30
0.000000
  70
    32
  0
VERTEX
  8
0
  5
2A7A
 10
261.504
 20
222.838
 30
0.000000
  70
    32
  0
VERTEX
  8
0
  5
2A7B
 10
261.516
 20
222.917
 30
0.000000
  70
    32
  0
VERTEX
  8
0
  5
2A7C
 10
261.527
 20
222.996
 30
0.000000
  70
    32
  0
VERTEX
  8
0
  5
2A7D
 10
261.539
 20
223.074
 30
0.000000
  70
    32
  0
VERTEX
  8
0
  5
2A7E
 10
261.550
 20
223.152
 30
0.000000
  70
    32
  0
VERTEX
  8
0
  5
2A7F
 10
261.562
 20
223.230
 30
0.000000
  70
    32
  0
VERTEX
  8
0
  5
2A80
 10
261.573
 20
223.307
 30
0.000000
  70
    32
  0
VERTEX
  8
0
  5
2A81
 10
261.585
 20
223.384
 30
0.000000
  70
    32
  0
VERTEX
  8
0
  5
2A82
 10
261.597
 20
223.461
 30
0.000000
  70
    32
  0
VERTEX
  8
0
  5
2A83
 10
261.608
 20
223.537
 30
0.000000
  70
    32
  0
VERTEX
  8
0
  5
2A84
 10
261.620
 20
223.612
 30
0.000000
  70
    32
  0
VERTEX
  8
0
  5
2A85
 10
261.631
 20
223.687
 30
0.000000
  70
    32
  0
VERTEX
  8
0
  5
2A86
 10
261.643
 20
223.762
 30
0.000000
  70
    32
  0
VERTEX
  8
0
  5
2A87
 10
261.655
 20
223.836
 30
0.000000
  70
    32
  0
VERTEX
  8
0
  5
2A88
 10
261.666
 20
223.910
 30
0.000000
  70
    32
  0
VERTEX
  8
0
  5
2A89
 10
261.678
 20
223.984
 30
0.000000
  70
    32
  0
VERTEX
  8
0
  5
2A8A
 10
261.689
 20
224.057
 30
0.000000
  70
    32
  0
VERTEX
  8
0
  5
2A8B
 10
261.701
 20
224.130
 30
0.000000
  70
    32
  0
VERTEX
  8
0
  5
2A8C
 10
261.713
 20
224.202
 30
0.000000
  70
    32
  0
VERTEX
  8
0
  5
2A8D
 10
261.724
 20
224.274
 30
0.000000
  70
    32
  0
VERTEX
  8
0
  5
2A8E
 10
261.736
 20
224.345
 30
0.000000
  70
    32
  0
VERTEX
  8
0
  5
2A8F
 10
261.748
 20
224.416
 30
0.000000
  70
    32
  0
VERTEX
  8
0
  5
2A90
 10
261.759
 20
224.487
 30
0.000000
  70
    32
  0
VERTEX
  8
0
  5
2A91
 10
261.771
 20
224.557
 30
0.000000
  70
    32
  0
VERTEX
  8
0
  5
2A92
 10
261.783
 20
224.627
 30
0.000000
  70
    32
  0
VERTEX
  8
0
  5
2A93
 10
261.794
 20
224.696
 30
0.000000
  70
    32
  0
VERTEX
  8
0
  5
2A94
 10
261.806
 20
224.765
 30
0.000000
  70
    32
  0
VERTEX
  8
0
  5
2A95
 10
261.817
 20
224.833
 30
0.000000
  70
    32
  0
VERTEX
  8
0
  5
2A96
 10
261.829
 20
224.901
 30
0.000000
  70
    32
  0
VERTEX
  8
0
  5
2A97
 10
261.841
 20
224.969
 30
0.000000
  70
    32
  0
VERTEX
  8
0
  5
2A98
 10
261.852
 20
225.036
 30
0.000000
  70
    32
  0
VERTEX
  8
0
  5
2A99
 10
261.864
 20
225.103
 30
0.000000
  70
    32
  0
VERTEX
  8
0
  5
2A9A
 10
261.876
 20
225.170
 30
0.000000
  70
    32
  0
VERTEX
  8
0
  5
2A9B
 10
261.887
 20
225.236
 30
0.000000
  70
    32
  0
VERTEX
  8
0
  5
2A9C
 10
261.899
 20
225.301
 30
0.000000
  70
    32
  0
VERTEX
  8
0
  5
2A9D
 10
261.911
 20
225.366
 30
0.000000
  70
    32
  0
VERTEX
  8
0
  5
2A9E
 10
261.922
 20
225.431
 30
0.000000
  70
    32
  0
VERTEX
  8
0
  5
2A9F
 10
261.934
 20
225.496
 30
0.000000
  70
    32
  0
VERTEX
  8
0
  5
2AA0
 10
261.946
 20
225.559
 30
0.000000
  70
    32
  0
VERTEX
  8
0
  5
2AA1
 10
261.958
 20
225.623
 30
0.000000
  70
    32
  0
VERTEX
  8
0
  5
2AA2
 10
261.969
 20
225.686
 30
0.000000
  70
    32
  0
VERTEX
  8
0
  5
2AA3
 10
261.981
 20
225.749
 30
0.000000
  70
    32
  0
VERTEX
  8
0
  5
2AA4
 10
261.993
 20
225.811
 30
0.000000
  70
    32
  0
VERTEX
  8
0
  5
2AA5
 10
262.004
 20
225.873
 30
0.000000
  70
    32
  0
VERTEX
  8
0
  5
2AA6
 10
262.016
 20
225.934
 30
0.000000
  70
    32
  0
VERTEX
  8
0
  5
2AA7
 10
262.028
 20
225.995
 30
0.000000
  70
    32
  0
VERTEX
  8
0
  5
2AA8
 10
262.039
 20
226.056
 30
0.000000
  70
    32
  0
VERTEX
  8
0
  5
2AA9
 10
262.051
 20
226.116
 30
0.000000
  70
    32
  0
VERTEX
  8
0
  5
2AAA
 10
262.063
 20
226.176
 30
0.000000
  70
    32
  0
VERTEX
  8
0
  5
2AAB
 10
262.075
 20
226.235
 30
0.000000
  70
    32
  0
VERTEX
  8
0
  5
2AAC
 10
262.086
 20
226.294
 30
0.000000
  70
    32
  0
VERTEX
  8
0
  5
2AAD
 10
262.098
 20
226.352
 30
0.000000
  70
    32
  0
VERTEX
  8
0
  5
2AAE
 10
262.110
 20
226.411
 30
0.000000
  70
    32
  0
VERTEX
  8
0
  5
2AAF
 10
262.121
 20
226.468
 30
0.000000
  70
    32
  0
VERTEX
  8
0
  5
2AB0
 10
262.133
 20
226.525
 30
0.000000
  70
    32
  0
VERTEX
  8
0
  5
2AB1
 10
262.145
 20
226.582
 30
0.000000
  70
    32
  0
VERTEX
  8
0
  5
2AB2
 10
262.157
 20
226.639
 30
0.000000
  70
    32
  0
VERTEX
  8
0
  5
2AB3
 10
262.168
 20
226.695
 30
0.000000
  70
    32
  0
VERTEX
  8
0
  5
2AB4
 10
262.180
 20
226.750
 30
0.000000
  70
    32
  0
VERTEX
  8
0
  5
2AB5
 10
262.192
 20
226.805
 30
0.000000
  70
    32
  0
VERTEX
  8
0
  5
2AB6
 10
262.204
 20
226.860
 30
0.000000
  70
    32
  0
VERTEX
  8
0
  5
2AB7
 10
262.215
 20
226.914
 30
0.000000
  70
    32
  0
VERTEX
  8
0
  5
2AB8
 10
262.227
 20
226.968
 30
0.000000
  70
    32
  0
VERTEX
  8
0
  5
2AB9
 10
262.239
 20
227.022
 30
0.000000
  70
    32
  0
VERTEX
  8
0
  5
2ABA
 10
262.251
 20
227.075
 30
0.000000
  70
    32
  0
VERTEX
  8
0
  5
2ABB
 10
262.262
 20
227.127
 30
0.000000
  70
    32
  0
VERTEX
  8
0
  5
2ABC
 10
262.274
 20
227.179
 30
0.000000
  70
    32
  0
VERTEX
  8
0
  5
2ABD
 10
262.286
 20
227.231
 30
0.000000
  70
    32
  0
VERTEX
  8
0
  5
2ABE
 10
262.298
 20
227.282
 30
0.000000
  70
    32
  0
VERTEX
  8
0
  5
2ABF
 10
262.309
 20
227.333
 30
0.000000
  70
    32
  0
VERTEX
  8
0
  5
2AC0
 10
262.321
 20
227.384
 30
0.000000
  70
    32
  0
VERTEX
  8
0
  5
2AC1
 10
262.333
 20
227.434
 30
0.000000
  70
    32
  0
VERTEX
  8
0
  5
2AC2
 10
262.345
 20
227.484
 30
0.000000
  70
    32
  0
VERTEX
  8
0
  5
2AC3
 10
262.356
 20
227.533
 30
0.000000
  70
    32
  0
VERTEX
  8
0
  5
2AC4
 10
262.368
 20
227.582
 30
0.000000
  70
    32
  0
VERTEX
  8
0
  5
2AC5
 10
262.380
 20
227.630
 30
0.000000
  70
    32
  0
VERTEX
  8
0
  5
2AC6
 10
262.392
 20
227.678
 30
0.000000
  70
    32
  0
VERTEX
  8
0
  5
2AC7
 10
262.404
 20
227.726
 30
0.000000
  70
    32
  0
VERTEX
  8
0
  5
2AC8
 10
262.415
 20
227.773
 30
0.000000
  70
    32
  0
VERTEX
  8
0
  5
2AC9
 10
262.427
 20
227.820
 30
0.000000
  70
    32
  0
VERTEX
  8
0
  5
2ACA
 10
262.439
 20
227.866
 30
0.000000
  70
    32
  0
VERTEX
  8
0
  5
2ACB
 10
262.451
 20
227.912
 30
0.000000
  70
    32
  0
VERTEX
  8
0
  5
2ACC
 10
262.462
 20
227.957
 30
0.000000
  70
    32
  0
VERTEX
  8
0
  5
2ACD
 10
262.474
 20
228.002
 30
0.000000
  70
    32
  0
VERTEX
  8
0
  5
2ACE
 10
262.486
 20
228.047
 30
0.000000
  70
    32
  0
VERTEX
  8
0
  5
2ACF
 10
262.498
 20
228.091
 30
0.000000
  70
    32
  0
VERTEX
  8
0
  5
2AD0
 10
262.510
 20
228.135
 30
0.000000
  70
    32
  0
VERTEX
  8
0
  5
2AD1
 10
262.521
 20
228.178
 30
0.000000
  70
    32
  0
VERTEX
  8
0
  5
2AD2
 10
262.533
 20
228.221
 30
0.000000
  70
    32
  0
VERTEX
  8
0
  5
2AD3
 10
262.545
 20
228.264
 30
0.000000
  70
    32
  0
VERTEX
  8
0
  5
2AD4
 10
262.557
 20
228.306
 30
0.000000
  70
    32
  0
VERTEX
  8
0
  5
2AD5
 10
262.569
 20
228.347
 30
0.000000
  70
    32
  0
VERTEX
  8
0
  5
2AD6
 10
262.581
 20
228.389
 30
0.000000
  70
    32
  0
VERTEX
  8
0
  5
2AD7
 10
262.592
 20
228.429
 30
0.000000
  70
    32
  0
VERTEX
  8
0
  5
2AD8
 10
262.604
 20
228.470
 30
0.000000
  70
    32
  0
VERTEX
  8
0
  5
2AD9
 10
262.616
 20
228.510
 30
0.000000
  70
    32
  0
VERTEX
  8
0
  5
2ADA
 10
262.628
 20
228.549
 30
0.000000
  70
    32
  0
VERTEX
  8
0
  5
2ADB
 10
262.640
 20
228.588
 30
0.000000
  70
    32
  0
VERTEX
  8
0
  5
2ADC
 10
262.651
 20
228.627
 30
0.000000
  70
    32
  0
VERTEX
  8
0
  5
2ADD
 10
262.663
 20
228.665
 30
0.000000
  70
    32
  0
VERTEX
  8
0
  5
2ADE
 10
262.675
 20
228.703
 30
0.000000
  70
    32
  0
VERTEX
  8
0
  5
2ADF
 10
262.687
 20
228.741
 30
0.000000
  70
    32
  0
VERTEX
  8
0
  5
2AE0
 10
262.699
 20
228.778
 30
0.000000
  70
    32
  0
VERTEX
  8
0
  5
2AE1
 10
262.711
 20
228.814
 30
0.000000
  70
    32
  0
VERTEX
  8
0
  5
2AE2
 10
262.722
 20
228.850
 30
0.000000
  70
    32
  0
VERTEX
  8
0
  5
2AE3
 10
262.734
 20
228.886
 30
0.000000
  70
    32
  0
VERTEX
  8
0
  5
2AE4
 10
262.746
 20
228.921
 30
0.000000
  70
    32
  0
VERTEX
  8
0
  5
2AE5
 10
262.758
 20
228.956
 30
0.000000
  70
    32
  0
VERTEX
  8
0
  5
2AE6
 10
262.770
 20
228.991
 30
0.000000
  70
    32
  0
VERTEX
  8
0
  5
2AE7
 10
262.782
 20
229.025
 30
0.000000
  70
    32
  0
VERTEX
  8
0
  5
2AE8
 10
262.793
 20
229.058
 30
0.000000
  70
    32
  0
VERTEX
  8
0
  5
2AE9
 10
262.805
 20
229.092
 30
0.000000
  70
    32
  0
VERTEX
  8
0
  5
2AEA
 10
262.817
 20
229.124
 30
0.000000
  70
    32
  0
VERTEX
  8
0
  5
2AEB
 10
262.829
 20
229.157
 30
0.000000
  70
    32
  0
VERTEX
  8
0
  5
2AEC
 10
262.841
 20
229.189
 30
0.000000
  70
    32
  0
VERTEX
  8
0
  5
2AED
 10
262.853
 20
229.220
 30
0.000000
  70
    32
  0
VERTEX
  8
0
  5
2AEE
 10
262.864
 20
229.251
 30
0.000000
  70
    32
  0
VERTEX
  8
0
  5
2AEF
 10
262.876
 20
229.282
 30
0.000000
  70
    32
  0
VERTEX
  8
0
  5
2AF0
 10
262.888
 20
229.312
 30
0.000000
  70
    32
  0
VERTEX
  8
0
  5
2AF1
 10
262.900
 20
229.342
 30
0.000000
  70
    32
  0
SEQEND
  8
0
  5
2AF2
  0
ARC
  5
2529
  8
0
 10
263.54363415641762
 20
205.85036647497509
 30
0.0
 40
2.144566393417437
 50
178.31054439664791
 51
201.11104153965641
  0
ARC
  5
252A
  8
0
 10
251.36928881619991
 20
201.66568251030029
 30
0.0
 40
10.73070226283274
 50
341.8122064404979
 51
18.541442129303359
  0
LINE
  5
252B
  8
0
 10
231.5
 20
280.72822956810012
 30
0.0
 11
231.5
 21
283.07177043190012
 31
0.0
  0
ARC
  5
252C
  8
0
 10
172.93181448050009
 20
337.39882473590018
 30
0.0
 40
47.599999999999888
 50
261.86970562440149
 51
278.78302068610179
  0
ARC
  5
252D
  8
0
 10
181.9999999888
 20
279.09999999810009
 30
0.0
 40
11.40000000002386
 50
87.988086801799128
 51
99.084720230303404
  0
LINE
  5
252E
  8
0
 10
225.80713302780009
 20
289.00000000000011
 30
0.0
 11
182.40022313830011
 21
290.49297245630009
 31
0.0
  0
ARC
  5
252F
  8
0
 10
224.9926536350653
 20
280.32779388966782
 30
0.0
 40
8.7103694239265934
 50
77.351208749443927
 51
84.634612719725183
  0
ARC
  5
2530
  8
0
 10
225.60000000000019
 20
283.07177043190012
 30
0.0
 40
5.8999999999997677
 50
0.0
 51
77.27105612689715
  0
ARC
  5
2531
  8
0
 10
172.93181448050009
 20
226.4011752640001
 30
0.0
 40
47.599999999999653
 50
98.130294375598552
 51
112.39071048560101
  0
ARC
  5
2532
  8
0
 10
172.93181448050009
 20
337.39882473590018
 30
0.0
 40
47.600000000000207
 50
247.6092895143004
 51
261.86970562440149
  0
LINE
  5
2533
  8
0
 10
225.80713302779989
 20
274.8000000000003
 30
0.0
 11
182.40022313829991
 21
273.30702754370128
 31
0.0
  0
ARC
  5
2534
  8
0
 10
224.99265363506541
 20
283.47220611033271
 30
0.0
 40
8.7103694239265934
 50
275.36538728027477
 51
282.64879125055268
  0
ARC
  5
2535
  8
0
 10
225.60000000000019
 20
280.72822956810029
 30
0.0
 40
5.8999999999997677
 50
282.72894387310288
 51
0.0
  0
ARC
  5
2536
  8
0
 10
172.93181448050009
 20
226.40117526410009
 30
0.0
 40
47.599999999999888
 50
81.216979313898236
 51
98.130294375598552
  0
ARC
  5
2537
  8
0
 10
181.9999999888
 20
284.70000000190021
 30
0.0
 40
11.40000000002386
 50
260.91527976969661
 51
272.01191319820077
  0
LINE
  5
2538
  8
0
 10
137.59999999999999
 20
283.01467484048112
 30
0.0
 11
137.59999999999999
 21
280.785325159519
 31
0.0
  0
ARC
  5
2539
  8
0
 10
150.0
 20
281.90000000000009
 30
0.0
 40
12.44999999999999
 50
67.322597121496273
 51
174.86330937005641
  0
ARC
  5
253A
  8
0
 10
150.0
 20
281.90000000000009
 30
0.0
 40
12.44999999999999
 50
185.1366906299435
 51
292.6774028785037
  0
LINE
  5
253B
  8
0
 10
231.5
 20
98.828229568100014
 30
0.0
 11
231.5
 21
101.1717704319
 31
0.0
  0
ARC
  5
253C
  8
0
 10
172.93181448050009
 20
155.49882473590009
 30
0.0
 40
47.599999999999888
 50
261.86970562440138
 51
278.78302068610179
  0
ARC
  5
253D
  8
0
 10
181.9999999888
 20
97.199999998099983
 30
0.0
 40
11.40000000002386
 50
87.988086801799128
 51
99.084720230303446
  0
LINE
  5
253E
  8
0
 10
225.80713302780009
 20
107.09999999999999
 30
0.0
 11
182.40022313830011
 21
108.5929724563
 31
0.0
  0
ARC
  5
253F
  8
0
 10
224.9926536350653
 20
98.427793889667683
 30
0.0
 40
8.7103694239265934
 50
77.351208749444012
 51
84.634612719725098
  0
ARC
  5
2540
  8
0
 10
225.60000000000019
 20
101.1717704319
 30
0.0
 40
5.8999999999997677
 50
0.0
 51
77.271056126897236
  0
ARC
  5
2541
  8
0
 10
172.93181448050009
 20
44.501175263999983
 30
0.0
 40
47.599999999999653
 50
98.130294375598623
 51
112.39071048560091
  0
ARC
  5
2542
  8
0
 10
172.93181448050009
 20
155.49882473590009
 30
0.0
 40
47.600000000000207
 50
247.60928951430051
 51
261.86970562440138
  0
LINE
  5
2543
  8
0
 10
225.80713302779989
 20
92.900000000000205
 30
0.0
 11
182.40022313829991
 21
91.40702754370119
 31
0.0
  0
ARC
  5
2544
  8
0
 10
224.99265363506541
 20
101.5722061103325
 30
0.0
 40
8.7103694239265934
 50
275.36538728027489
 51
282.64879125055279
  0
ARC
  5
2545
  8
0
 10
225.60000000000019
 20
98.828229568100198
 30
0.0
 40
5.8999999999997677
 50
282.72894387310282
 51
0.0
  0
ARC
  5
2546
  8
0
 10
172.93181448050009
 20
44.501175264100027
 30
0.0
 40
47.599999999999888
 50
81.216979313898165
 51
98.130294375598623
  0
ARC
  5
2547
  8
0
 10
181.9999999888
 20
102.8000000019001
 30
0.0
 40
11.40000000002386
 50
260.91527976969661
 51
272.01191319820077
  0
LINE
  5
2548
  8
0
 10
137.59999999999999
 20
101.114674840481
 30
0.0
 11
137.59999999999999
 21
98.88532515951897
 31
0.0
  0
ARC
  5
2549
  8
0
 10
150.0
 20
100.0
 30
0.0
 40
12.44999999999999
 50
67.322597121496273
 51
174.86330937005641
  0
ARC
  5
254A
  8
0
 10
150.0
 20
100.0
 30
0.0
 40
12.44999999999999
 50
185.1366906299435
 51
292.6774028785037
  0
ENDSEC
  0
EOF
