  0
SECTION
  2
HEADER
  9
$ACADVER
  1
AC1009
  9
$INSBASE
 10
0.0
 20
0.0
 30
0.0
  9
$EXTMIN
 10
0.0
 20
-1.4802182810368341
 30
0.0
  9
$EXTMAX
 10
95.5
 20
95.5
 30
0.0
  9
$LIMMIN
 10
0.0
 20
0.0
  9
$LIMMAX
 10
375.0
 20
270.0
  9
$ORTHOMODE
 70
     1
  9
$REGENMODE
 70
     1
  9
$FILLMODE
 70
     1
  9
$QTEXTMODE
 70
     0
  9
$MIRRTEXT
 70
     0
  9
$DRAGMODE
 70
     2
  9
$LTSCALE
 40
5.0
  9
$OSMODE
 70
    37
  9
$ATTMODE
 70
     1
  9
$TEXTSIZE
 40
0.2
  9
$TRACEWID
 40
0.05
  9
$TEXTSTYLE
  7
STANDARD
  9
$CLAYER
  8
4
  9
$CELTYPE
  6
BYLAYER
  9
$CECOLOR
 62
   256
  9
$DIMSCALE
 40
1.0
  9
$DIMASZ
 40
3.0
  9
$DIMEXO
 40
2.0
  9
$DIMDLI
 40
0.38
  9
$DIMRND
 40
0.0
  9
$DIMDLE
 40
0.0
  9
$DIMEXE
 40
2.0
  9
$DIMTP
 40
0.0
  9
$DIMTM
 40
0.0
  9
$DIMTXT
 40
3.2000000000000002
  9
$DIMCEN
 40
0.09
  9
$DIMTSZ
 40
0.0
  9
$DIMTOL
 70
     0
  9
$DIMLIM
 70
     0
  9
$DIMTIH
 70
     0
  9
$DIMTOH
 70
     0
  9
$DIMSE1
 70
     0
  9
$DIMSE2
 70
     0
  9
$DIMTAD
 70
     1
  9
$DIMZIN
 70
     8
  9
$DIMBLK
  1

  9
$DIMASO
 70
     1
  9
$DIMSHO
 70
     0
  9
$DIMPOST
  1

  9
$DIMAPOST
  1

  9
$DIMALT
 70
     0
  9
$DIMALTD
 70
     2
  9
$DIMALTF
 40
25.399999999999999
  9
$DIMLFAC
 40
1.0
  9
$DIMTOFL
 70
     1
  9
$DIMTVP
 40
1.6000000000000001
  9
$DIMTIX
 70
     1
  9
$DIMSOXD
 70
     0
  9
$DIMSAH
 70
     0
  9
$DIMBLK1
  1

  9
$DIMBLK2
  1

  9
$DIMSTYLE
  2
STANDARD
  9
$DIMCLRD
 70
   256
  9
$DIMCLRE
 70
   256
  9
$DIMCLRT
 70
   256
  9
$DIMTFAC
 40
1.0
  9
$DIMGAP
 40
1.0
  9
$LUNITS
 70
     2
  9
$LUPREC
 70
     1
  9
$SKETCHINC
 40
0.1
  9
$FILLETRAD
 40
0.0
  9
$AUNITS
 70
     0
  9
$AUPREC
 70
     0
  9
$MENU
  1
E:\r13\win\SUPPORT\ACAD
  9
$ELEVATION
 40
0.0
  9
$PELEVATION
 40
0.0
  9
$THICKNESS
 40
0.0
  9
$LIMCHECK
 70
     0
  9
$BLIPMODE
 70
     0
  9
$CHAMFERA
 40
0.0
  9
$CHAMFERB
 40
0.0
  9
$SKPOLY
 70
     0
  9
$TDCREATE
 40
2449839.8447916671
  9
$TDUPDATE
 40
2459207.6377757289
  9
$TDINDWG
 40
0.1870419329
  9
$TDUSRTIMER
 40
0.1870419329
  9
$USRTIMER
 70
     1
  9
$ANGBASE
 50
0.0
  9
$ANGDIR
 70
     0
  9
$PDMODE
 70
     0
  9
$PDSIZE
 40
0.0
  9
$PLINEWID
 40
0.0
  9
$COORDS
 70
     1
  9
$SPLFRAME
 70
     0
  9
$SPLINETYPE
 70
     6
  9
$SPLINESEGS
 70
     8
  9
$ATTDIA
 70
     0
  9
$ATTREQ
 70
     1
  9
$HANDLING
 70
     1
  9
$HANDSEED
  5
154E
  9
$SURFTAB1
 70
     6
  9
$SURFTAB2
 70
     6
  9
$SURFTYPE
 70
     6
  9
$SURFU
 70
     6
  9
$SURFV
 70
     6
  9
$UCSNAME
  2

  9
$UCSORG
 10
0.0
 20
0.0
 30
0.0
  9
$UCSXDIR
 10
1.0
 20
0.0
 30
0.0
  9
$UCSYDIR
 10
0.0
 20
1.0
 30
0.0
  9
$PUCSNAME
  2

  9
$PUCSORG
 10
0.0
 20
0.0
 30
0.0
  9
$PUCSXDIR
 10
1.0
 20
0.0
 30
0.0
  9
$PUCSYDIR
 10
0.0
 20
1.0
 30
0.0
  9
$USERI1
 70
     0
  9
$USERI2
 70
     1
  9
$USERI3
 70
     1
  9
$USERI4
 70
     0
  9
$USERI5
 70
     0
  9
$USERR1
 40
0.0
  9
$USERR2
 40
0.0
  9
$USERR3
 40
0.0
  9
$USERR4
 40
0.0
  9
$USERR5
 40
0.0
  9
$WORLDVIEW
 70
     1
  9
$SHADEDGE
 70
     3
  9
$SHADEDIF
 70
    70
  9
$TILEMODE
 70
     1
  9
$MAXACTVP
 70
    16
  9
$PLIMCHECK
 70
     0
  9
$PEXTMIN
 10
1.0000000000000000E+020
 20
1.0000000000000000E+020
 30
1.0000000000000000E+020
  9
$PEXTMAX
 10
-1.0000000000000000E+020
 20
-1.0000000000000000E+020
 30
-1.0000000000000000E+020
  9
$PLIMMIN
 10
0.0
 20
0.0
  9
$PLIMMAX
 10
12.0
 20
9.0
  9
$UNITMODE
 70
     0
  9
$VISRETAIN
 70
     0
  9
$PLINEGEN
 70
     0
  9
$PSLTSCALE
 70
     0
  0
ENDSEC
  0
SECTION
  2
TABLES
  0
TABLE
  2
VPORT
 70
     1
  0
VPORT
  2
*ACTIVE
 70
     0
 10
0.0
 20
0.0
 11
1.0
 21
1.0
 12
132.37710519963969
 22
50.000000000000007
 13
0.0
 23
0.0
 14
10.0
 24
10.0
 15
10.0
 25
10.0
 16
0.0
 26
0.0
 36
1.0
 17
0.0
 27
0.0
 37
0.0
 40
100.0448230393838
 41
2.6470588235294108
 42
50.0
 43
0.0
 44
0.0
 50
0.0
 51
0.0
 71
     0
 72
   500
 73
     1
 74
     0
 75
     0
 76
     0
 77
     0
 78
     2
  0
ENDTAB
  0
TABLE
  2
LTYPE
 70
     4
  0
LTYPE
  2
CONTINUOUS
 70
     0
  3
Solid Line
 72
    65
 73
     0
 40
0.0
  0
LTYPE
  2
CENTER
 70
     0
  3
____ _ ____ _ ____ _ ____ _ ____ _ ____ _ ____
 72
    65
 73
     4
 40
2.0
 49
1.25
 49
-0.25
 49
0.25
 49
-0.25
  0
LTYPE
  2
HIDDEN
 70
     0
  3
_ _ _ _ _ _ _ _ _ _ _ _ _ _ _ _ _ _ _ _ _ _ _
 72
    65
 73
     2
 40
0.375
 49
0.25
 49
-0.125
  0
LTYPE
  2
PHANTOM2
 70
     0
  3
___ _ _ ___ _ _ ___ _ _ ___ _ _
 72
    65
 73
     6
 40
1.25
 49
0.625
 49
-0.125
 49
0.125
 49
-0.125
 49
0.125
 49
-0.125
  0
ENDTAB
  0
TABLE
  2
LAYER
 70
     6
  0
LAYER
  2
0
 70
     0
 62
     7
  6
CONTINUOUS
  0
LAYER
  2
1
 70
     0
 62
     1
  6
CENTER
  0
LAYER
  2
2
 70
     0
 62
     2
  6
HIDDEN
  0
LAYER
  2
DEFPOINTS
 70
     0
 62
     7
  6
CONTINUOUS
  0
LAYER
  2
4
 70
     0
 62
     4
  6
CONTINUOUS
  0
LAYER
  2
3
 70
     0
 62
     3
  6
CONTINUOUS
  0
ENDTAB
  0
TABLE
  2
STYLE
 70
     2
  0
STYLE
  2
STANDARD
 70
     0
 40
0.0
 41
1.0
 50
0.0
 71
     0
 42
0.2
  3
TXT
  4
BIGFONT
  0
STYLE
  2
STANDARD1
 70
     0
 40
0.0
 41
1.0
 50
0.0
 71
     0
 42
3.0
  3
txt
  4

  0
ENDTAB
  0
TABLE
  2
VIEW
 70
     1
  0
VIEW
  2
ALL
 70
     0
 40
270.0
 10
220.99159663865549
 20
135.0
 41
0.0
 11
0.0
 21
0.0
 31
1.0
 12
0.0
 22
0.0
 32
0.0
 42
0.0
 43
0.0
 44
0.0
 50
0.0
 71
     0
  0
ENDTAB
  0
TABLE
  2
UCS
 70
     0
  0
ENDTAB
  0
TABLE
  2
APPID
 70
     9
  0
APPID
  2
ACAD
 70
     0
  0
APPID
  2
ACAD_MLEADERVER
 70
     0
  0
APPID
  2
ACAD_NAV_VCDISPLAY
 70
     0
  0
APPID
  2
ACAD_EXEMPT_FROM_CAD_STANDARDS
 70
     0
  0
APPID
  2
ACAD_DSTYLE_DIMJAG
 70
     0
  0
APPID
  2
ACAD_DSTYLE_DIMTALN
 70
     0
  0
APPID
  2
ACAECLAYERSTANDARD
 70
     0
  0
APPID
  2
ACCMTRANSPARENCY
 70
     0
  0
APPID
  2
DCO15
 70
     0
  0
ENDTAB
  0
TABLE
  2
DIMSTYLE
 70
     1
  0
DIMSTYLE
  2
STANDARD
 70
     0
  3

  4

  5

  6

  7

 40
1.0
 41
0.18
 42
0.0625
 43
0.38
 44
0.18
 45
0.0
 46
0.0
 47
0.0
 48
0.0
140
0.18
141
0.09
142
0.0
143
25.399999999999999
144
1.0
145
0.0
146
1.0
147
0.09
 71
     0
 72
     0
 73
     1
 74
     1
 75
     0
 76
     0
 77
     0
 78
     0
170
     0
171
     2
172
     0
173
     0
174
     0
175
     0
176
     0
177
     0
178
     0
  0
ENDTAB
  0
ENDSEC
  0
SECTION
  2
BLOCKS
  0
BLOCK
  8
0
  2
$MODEL_SPACE
 70
     0
 10
0.0
 20
0.0
 30
0.0
  3
$MODEL_SPACE
  1

  0
ENDBLK
  5
10E
  8
0
  0
BLOCK
 67
     1
  8
0
  2
$PAPER_SPACE
 70
     0
 10
0.0
 20
0.0
 30
0.0
  3
$PAPER_SPACE
  1

  0
ENDBLK
  5
10C
 67
     1
  8
0
  0
ENDSEC
  0
SECTION
  2
ENTITIES
  0
TEXT
  5
4DC
  8
0
 62
     3
 10
0.0
 20
0.0
 30
0.0
 40
5.0
  1
HD-BHS06X10
  7
STANDARD1
  0
LINE
  5
1353
  8
0
 10
83.999999999999957
 20
37.800000000000011
 30
0.0
 11
84.080384757729306
 21
37.800000000000011
 31
0.0
  0
LINE
  5
1354
  8
0
 10
84.080384757729306
 20
42.199999999999982
 30
0.0
 11
83.999999999999957
 21
42.199999999999982
 31
0.0
  0
ARC
  5
1355
  8
0
 10
84.080384757729306
 20
37.300000000000011
 30
0.0
 40
0.4999999999999992
 50
60.000000000000099
 51
90.0
  0
ARC
  5
1356
  8
0
 10
84.080384757729306
 20
42.699999999999982
 30
0.0
 40
0.4999999999999992
 50
270.0
 51
299.99999999999989
  0
ARC
  5
1358
  8
0
 10
83.999999999999957
 20
37.300000000000011
 30
0.0
 40
0.4999999999999983
 50
90.0
 51
180.0
  0
ARC
  5
1359
  8
0
 10
83.999999999999957
 20
42.699999999999982
 30
0.0
 40
0.4999999999999993
 50
180.0
 51
270.0
  0
LINE
  5
135B
  8
0
 10
84.330384757729306
 20
37.733012701892221
 30
0.0
 11
85.599999999999994
 21
37.0
 31
0.0
  0
LINE
  5
135C
  8
0
 10
85.599999999999994
 20
43.0
 30
0.0
 11
84.330384757729306
 21
42.266987298107772
 31
0.0
  0
LINE
  5
135E
  8
0
 10
93.499999999999972
 20
42.386500000000012
 30
0.0
 11
92.886499999999984
 21
43.0
 31
0.0
  0
LINE
  5
135F
  8
0
 10
92.886499999999984
 20
37.0
 30
0.0
 11
93.499999999999972
 21
37.613499999999988
 31
0.0
  0
LINE
  5
1360
  8
0
 10
93.499999999999972
 20
42.386500000000012
 30
0.0
 11
93.499999999999972
 21
37.613499999999988
 31
0.0
  0
LINE
  5
1361
  8
0
 10
85.599999999999994
 20
37.0
 30
0.0
 11
92.886499999999984
 21
37.0
 31
0.0
  0
LINE
  5
1362
  8
0
 10
92.886499999999984
 20
43.0
 30
0.0
 11
85.599999999999994
 21
43.0
 31
0.0
  0
LINE
  5
1363
  8
0
 10
92.886499999999984
 20
43.0
 30
0.0
 11
92.886499999999984
 21
37.0
 31
0.0
  0
LINE
  5
1364
  8
0
 10
85.599999999999994
 20
43.0
 30
0.0
 11
85.599999999999994
 21
37.0
 31
0.0
  0
LINE
  5
1365
  8
0
 10
83.232173123573602
 20
31.5
 30
0.0
 11
83.499999999999972
 21
31.5
 31
0.0
  0
LINE
  5
1366
  8
0
 10
83.499999999999972
 20
48.5
 30
0.0
 11
83.232173123573602
 21
48.5
 31
0.0
  0
LINE
  5
1367
  8
0
 10
83.499999999999972
 20
48.5
 30
0.0
 11
83.499999999999972
 21
31.5
 31
0.0
  0
POLYLINE
  5
1368
  8
0
 66
     1
 10
0.0
 20
0.0
 30
0.0
  0
VERTEX
  5
14E6
  8
0
 10
81.999999999999972
 20
45.599999999999987
 30
0.0
  0
VERTEX
  5
14E7
  8
0
 10
81.995917681673717
 20
45.52997582817261
 30
0.0
  0
VERTEX
  5
14E8
  8
0
 10
81.982001788028256
 20
45.454144185128257
 30
0.0
  0
VERTEX
  5
14E9
  8
0
 10
81.965308633588904
 20
45.398973868147863
 30
0.0
  0
VERTEX
  5
14EA
  8
0
 10
81.941721343135384
 20
45.342050418896321
 30
0.0
  0
VERTEX
  5
14EB
  8
0
 10
81.887426266471721
 20
45.250120542538703
 30
0.0
  0
VERTEX
  5
14EC
  8
0
 10
81.815738101441198
 20
45.167377958247577
 30
0.0
  0
VERTEX
  5
14ED
  8
0
 10
81.739843133146167
 20
45.105523868267248
 30
0.0
  0
VERTEX
  5
14EE
  8
0
 10
81.678018792494242
 20
45.068302522784698
 30
0.0
  0
VERTEX
  5
14EF
  8
0
 10
81.617701330495294
 20
45.040888087498949
 30
0.0
  0
VERTEX
  5
14F0
  8
0
 10
81.521378290102575
 20
45.012330028176621
 30
0.0
  0
VERTEX
  5
14F1
  8
0
 10
81.432701803947225
 20
45.000891836127572
 30
0.0
  0
VERTEX
  5
14F2
  8
0
 10
81.399999999999977
 20
45.0
 30
0.0
  0
SEQEND
  5
14F3
  8
0
  0
LINE
  5
1369
  8
0
 10
81.399999999999977
 20
45.0
 30
0.0
 11
79.839745962155604
 21
45.0
 31
0.0
  0
POLYLINE
  5
136A
  8
0
 66
     1
 10
0.0
 20
0.0
 30
0.0
  0
VERTEX
  5
14F4
  8
0
 10
81.399999999999977
 20
35.0
 30
0.0
  0
VERTEX
  5
14F5
  8
0
 10
81.491025546613727
 20
34.993139249542423
 30
0.0
  0
VERTEX
  5
14F6
  8
0
 10
81.590619513892506
 20
34.968914932941232
 30
0.0
  0
VERTEX
  5
14F7
  8
0
 10
81.696741633881558
 20
34.92148288823438
 30
0.0
  0
VERTEX
  5
14F8
  8
0
 10
81.752319453793461
 20
34.885623409794391
 30
0.0
  0
VERTEX
  5
14F9
  8
0
 10
81.807118199883234
 20
34.840743430267338
 30
0.0
  0
VERTEX
  5
14FA
  8
0
 10
81.877432970315226
 20
34.763397521807661
 30
0.0
  0
VERTEX
  5
14FB
  8
0
 10
81.932887585154958
 20
34.675736870200019
 30
0.0
  0
VERTEX
  5
14FC
  8
0
 10
81.958689822235471
 20
34.61873366889629
 30
0.0
  0
VERTEX
  5
14FD
  8
0
 10
81.977405381708792
 20
34.56310433830442
 30
0.0
  0
VERTEX
  5
14FE
  8
0
 10
81.994930926497446
 20
34.478017501729397
 30
0.0
  0
VERTEX
  5
14FF
  8
0
 10
81.999999999999972
 20
34.399999999999977
 30
0.0
  0
SEQEND
  5
1500
  8
0
  0
LINE
  5
136B
  8
0
 10
81.999999999999972
 20
34.399999999999977
 30
0.0
 11
81.999999999999972
 21
32.400657923214652
 31
0.0
  0
ARC
  5
136C
  8
0
 10
88.499999999999417
 20
40.000000000000732
 30
0.0
 40
9.9999999999990763
 50
121.7883306170507
 51
130.5416018735049
  0
ARC
  5
136D
  8
0
 10
88.499999999999986
 20
40.0
 30
0.0
 40
10.000000000000011
 50
150.0000000000004
 51
209.9999999999996
  0
ARC
  5
136E
  8
0
 10
88.499999999999915
 20
39.999999999999893
 30
0.0
 40
9.9999999999998685
 50
229.45839812649501
 51
238.21166938294741
  0
LINE
  5
136F
  8
0
 10
81.999999999999972
 20
47.599342076785348
 30
0.0
 11
81.999999999999972
 21
45.599999999999987
 31
0.0
  0
LINE
  5
1370
  8
0
 10
83.232173123573602
 20
48.5
 30
0.0
 11
83.232173123573602
 21
31.5
 31
0.0
  0
LINE
  5
1371
  8
0
 10
79.839745962155604
 20
35.0
 30
0.0
 11
81.399999999999977
 21
35.0
 31
0.0
  0
LINE
  5
1372
  8
3
 10
93.499999999999972
 20
42.386500000000012
 30
0.0
 11
84.537386829556496
 21
42.386500000000012
 31
0.0
  0
LINE
  5
1374
  8
3
 10
93.499999999999972
 20
37.613499999999988
 30
0.0
 11
84.537386829556496
 21
37.613499999999988
 31
0.0
  0
POLYLINE
  5
1383
  8
0
 66
     1
 10
0.0
 20
0.0
 30
0.0
  0
VERTEX
  5
1501
  8
0
 10
35.041169492713038
 20
45.0
 30
0.0
  0
VERTEX
  5
1502
  8
0
 10
34.920088488685451
 20
45.006860750457577
 30
0.0
  0
VERTEX
  5
1503
  8
0
 10
34.808791629474342
 20
45.031085067058768
 30
0.0
  0
VERTEX
  5
1504
  8
0
 10
34.715651454593122
 20
45.07851711176562
 30
0.0
  0
VERTEX
  5
1505
  8
0
 10
34.679106389523639
 20
45.114376590205602
 30
0.0
  0
VERTEX
  5
1506
  8
0
 10
34.653280925900788
 20
45.159256569732662
 30
0.0
  0
VERTEX
  5
1507
  8
0
 10
34.640932877568851
 20
45.236602478192339
 30
0.0
  0
VERTEX
  5
1508
  8
0
 10
34.659095895315033
 20
45.324263129800009
 30
0.0
  0
VERTEX
  5
1509
  8
0
 10
34.71834069545622
 20
45.436895661695608
 30
0.0
  0
VERTEX
  5
150A
  8
0
 10
34.785433384112139
 20
45.521982498270631
 30
0.0
  0
VERTEX
  5
150B
  8
0
 10
34.862880184383471
 20
45.599999999999987
 30
0.0
  0
SEQEND
  5
150C
  8
0
  0
ARC
  5
1384
  8
0
 10
40.0
 20
40.0
 30
0.0
 40
7.5993420767853248
 50
47.468508311790757
 51
132.5314916882092
  0
POLYLINE
  5
1385
  8
0
 66
     1
 10
0.0
 20
0.0
 30
0.0
  0
VERTEX
  5
150D
  8
0
 10
45.137119815616529
 20
45.599999999999987
 30
0.0
  0
VERTEX
  5
150E
  8
0
 10
45.207324717101613
 20
45.52997582817261
 30
0.0
  0
VERTEX
  5
150F
  8
0
 10
45.269536081721519
 20
45.454144185128257
 30
0.0
  0
VERTEX
  5
1510
  8
0
 10
45.33399272411242
 20
45.342050418896321
 30
0.0
  0
VERTEX
  5
1511
  8
0
 10
45.358180932692129
 20
45.250120542538703
 30
0.0
  0
VERTEX
  5
1512
  8
0
 10
45.349658672111048
 20
45.167377958247577
 30
0.0
  0
VERTEX
  5
1513
  8
0
 10
45.313558616039053
 20
45.105523868267248
 30
0.0
  0
VERTEX
  5
1514
  8
0
 10
45.269993997445447
 20
45.068302522784698
 30
0.0
  0
VERTEX
  5
1515
  8
0
 10
45.217605994423593
 20
45.040888087498949
 30
0.0
  0
VERTEX
  5
1516
  8
0
 10
45.116177114640713
 20
45.012330028176621
 30
0.0
  0
VERTEX
  5
1517
  8
0
 10
45.004435737565473
 20
45.000891836127572
 30
0.0
  0
VERTEX
  5
1518
  8
0
 10
44.95883050728699
 20
45.0
 30
0.0
  0
SEQEND
  5
1519
  8
0
  0
LINE
  5
1386
  8
0
 10
44.95883050728699
 20
45.0
 30
0.0
 11
35.041169492713038
 21
45.0
 31
0.0
  0
CIRCLE
  5
1387
  8
0
 10
40.0
 20
40.0
 30
0.0
 40
8.5000000000000018
  0
POLYLINE
  5
1388
  8
0
 66
     1
 10
0.0
 20
0.0
 30
0.0
  0
VERTEX
  5
151A
  8
0
 10
44.95883050728699
 20
35.0
 30
0.0
  0
VERTEX
  5
151B
  8
0
 10
45.079911511314577
 20
34.993139249542423
 30
0.0
  0
VERTEX
  5
151C
  8
0
 10
45.191208370525679
 20
34.968914932941232
 30
0.0
  0
VERTEX
  5
151D
  8
0
 10
45.284348545406878
 20
34.92148288823438
 30
0.0
  0
VERTEX
  5
151E
  8
0
 10
45.320893610476382
 20
34.885623409794391
 30
0.0
  0
VERTEX
  5
151F
  8
0
 10
45.346719074099241
 20
34.840743430267338
 30
0.0
  0
VERTEX
  5
1520
  8
0
 10
45.359067122431149
 20
34.763397521807661
 30
0.0
  0
VERTEX
  5
1521
  8
0
 10
45.340904104684959
 20
34.675736870200019
 30
0.0
  0
VERTEX
  5
1522
  8
0
 10
45.281659304543837
 20
34.56310433830442
 30
0.0
  0
VERTEX
  5
1523
  8
0
 10
45.214566615887883
 20
34.478017501729397
 30
0.0
  0
VERTEX
  5
1524
  8
0
 10
45.137119815616529
 20
34.399999999999977
 30
0.0
  0
SEQEND
  5
1525
  8
0
  0
ARC
  5
1389
  8
0
 10
40.000000000000021
 20
39.999999999999972
 30
0.0
 40
7.599342076785307
 50
227.4685083117906
 51
312.53149168820931
  0
POLYLINE
  5
138A
  8
0
 66
     1
 10
0.0
 20
0.0
 30
0.0
  0
VERTEX
  5
1526
  8
0
 10
34.862880184383499
 20
34.399999999999977
 30
0.0
  0
VERTEX
  5
1527
  8
0
 10
34.792675282898422
 20
34.47002417182739
 30
0.0
  0
VERTEX
  5
1528
  8
0
 10
34.730463918278481
 20
34.54585581487175
 30
0.0
  0
VERTEX
  5
1529
  8
0
 10
34.66600727588758
 20
34.657949581103679
 30
0.0
  0
VERTEX
  5
152A
  8
0
 10
34.641819067307893
 20
34.749879457461311
 30
0.0
  0
VERTEX
  5
152B
  8
0
 10
34.650341327888981
 20
34.832622041752451
 30
0.0
  0
VERTEX
  5
152C
  8
0
 10
34.686441383960982
 20
34.89447613173278
 30
0.0
  0
VERTEX
  5
152D
  8
0
 10
34.730006002554603
 20
34.931697477215288
 30
0.0
  0
VERTEX
  5
152E
  8
0
 10
34.782394005576442
 20
34.959111912501051
 30
0.0
  0
VERTEX
  5
152F
  8
0
 10
34.883822885359344
 20
34.987669971823379
 30
0.0
  0
VERTEX
  5
1530
  8
0
 10
34.995564262434577
 20
34.999108163872421
 30
0.0
  0
VERTEX
  5
1531
  8
0
 10
35.041169492713038
 20
35.0
 30
0.0
  0
SEQEND
  5
1532
  8
0
  0
LINE
  5
138B
  8
0
 10
35.041169492713038
 20
35.0
 30
0.0
 11
44.95883050728699
 21
35.0
 31
0.0
  0
LINE
  5
1390
  8
0
 10
84.0
 20
84.800000000000026
 30
0.0
 11
84.080384757729306
 21
84.800000000000026
 31
0.0
  0
LINE
  5
1391
  8
0
 10
84.080384757729306
 20
89.199999999999989
 30
0.0
 11
84.0
 21
89.199999999999989
 31
0.0
  0
ARC
  5
1393
  8
0
 10
84.080384757729306
 20
84.300000000000011
 30
0.0
 40
0.4999999999999992
 50
60.000000000000099
 51
90.0
  0
ARC
  5
1394
  8
0
 10
84.080384757729306
 20
89.699999999999974
 30
0.0
 40
0.4999999999999992
 50
270.0
 51
299.99999999999989
  0
ARC
  5
1396
  8
0
 10
84.0
 20
84.300000000000011
 30
0.0
 40
0.4999999999999983
 50
90.0
 51
180.0
  0
ARC
  5
1397
  8
0
 10
84.0
 20
89.699999999999974
 30
0.0
 40
0.4999999999999993
 50
180.0
 51
270.0
  0
LINE
  5
1399
  8
0
 10
84.330384757729306
 20
84.733012701892235
 30
0.0
 11
85.599999999999994
 21
84.0
 31
0.0
  0
LINE
  5
139A
  8
0
 10
85.599999999999994
 20
90.0
 30
0.0
 11
84.330384757729306
 21
89.266987298107779
 31
0.0
  0
LINE
  5
139B
  8
0
 10
93.499999999999986
 20
89.386499999999998
 30
0.0
 11
93.499999999999986
 21
84.613499999999988
 31
0.0
  0
LINE
  5
139C
  8
0
 10
93.499999999999986
 20
89.386499999999998
 30
0.0
 11
92.886499999999984
 21
90.0
 31
0.0
  0
LINE
  5
139D
  8
0
 10
92.886499999999984
 20
84.0
 30
0.0
 11
93.499999999999986
 21
84.613499999999988
 31
0.0
  0
LINE
  5
139E
  8
0
 10
92.886499999999984
 20
90.0
 30
0.0
 11
92.886499999999984
 21
84.0
 31
0.0
  0
LINE
  5
139F
  8
0
 10
85.599999999999994
 20
90.0
 30
0.0
 11
85.599999999999994
 21
84.0
 31
0.0
  0
LINE
  5
13A0
  8
0
 10
85.599999999999994
 20
84.0
 30
0.0
 11
92.886499999999984
 21
84.0
 31
0.0
  0
LINE
  5
13A1
  8
0
 10
92.886499999999984
 20
90.0
 30
0.0
 11
85.599999999999994
 21
90.0
 31
0.0
  0
LINE
  5
13A3
  8
0
 10
83.499999999999986
 20
95.5
 30
0.0
 11
83.499999999999986
 21
78.5
 31
0.0
  0
LINE
  5
13A4
  8
0
 10
83.232173123573617
 20
78.5
 30
0.0
 11
83.499999999999986
 21
78.5
 31
0.0
  0
LINE
  5
13A5
  8
0
 10
83.499999999999986
 20
95.5
 30
0.0
 11
83.232173123573617
 21
95.5
 31
0.0
  0
POLYLINE
  5
13A6
  8
0
 66
     1
 10
0.0
 20
0.0
 30
0.0
  0
VERTEX
  5
1533
  8
0
 10
81.400000000000006
 20
91.958830507286962
 30
0.0
  0
VERTEX
  5
1534
  8
0
 10
81.49102554661377
 20
92.079911511314549
 30
0.0
  0
VERTEX
  5
1535
  8
0
 10
81.590619513892506
 20
92.191208370525658
 30
0.0
  0
VERTEX
  5
1536
  8
0
 10
81.696741633881601
 20
92.284348545406885
 30
0.0
  0
VERTEX
  5
1537
  8
0
 10
81.752319453793461
 20
92.320893610476361
 30
0.0
  0
VERTEX
  5
1538
  8
0
 10
81.807118199883263
 20
92.346719074099212
 30
0.0
  0
VERTEX
  5
1539
  8
0
 10
81.877432970315255
 20
92.359067122431156
 30
0.0
  0
VERTEX
  5
153A
  8
0
 10
81.932887585154987
 20
92.340904104684967
 30
0.0
  0
VERTEX
  5
153B
  8
0
 10
81.958689822235471
 20
92.315374251770507
 30
0.0
  0
VERTEX
  5
153C
  8
0
 10
81.977405381708792
 20
92.281659304543794
 30
0.0
  0
VERTEX
  5
153D
  8
0
 10
81.99493092649746
 20
92.214566615887875
 30
0.0
  0
VERTEX
  5
153E
  8
0
 10
82.0
 20
92.137119815616529
 30
0.0
  0
SEQEND
  5
153F
  8
0
  0
LINE
  5
13A7
  8
0
 10
82.0
 20
92.137119815616529
 30
0.0
 11
82.0
 21
81.862880184383471
 31
0.0
  0
POLYLINE
  5
13A8
  8
0
 66
     1
 10
0.0
 20
0.0
 30
0.0
  0
VERTEX
  5
1540
  8
0
 10
82.0
 20
81.862880184383471
 30
0.0
  0
VERTEX
  5
1541
  8
0
 10
81.995917681673717
 20
81.792675282898387
 30
0.0
  0
VERTEX
  5
1542
  8
0
 10
81.982001788028256
 20
81.730463918278474
 30
0.0
  0
VERTEX
  5
1543
  8
0
 10
81.965308633588904
 20
81.694449850019936
 30
0.0
  0
VERTEX
  5
1544
  8
0
 10
81.941721343135413
 20
81.666007275887566
 30
0.0
  0
VERTEX
  5
1545
  8
0
 10
81.887426266471735
 20
81.641819067307893
 30
0.0
  0
VERTEX
  5
1546
  8
0
 10
81.815738101441198
 20
81.650341327888981
 30
0.0
  0
VERTEX
  5
1547
  8
0
 10
81.739843133146167
 20
81.686441383960954
 30
0.0
  0
VERTEX
  5
1548
  8
0
 10
81.678018792494242
 20
81.730006002554575
 30
0.0
  0
VERTEX
  5
1549
  8
0
 10
81.617701330495294
 20
81.782394005576407
 30
0.0
  0
VERTEX
  5
154A
  8
0
 10
81.521378290102575
 20
81.88382288535928
 30
0.0
  0
VERTEX
  5
154B
  8
0
 10
81.432701803947253
 20
81.995564262434556
 30
0.0
  0
VERTEX
  5
154C
  8
0
 10
81.399999999999977
 20
82.041169492712996
 30
0.0
  0
SEQEND
  5
154D
  8
0
  0
ARC
  5
13A9
  8
0
 10
88.499999999999986
 20
87.0
 30
0.0
 40
8.6602540378443873
 50
145.0685184046591
 51
214.93148159534081
  0
LINE
  5
13AA
  8
0
 10
83.232173123573617
 20
95.5
 30
0.0
 11
83.232173123573617
 21
78.5
 31
0.0
  0
ARC
  5
13AB
  8
0
 10
88.499999999999986
 20
87.0
 30
0.0
 40
10.0
 50
121.78833061705259
 51
238.21166938294741
  0
LINE
  5
13AC
  8
3
 10
93.499999999999986
 20
84.613499999999988
 30
0.0
 11
84.537386829556453
 21
84.613499999999988
 31
0.0
  0
LINE
  5
13AE
  8
3
 10
93.499999999999986
 20
89.386499999999998
 30
0.0
 11
84.537386829556539
 21
89.386499999999998
 31
0.0
  0
LINE
  5
1443
  8
1
 10
95.499999999999972
 20
40.0
 30
0.0
 11
76.5
 21
40.0
 31
0.0
  0
LINE
  5
144F
  8
1
 10
76.5
 20
87.0
 30
0.0
 11
95.5
 21
87.0
 31
0.0
  0
LINE
  5
1452
  8
1
 10
40.0
 20
50.5
 30
0.0
 11
40.0
 21
29.5
 31
0.0
  0
LINE
  5
1453
  8
1
 10
50.5
 20
40.0
 30
0.0
 11
29.5
 21
40.0
 31
0.0
  0
ENDSEC
  0
EOF
