  0
SECTION
  2
HEADER
  9
$ACADVER
  1
AC1009
  9
$INSBASE
 10
0.0
 20
0.0
 30
0.0
  9
$EXTMIN
 10
0.0
 20
-1.4802182810368341
 30
0.0
  9
$EXTMAX
 10
135.62257399241369
 20
36.397053605807493
 30
0.0
  9
$LIMMIN
 10
0.0
 20
0.0
  9
$LIMMAX
 10
375.0
 20
270.0
  9
$ORTHOMODE
 70
     1
  9
$REGENMODE
 70
     1
  9
$FILLMODE
 70
     1
  9
$QTEXTMODE
 70
     0
  9
$MIRRTEXT
 70
     0
  9
$DRAGMODE
 70
     2
  9
$LTSCALE
 40
10.0
  9
$OSMODE
 70
  3071
  9
$ATTMODE
 70
     1
  9
$TEXTSIZE
 40
2.0
  9
$TRACEWID
 40
0.05
  9
$TEXTSTYLE
  7
STANDARD
  9
$CLAYER
  8
0
  9
$CELTYPE
  6
BYLAYER
  9
$CECOLOR
 62
   256
  9
$DIMSCALE
 40
1.0
  9
$DIMASZ
 40
2.5
  9
$DIMEXO
 40
2.0
  9
$DIMDLI
 40
0.38
  9
$DIMRND
 40
0.0
  9
$DIMDLE
 40
0.0
  9
$DIMEXE
 40
2.0
  9
$DIMTP
 40
0.0
  9
$DIMTM
 40
0.0
  9
$DIMTXT
 40
3.0
  9
$DIMCEN
 40
0.09
  9
$DIMTSZ
 40
0.0
  9
$DIMTOL
 70
     0
  9
$DIMLIM
 70
     0
  9
$DIMTIH
 70
     0
  9
$DIMTOH
 70
     0
  9
$DIMSE1
 70
     0
  9
$DIMSE2
 70
     0
  9
$DIMTAD
 70
     1
  9
$DIMZIN
 70
     0
  9
$DIMBLK
  1

  9
$DIMASO
 70
     1
  9
$DIMSHO
 70
     0
  9
$DIMPOST
  1

  9
$DIMAPOST
  1

  9
$DIMALT
 70
     0
  9
$DIMALTD
 70
     2
  9
$DIMALTF
 40
25.399999999999999
  9
$DIMLFAC
 40
1.0
  9
$DIMTOFL
 70
     0
  9
$DIMTVP
 40
1.6000000000000001
  9
$DIMTIX
 70
     1
  9
$DIMSOXD
 70
     0
  9
$DIMSAH
 70
     0
  9
$DIMBLK1
  1

  9
$DIMBLK2
  1

  9
$DIMSTYLE
  2
STANDARD
  9
$DIMCLRD
 70
     0
  9
$DIMCLRE
 70
     0
  9
$DIMCLRT
 70
     0
  9
$DIMTFAC
 40
1.0
  9
$DIMGAP
 40
0.09
  9
$LUNITS
 70
     2
  9
$LUPREC
 70
     4
  9
$SKETCHINC
 40
0.1
  9
$FILLETRAD
 40
2.5
  9
$AUNITS
 70
     0
  9
$AUPREC
 70
     0
  9
$MENU
  1
E:\r13\win\SUPPORT\ACAD
  9
$ELEVATION
 40
0.0
  9
$PELEVATION
 40
0.0
  9
$THICKNESS
 40
0.0
  9
$LIMCHECK
 70
     0
  9
$BLIPMODE
 70
     0
  9
$CHAMFERA
 40
0.0
  9
$CHAMFERB
 40
0.0
  9
$SKPOLY
 70
     0
  9
$TDCREATE
 40
2448650.5678784722
  9
$TDUPDATE
 40
2456598.6926637152
  9
$TDINDWG
 40
0.0677840509
  9
$TDUSRTIMER
 40
0.0677840509
  9
$USRTIMER
 70
     1
  9
$ANGBASE
 50
0.0
  9
$ANGDIR
 70
     0
  9
$PDMODE
 70
     0
  9
$PDSIZE
 40
0.0
  9
$PLINEWID
 40
0.0
  9
$COORDS
 70
     1
  9
$SPLFRAME
 70
     0
  9
$SPLINETYPE
 70
     6
  9
$SPLINESEGS
 70
     8
  9
$ATTDIA
 70
     0
  9
$ATTREQ
 70
     1
  9
$HANDLING
 70
     1
  9
$HANDSEED
  5
81D
  9
$SURFTAB1
 70
     6
  9
$SURFTAB2
 70
     6
  9
$SURFTYPE
 70
     6
  9
$SURFU
 70
     6
  9
$SURFV
 70
     6
  9
$UCSNAME
  2

  9
$UCSORG
 10
0.0
 20
0.0
 30
0.0
  9
$UCSXDIR
 10
1.0
 20
0.0
 30
0.0
  9
$UCSYDIR
 10
0.0
 20
1.0
 30
0.0
  9
$PUCSNAME
  2

  9
$PUCSORG
 10
0.0
 20
0.0
 30
0.0
  9
$PUCSXDIR
 10
1.0
 20
0.0
 30
0.0
  9
$PUCSYDIR
 10
0.0
 20
1.0
 30
0.0
  9
$USERI1
 70
     0
  9
$USERI2
 70
     1
  9
$USERI3
 70
     1
  9
$USERI4
 70
     0
  9
$USERI5
 70
     0
  9
$USERR1
 40
0.0
  9
$USERR2
 40
0.0
  9
$USERR3
 40
0.0
  9
$USERR4
 40
0.0
  9
$USERR5
 40
0.0
  9
$WORLDVIEW
 70
     1
  9
$SHADEDGE
 70
     3
  9
$SHADEDIF
 70
    70
  9
$TILEMODE
 70
     1
  9
$MAXACTVP
 70
    16
  9
$PLIMCHECK
 70
     0
  9
$PEXTMIN
 10
1.0000000000000000E+020
 20
1.0000000000000000E+020
 30
1.0000000000000000E+020
  9
$PEXTMAX
 10
-1.0000000000000000E+020
 20
-1.0000000000000000E+020
 30
-1.0000000000000000E+020
  9
$PLIMMIN
 10
0.0
 20
0.0
  9
$PLIMMAX
 10
12.0
 20
9.0
  9
$UNITMODE
 70
     0
  9
$VISRETAIN
 70
     0
  9
$PLINEGEN
 70
     1
  9
$PSLTSCALE
 70
     0
  0
ENDSEC
  0
SECTION
  2
TABLES
  0
TABLE
  2
VPORT
 70
     1
  0
VPORT
  2
*ACTIVE
 70
     0
 10
0.0
 20
0.0
 11
1.0
 21
1.0
 12
187.49427839065231
 22
134.84202934784381
 13
0.0
 23
0.0
 14
10.0
 24
10.0
 15
10.0
 25
10.0
 16
0.0
 26
0.0
 36
1.0
 17
0.0
 27
0.0
 37
0.0
 40
275.78743625673241
 41
2.304913294797688
 42
50.0
 43
0.0
 44
0.0
 50
0.0
 51
0.0
 71
     0
 72
   500
 73
     1
 74
     0
 75
     0
 76
     0
 77
     0
 78
     2
  0
ENDTAB
  0
TABLE
  2
LTYPE
 70
     3
  0
LTYPE
  2
CONTINUOUS
 70
     0
  3
Solid Line
 72
    65
 73
     0
 40
0.0
  0
LTYPE
  2
CENTER
 70
     0
  3
____ _ ____ _ ____ _ ____ _ ____ _ ____ _ ____
 72
    65
 73
     4
 40
2.0
 49
1.25
 49
-0.25
 49
0.25
 49
-0.25
  0
LTYPE
  2
PHANTOM2
 70
     0
  3
___ _ _ ___ _ _ ___ _ _ ___ _ _
 72
    65
 73
     6
 40
1.25
 49
0.625
 49
-0.125
 49
0.125
 49
-0.125
 49
0.125
 49
-0.125
  0
ENDTAB
  0
TABLE
  2
LAYER
 70
     4
  0
LAYER
  2
0
 70
     0
 62
     7
  6
CONTINUOUS
  0
LAYER
  2
1
 70
     0
 62
     1
  6
CENTER
  0
LAYER
  2
3
 70
     0
 62
     3
  6
CONTINUOUS
  0
LAYER
  2
DEFPOINTS
 70
     0
 62
     7
  6
CONTINUOUS
  0
ENDTAB
  0
TABLE
  2
STYLE
 70
     2
  0
STYLE
  2
STANDARD
 70
     0
 40
0.0
 41
1.0
 50
0.0
 71
     0
 42
2.0
  3
TXT
  4
BIGFONT
  0
STYLE
  2
STANDARD1
 70
     0
 40
0.0
 41
1.0
 50
0.0
 71
     0
 42
3.0
  3
txt
  4

  0
ENDTAB
  0
TABLE
  2
VIEW
 70
     1
  0
VIEW
  2
ALL
 70
     0
 40
270.0
 10
220.99159663865549
 20
135.0
 41
0.0
 11
0.0
 21
0.0
 31
1.0
 12
0.0
 22
0.0
 32
0.0
 42
0.0
 43
0.0
 44
0.0
 50
0.0
 71
     0
  0
ENDTAB
  0
TABLE
  2
UCS
 70
     0
  0
ENDTAB
  0
TABLE
  2
APPID
 70
     3
  0
APPID
  2
ACAD
 70
     0
  0
APPID
  2
ACAD_MLEADERVER
 70
     0
  0
APPID
  2
ACAD_NAV_VCDISPLAY
 70
     0
  0
ENDTAB
  0
TABLE
  2
DIMSTYLE
 70
     1
  0
DIMSTYLE
  2
STANDARD
 70
     0
  3

  4

  5

  6

  7

 40
1.0
 41
0.18
 42
0.0625
 43
0.38
 44
0.18
 45
0.0
 46
0.0
 47
0.0
 48
0.0
140
0.18
141
0.09
142
0.0
143
25.399999999999999
144
1.0
145
0.0
146
1.0
147
0.09
 71
     0
 72
     0
 73
     1
 74
     1
 75
     0
 76
     0
 77
     0
 78
     0
170
     0
171
     2
172
     0
173
     0
174
     0
175
     0
176
     0
177
     0
178
     0
  0
ENDTAB
  0
ENDSEC
  0
SECTION
  2
BLOCKS
  0
BLOCK
  8
0
  2
$MODEL_SPACE
 70
     0
 10
0.0
 20
0.0
 30
0.0
  3
$MODEL_SPACE
  1

  0
ENDBLK
  5
217
  8
0
  0
BLOCK
 67
     1
  8
0
  2
$PAPER_SPACE
 70
     0
 10
0.0
 20
0.0
 30
0.0
  3
$PAPER_SPACE
  1

  0
ENDBLK
  5
215
 67
     1
  8
0
  0
ENDSEC
  0
SECTION
  2
ENTITIES
  0
LINE
  5
5DF
  8
1
 10
20.62257399241366
 20
10.39705360580748
 30
0.0
 11
20.62257399241366
 21
36.397053605807493
 31
0.0
  0
LINE
  5
5E0
  8
1
 10
7.6225739924136633
 20
23.397053605807489
 30
0.0
 11
33.62257399241367
 21
23.397053605807489
 31
0.0
  0
CIRCLE
  5
5E1
  8
0
 10
20.62257399241366
 20
23.397053605807489
 30
0.0
 40
8.0
  0
CIRCLE
  5
5E2
  8
3
 10
20.62257399241366
 20
23.397053605807489
 30
0.0
 40
6.9174999999999889
  0
LINE
  5
5E3
  8
0
 10
80.622573992413734
 20
16.497053605807391
 30
0.0
 11
82.62257399241372
 21
16.497053605807391
 31
0.0
  0
LINE
  5
5E4
  8
0
 10
80.622573992413734
 20
16.697053605807401
 30
0.0
 11
82.62257399241372
 21
16.697053605807401
 31
0.0
  0
LINE
  5
5E5
  8
0
 10
80.622573992413734
 20
23.297053605807491
 30
0.0
 11
82.62257399241372
 21
23.297053605807491
 31
0.0
  0
LINE
  5
5E6
  8
0
 10
80.622573992413734
 20
23.097053605807488
 30
0.0
 11
82.62257399241372
 21
23.097053605807488
 31
0.0
  0
LINE
  5
5E7
  8
0
 10
80.622573992413734
 20
22.897053605807479
 30
0.0
 11
82.62257399241372
 21
22.897053605807479
 31
0.0
  0
LINE
  5
5E8
  8
0
 10
80.622573992413734
 20
22.697053605807479
 30
0.0
 11
82.62257399241372
 21
22.697053605807479
 31
0.0
  0
LINE
  5
5E9
  8
0
 10
80.622573992413734
 20
22.49705360580748
 30
0.0
 11
82.62257399241372
 21
22.49705360580748
 31
0.0
  0
LINE
  5
5EA
  8
0
 10
80.622573992413734
 20
21.697053605807469
 30
0.0
 11
82.62257399241372
 21
21.697053605807469
 31
0.0
  0
LINE
  5
5EB
  8
0
 10
80.622573992413734
 20
21.897053605807471
 30
0.0
 11
82.62257399241372
 21
21.897053605807471
 31
0.0
  0
LINE
  5
5EC
  8
0
 10
80.622573992413734
 20
22.097053605807471
 30
0.0
 11
82.62257399241372
 21
22.097053605807471
 31
0.0
  0
LINE
  5
5ED
  8
0
 10
80.622573992413734
 20
22.297053605807481
 30
0.0
 11
82.62257399241372
 21
22.297053605807481
 31
0.0
  0
LINE
  5
5EE
  8
0
 10
80.622573992413734
 20
20.697053605807461
 30
0.0
 11
82.62257399241372
 21
20.697053605807461
 31
0.0
  0
LINE
  5
5EF
  8
0
 10
80.622573992413734
 20
20.497053605807452
 30
0.0
 11
82.62257399241372
 21
20.497053605807452
 31
0.0
  0
LINE
  5
5F0
  8
0
 10
80.622573992413734
 20
20.297053605807449
 30
0.0
 11
82.62257399241372
 21
20.297053605807449
 31
0.0
  0
LINE
  5
5F1
  8
0
 10
80.622573992413734
 20
20.097053605807449
 30
0.0
 11
82.62257399241372
 21
20.097053605807449
 31
0.0
  0
LINE
  5
5F2
  8
0
 10
80.622573992413734
 20
20.897053605807461
 30
0.0
 11
82.62257399241372
 21
20.897053605807461
 31
0.0
  0
LINE
  5
5F3
  8
0
 10
80.622573992413734
 20
21.09705360580746
 30
0.0
 11
82.62257399241372
 21
21.09705360580746
 31
0.0
  0
LINE
  5
5F4
  8
0
 10
80.622573992413734
 20
21.297053605807459
 30
0.0
 11
82.62257399241372
 21
21.297053605807459
 31
0.0
  0
LINE
  5
5F5
  8
0
 10
80.622573992413734
 20
21.497053605807469
 30
0.0
 11
82.62257399241372
 21
21.497053605807469
 31
0.0
  0
LINE
  5
5F6
  8
0
 10
80.622573992413734
 20
19.49705360580743
 30
0.0
 11
82.62257399241372
 21
19.49705360580743
 31
0.0
  0
LINE
  5
5F7
  8
0
 10
80.622573992413734
 20
19.297053605807431
 30
0.0
 11
82.62257399241372
 21
19.297053605807431
 31
0.0
  0
LINE
  5
5F8
  8
0
 10
80.622573992413734
 20
19.097053605807432
 30
0.0
 11
82.62257399241372
 21
19.097053605807432
 31
0.0
  0
LINE
  5
5F9
  8
0
 10
80.622573992413734
 20
18.897053605807429
 30
0.0
 11
82.62257399241372
 21
18.897053605807429
 31
0.0
  0
LINE
  5
5FA
  8
0
 10
80.622573992413734
 20
18.097053605807421
 30
0.0
 11
82.62257399241372
 21
18.097053605807421
 31
0.0
  0
LINE
  5
5FB
  8
0
 10
80.622573992413734
 20
18.29705360580742
 30
0.0
 11
82.62257399241372
 21
18.29705360580742
 31
0.0
  0
LINE
  5
5FC
  8
0
 10
80.622573992413734
 20
18.49705360580742
 30
0.0
 11
82.62257399241372
 21
18.49705360580742
 31
0.0
  0
LINE
  5
5FD
  8
0
 10
80.622573992413734
 20
18.697053605807419
 30
0.0
 11
82.62257399241372
 21
18.697053605807419
 31
0.0
  0
LINE
  5
5FE
  8
0
 10
80.622573992413734
 20
19.897053605807439
 30
0.0
 11
82.62257399241372
 21
19.897053605807439
 31
0.0
  0
LINE
  5
5FF
  8
0
 10
80.622573992413734
 20
19.69705360580744
 30
0.0
 11
82.62257399241372
 21
19.69705360580744
 31
0.0
  0
LINE
  5
600
  8
0
 10
80.622573992413734
 20
17.497053605807409
 30
0.0
 11
82.62257399241372
 21
17.497053605807409
 31
0.0
  0
LINE
  5
601
  8
0
 10
80.622573992413734
 20
17.297053605807399
 30
0.0
 11
82.62257399241372
 21
17.297053605807399
 31
0.0
  0
LINE
  5
602
  8
0
 10
80.622573992413734
 20
17.0970536058074
 30
0.0
 11
82.62257399241372
 21
17.0970536058074
 31
0.0
  0
LINE
  5
603
  8
0
 10
80.622573992413734
 20
16.8970536058074
 30
0.0
 11
82.62257399241372
 21
16.8970536058074
 31
0.0
  0
LINE
  5
604
  8
0
 10
80.622573992413734
 20
17.697053605807412
 30
0.0
 11
82.62257399241372
 21
17.697053605807412
 31
0.0
  0
LINE
  5
605
  8
0
 10
80.622573992413734
 20
17.897053605807411
 30
0.0
 11
82.62257399241372
 21
17.897053605807411
 31
0.0
  0
LINE
  5
606
  8
0
 10
80.622573992413734
 20
30.29705360580758
 30
0.0
 11
82.62257399241372
 21
30.29705360580758
 31
0.0
  0
LINE
  5
607
  8
0
 10
80.622573992413734
 20
30.09705360580757
 30
0.0
 11
82.62257399241372
 21
30.09705360580757
 31
0.0
  0
LINE
  5
608
  8
0
 10
80.622573992413734
 20
28.89705360580756
 30
0.0
 11
82.62257399241372
 21
28.89705360580756
 31
0.0
  0
LINE
  5
609
  8
0
 10
80.622573992413734
 20
29.09705360580756
 30
0.0
 11
82.62257399241372
 21
29.09705360580756
 31
0.0
  0
LINE
  5
60A
  8
0
 10
80.622573992413734
 20
29.897053605807571
 30
0.0
 11
82.62257399241372
 21
29.897053605807571
 31
0.0
  0
LINE
  5
60B
  8
0
 10
80.622573992413734
 20
29.697053605807572
 30
0.0
 11
82.62257399241372
 21
29.697053605807572
 31
0.0
  0
LINE
  5
60C
  8
0
 10
80.622573992413734
 20
29.497053605807569
 30
0.0
 11
82.62257399241372
 21
29.497053605807569
 31
0.0
  0
LINE
  5
60D
  8
0
 10
80.622573992413734
 20
29.297053605807559
 30
0.0
 11
82.62257399241372
 21
29.297053605807559
 31
0.0
  0
LINE
  5
60E
  8
0
 10
80.622573992413734
 20
27.097053605807531
 30
0.0
 11
82.62257399241372
 21
27.097053605807531
 31
0.0
  0
LINE
  5
60F
  8
0
 10
80.622573992413734
 20
26.897053605807528
 30
0.0
 11
82.62257399241372
 21
26.897053605807528
 31
0.0
  0
LINE
  5
610
  8
0
 10
80.622573992413734
 20
28.097053605807549
 30
0.0
 11
82.62257399241372
 21
28.097053605807549
 31
0.0
  0
LINE
  5
611
  8
0
 10
80.622573992413734
 20
28.297053605807552
 30
0.0
 11
82.62257399241372
 21
28.297053605807552
 31
0.0
  0
LINE
  5
612
  8
0
 10
80.622573992413734
 20
28.497053605807551
 30
0.0
 11
82.62257399241372
 21
28.497053605807551
 31
0.0
  0
LINE
  5
613
  8
0
 10
80.622573992413734
 20
28.697053605807561
 30
0.0
 11
82.62257399241372
 21
28.697053605807561
 31
0.0
  0
LINE
  5
614
  8
0
 10
80.622573992413734
 20
27.897053605807539
 30
0.0
 11
82.62257399241372
 21
27.897053605807539
 31
0.0
  0
LINE
  5
615
  8
0
 10
80.622573992413734
 20
27.69705360580754
 30
0.0
 11
82.62257399241372
 21
27.69705360580754
 31
0.0
  0
LINE
  5
616
  8
0
 10
80.622573992413734
 20
27.49705360580754
 30
0.0
 11
82.62257399241372
 21
27.49705360580754
 31
0.0
  0
LINE
  5
617
  8
0
 10
80.622573992413734
 20
27.297053605807541
 30
0.0
 11
82.62257399241372
 21
27.297053605807541
 31
0.0
  0
LINE
  5
618
  8
0
 10
80.622573992413734
 20
25.297053605807509
 30
0.0
 11
82.62257399241372
 21
25.297053605807509
 31
0.0
  0
LINE
  5
619
  8
0
 10
80.622573992413734
 20
25.497053605807508
 30
0.0
 11
82.62257399241372
 21
25.497053605807508
 31
0.0
  0
LINE
  5
61A
  8
0
 10
80.622573992413734
 20
25.697053605807511
 30
0.0
 11
82.62257399241372
 21
25.697053605807511
 31
0.0
  0
LINE
  5
61B
  8
0
 10
80.622573992413734
 20
25.89705360580751
 30
0.0
 11
82.62257399241372
 21
25.89705360580751
 31
0.0
  0
LINE
  5
61C
  8
0
 10
80.622573992413734
 20
26.697053605807529
 30
0.0
 11
82.62257399241372
 21
26.697053605807529
 31
0.0
  0
LINE
  5
61D
  8
0
 10
80.622573992413734
 20
26.497053605807519
 30
0.0
 11
82.62257399241372
 21
26.497053605807519
 31
0.0
  0
LINE
  5
61E
  8
0
 10
80.622573992413734
 20
26.29705360580752
 30
0.0
 11
82.62257399241372
 21
26.29705360580752
 31
0.0
  0
LINE
  5
61F
  8
0
 10
80.622573992413734
 20
26.09705360580752
 30
0.0
 11
82.62257399241372
 21
26.09705360580752
 31
0.0
  0
LINE
  5
620
  8
0
 10
80.622573992413734
 20
24.497053605807491
 30
0.0
 11
82.62257399241372
 21
24.497053605807491
 31
0.0
  0
LINE
  5
621
  8
0
 10
80.622573992413734
 20
24.697053605807501
 30
0.0
 11
82.62257399241372
 21
24.697053605807501
 31
0.0
  0
LINE
  5
622
  8
0
 10
80.622573992413734
 20
24.8970536058075
 30
0.0
 11
82.62257399241372
 21
24.8970536058075
 31
0.0
  0
LINE
  5
623
  8
0
 10
80.622573992413734
 20
25.097053605807499
 30
0.0
 11
82.62257399241372
 21
25.097053605807499
 31
0.0
  0
LINE
  5
624
  8
0
 10
80.622573992413734
 20
24.297053605807491
 30
0.0
 11
82.62257399241372
 21
24.297053605807491
 31
0.0
  0
LINE
  5
625
  8
0
 10
80.622573992413734
 20
24.097053605807488
 30
0.0
 11
82.62257399241372
 21
24.097053605807488
 31
0.0
  0
LINE
  5
626
  8
0
 10
80.622573992413734
 20
23.897053605807489
 30
0.0
 11
82.62257399241372
 21
23.897053605807489
 31
0.0
  0
LINE
  5
627
  8
0
 10
80.622573992413734
 20
23.697053605807479
 30
0.0
 11
82.62257399241372
 21
23.697053605807479
 31
0.0
  0
LINE
  5
628
  8
0
 10
80.622573992413734
 20
23.49705360580748
 30
0.0
 11
82.62257399241372
 21
23.49705360580748
 31
0.0
  0
LINE
  5
629
  8
0
 10
60.622573992413827
 20
15.39705360580748
 30
0.0
 11
60.622573992413663
 21
31.397053605807489
 31
0.0
  0
LINE
  5
62A
  8
0
 10
58.622573992413777
 20
17.397053605807479
 30
0.0
 11
60.622573992413827
 21
15.39705360580748
 31
0.0
  0
LINE
  5
62B
  8
0
 10
60.622573992413663
 20
31.397053605807489
 30
0.0
 11
58.622573992413663
 21
29.397053605807489
 31
0.0
  0
LINE
  5
62C
  8
0
 10
58.622573992413663
 20
29.397053605807489
 30
0.0
 11
58.622573992413777
 21
17.397053605807479
 31
0.0
  0
LINE
  5
62D
  8
3
 10
59.540073992413681
 20
30.31455360580749
 30
0.0
 11
80.622573992413734
 21
30.314553605807522
 31
0.0
  0
LINE
  5
62E
  8
3
 10
59.540073992413802
 20
16.479553605807439
 30
0.0
 11
80.622573992413734
 21
16.479553605807439
 31
0.0
  0
LINE
  5
62F
  8
0
 10
130.62257399241369
 20
29.397053605807489
 30
0.0
 11
130.62257399241361
 21
17.397053605807479
 31
0.0
  0
LINE
  5
630
  8
0
 10
128.62257399241369
 20
31.397053605807489
 30
0.0
 11
130.62257399241369
 21
29.397053605807489
 31
0.0
  0
LINE
  5
631
  8
0
 10
130.62257399241361
 20
17.397053605807479
 30
0.0
 11
128.62257399241361
 21
15.39705360580748
 31
0.0
  0
LINE
  5
632
  8
0
 10
128.62257399241361
 20
15.39705360580748
 30
0.0
 11
128.62257399241369
 21
31.397053605807489
 31
0.0
  0
LINE
  5
633
  8
1
 10
53.622573992413663
 20
23.397053605807489
 30
0.0
 11
135.62257399241369
 21
23.397053605807489
 31
0.0
  0
LINE
  5
636
  8
0
 10
80.622573992413734
 20
15.39705360580748
 30
0.0
 11
80.622573992413734
 21
31.397053605807489
 31
0.0
  0
LINE
  5
637
  8
0
 10
82.62257399241372
 20
31.397053605807489
 30
0.0
 11
82.62257399241372
 21
15.39705360580748
 31
0.0
  0
LINE
  5
638
  8
0
 10
60.622573992413827
 20
15.3970536058075
 30
0.0
 11
128.62257399241361
 21
15.39705360580747
 31
0.0
  0
LINE
  5
639
  8
0
 10
128.62257399241369
 20
31.397053605807471
 30
0.0
 11
60.62257399241367
 21
31.397053605807489
 31
0.0
  0
LINE
  5
655
  8
3
 10
82.62257399241372
 20
30.314553605807522
 30
0.0
 11
129.7050739924137
 21
30.314553605807561
 31
0.0
  0
LINE
  5
656
  8
3
 10
82.622573992413734
 20
16.479553605807439
 30
0.0
 11
129.7050739924135
 21
16.479553605807439
 31
0.0
  0
LINE
  5
65B
  8
0
 10
80.622573992413734
 20
30.497053605807579
 30
0.0
 11
82.62257399241372
 21
30.497053605807579
 31
0.0
  0
LINE
  5
65C
  8
0
 10
80.622573992413734
 20
30.697053605807579
 30
0.0
 11
82.62257399241372
 21
30.697053605807579
 31
0.0
  0
LINE
  5
65D
  8
0
 10
80.622573992413734
 20
30.897053605807582
 30
0.0
 11
82.62257399241372
 21
30.897053605807582
 31
0.0
  0
LINE
  5
65E
  8
0
 10
80.622573992413734
 20
31.097053605807591
 30
0.0
 11
82.62257399241372
 21
31.097053605807591
 31
0.0
  0
LINE
  5
65F
  8
0
 10
80.622573992413734
 20
31.297053605807591
 30
0.0
 11
82.62257399241372
 21
31.297053605807591
 31
0.0
  0
LINE
  5
660
  8
0
 10
80.622573992413734
 20
15.897053605807381
 30
0.0
 11
82.62257399241372
 21
15.897053605807381
 31
0.0
  0
LINE
  5
661
  8
0
 10
80.622573992413734
 20
16.097053605807389
 30
0.0
 11
82.62257399241372
 21
16.097053605807389
 31
0.0
  0
LINE
  5
662
  8
0
 10
80.622573992413734
 20
16.297053605807388
 30
0.0
 11
82.62257399241372
 21
16.297053605807388
 31
0.0
  0
LINE
  5
663
  8
0
 10
80.622573992413734
 20
15.69705360580738
 30
0.0
 11
82.62257399241372
 21
15.69705360580738
 31
0.0
  0
LINE
  5
664
  8
0
 10
80.622573992413734
 20
15.49705360580738
 30
0.0
 11
82.62257399241372
 21
15.49705360580738
 31
0.0
  0
TEXT
  5
788
  8
0
 62
     3
 10
0.0
 20
0.0
 30
0.0
 40
5.0
  1
GS16050-SUS
  7
STANDARD1
  0
ENDSEC
  0
EOF
