  0
SECTION
  2
HEADER
  9
$ACADVER
  1
AC1009
  9
$INSBASE
 10
0.0
 20
0.0
 30
0.0
  9
$EXTMIN
 10
0.0
 20
-1.4802182810368341
 30
0.0
  9
$EXTMAX
 10
139.87125626702459
 20
29.349523681262909
 30
0.0
  9
$LIMMIN
 10
0.0
 20
0.0
  9
$LIMMAX
 10
375.0
 20
270.0
  9
$ORTHOMODE
 70
     1
  9
$REGENMODE
 70
     1
  9
$FILLMODE
 70
     1
  9
$QTEXTMODE
 70
     0
  9
$MIRRTEXT
 70
     0
  9
$DRAGMODE
 70
     2
  9
$LTSCALE
 40
10.0
  9
$OSMODE
 70
  3071
  9
$ATTMODE
 70
     1
  9
$TEXTSIZE
 40
2.0
  9
$TRACEWID
 40
0.05
  9
$TEXTSTYLE
  7
STANDARD
  9
$CLAYER
  8
0
  9
$CELTYPE
  6
BYLAYER
  9
$CECOLOR
 62
   256
  9
$DIMSCALE
 40
1.0
  9
$DIMASZ
 40
2.5
  9
$DIMEXO
 40
2.0
  9
$DIMDLI
 40
0.38
  9
$DIMRND
 40
0.0
  9
$DIMDLE
 40
0.0
  9
$DIMEXE
 40
2.0
  9
$DIMTP
 40
0.0
  9
$DIMTM
 40
0.0
  9
$DIMTXT
 40
3.0
  9
$DIMCEN
 40
0.09
  9
$DIMTSZ
 40
0.0
  9
$DIMTOL
 70
     0
  9
$DIMLIM
 70
     0
  9
$DIMTIH
 70
     0
  9
$DIMTOH
 70
     0
  9
$DIMSE1
 70
     0
  9
$DIMSE2
 70
     0
  9
$DIMTAD
 70
     1
  9
$DIMZIN
 70
     0
  9
$DIMBLK
  1

  9
$DIMASO
 70
     1
  9
$DIMSHO
 70
     0
  9
$DIMPOST
  1

  9
$DIMAPOST
  1

  9
$DIMALT
 70
     0
  9
$DIMALTD
 70
     2
  9
$DIMALTF
 40
25.399999999999999
  9
$DIMLFAC
 40
1.0
  9
$DIMTOFL
 70
     0
  9
$DIMTVP
 40
1.6000000000000001
  9
$DIMTIX
 70
     1
  9
$DIMSOXD
 70
     0
  9
$DIMSAH
 70
     0
  9
$DIMBLK1
  1

  9
$DIMBLK2
  1

  9
$DIMSTYLE
  2
STANDARD
  9
$DIMCLRD
 70
     0
  9
$DIMCLRE
 70
     0
  9
$DIMCLRT
 70
     0
  9
$DIMTFAC
 40
1.0
  9
$DIMGAP
 40
0.09
  9
$LUNITS
 70
     2
  9
$LUPREC
 70
     4
  9
$SKETCHINC
 40
0.1
  9
$FILLETRAD
 40
2.5
  9
$AUNITS
 70
     0
  9
$AUPREC
 70
     0
  9
$MENU
  1
E:\r13\win\SUPPORT\ACAD
  9
$ELEVATION
 40
0.0
  9
$PELEVATION
 40
0.0
  9
$THICKNESS
 40
0.0
  9
$LIMCHECK
 70
     0
  9
$BLIPMODE
 70
     0
  9
$CHAMFERA
 40
0.0
  9
$CHAMFERB
 40
0.0
  9
$SKPOLY
 70
     0
  9
$TDCREATE
 40
2448650.5678784722
  9
$TDUPDATE
 40
2456598.6925336691
  9
$TDINDWG
 40
0.0714681713
  9
$TDUSRTIMER
 40
0.0714681713
  9
$USRTIMER
 70
     1
  9
$ANGBASE
 50
0.0
  9
$ANGDIR
 70
     0
  9
$PDMODE
 70
     0
  9
$PDSIZE
 40
0.0
  9
$PLINEWID
 40
0.0
  9
$COORDS
 70
     1
  9
$SPLFRAME
 70
     0
  9
$SPLINETYPE
 70
     6
  9
$SPLINESEGS
 70
     8
  9
$ATTDIA
 70
     0
  9
$ATTREQ
 70
     1
  9
$HANDLING
 70
     1
  9
$HANDSEED
  5
7E3
  9
$SURFTAB1
 70
     6
  9
$SURFTAB2
 70
     6
  9
$SURFTYPE
 70
     6
  9
$SURFU
 70
     6
  9
$SURFV
 70
     6
  9
$UCSNAME
  2

  9
$UCSORG
 10
0.0
 20
0.0
 30
0.0
  9
$UCSXDIR
 10
1.0
 20
0.0
 30
0.0
  9
$UCSYDIR
 10
0.0
 20
1.0
 30
0.0
  9
$PUCSNAME
  2

  9
$PUCSORG
 10
0.0
 20
0.0
 30
0.0
  9
$PUCSXDIR
 10
1.0
 20
0.0
 30
0.0
  9
$PUCSYDIR
 10
0.0
 20
1.0
 30
0.0
  9
$USERI1
 70
     0
  9
$USERI2
 70
     1
  9
$USERI3
 70
     1
  9
$USERI4
 70
     0
  9
$USERI5
 70
     0
  9
$USERR1
 40
0.0
  9
$USERR2
 40
0.0
  9
$USERR3
 40
0.0
  9
$USERR4
 40
0.0
  9
$USERR5
 40
0.0
  9
$WORLDVIEW
 70
     1
  9
$SHADEDGE
 70
     3
  9
$SHADEDIF
 70
    70
  9
$TILEMODE
 70
     1
  9
$MAXACTVP
 70
    16
  9
$PLIMCHECK
 70
     0
  9
$PEXTMIN
 10
1.0000000000000000E+020
 20
1.0000000000000000E+020
 30
1.0000000000000000E+020
  9
$PEXTMAX
 10
-1.0000000000000000E+020
 20
-1.0000000000000000E+020
 30
-1.0000000000000000E+020
  9
$PLIMMIN
 10
0.0
 20
0.0
  9
$PLIMMAX
 10
12.0
 20
9.0
  9
$UNITMODE
 70
     0
  9
$VISRETAIN
 70
     0
  9
$PLINEGEN
 70
     1
  9
$PSLTSCALE
 70
     0
  0
ENDSEC
  0
SECTION
  2
TABLES
  0
TABLE
  2
VPORT
 70
     1
  0
VPORT
  2
*ACTIVE
 70
     0
 10
0.0
 20
0.0
 11
1.0
 21
1.0
 12
187.49427839065231
 22
134.84202934784381
 13
0.0
 23
0.0
 14
10.0
 24
10.0
 15
10.0
 25
10.0
 16
0.0
 26
0.0
 36
1.0
 17
0.0
 27
0.0
 37
0.0
 40
275.78743625673241
 41
2.304913294797688
 42
50.0
 43
0.0
 44
0.0
 50
0.0
 51
0.0
 71
     0
 72
   500
 73
     1
 74
     0
 75
     0
 76
     0
 77
     0
 78
     2
  0
ENDTAB
  0
TABLE
  2
LTYPE
 70
     3
  0
LTYPE
  2
CONTINUOUS
 70
     0
  3
Solid Line
 72
    65
 73
     0
 40
0.0
  0
LTYPE
  2
CENTER
 70
     0
  3
____ _ ____ _ ____ _ ____ _ ____ _ ____ _ ____
 72
    65
 73
     4
 40
2.0
 49
1.25
 49
-0.25
 49
0.25
 49
-0.25
  0
LTYPE
  2
PHANTOM2
 70
     0
  3
___ _ _ ___ _ _ ___ _ _ ___ _ _
 72
    65
 73
     6
 40
1.25
 49
0.625
 49
-0.125
 49
0.125
 49
-0.125
 49
0.125
 49
-0.125
  0
ENDTAB
  0
TABLE
  2
LAYER
 70
     3
  0
LAYER
  2
0
 70
     0
 62
     7
  6
CONTINUOUS
  0
LAYER
  2
1
 70
     0
 62
     1
  6
CENTER
  0
LAYER
  2
3
 70
     0
 62
     3
  6
CONTINUOUS
  0
ENDTAB
  0
TABLE
  2
STYLE
 70
     2
  0
STYLE
  2
STANDARD
 70
     0
 40
0.0
 41
1.0
 50
0.0
 71
     0
 42
2.0
  3
TXT
  4
BIGFONT
  0
STYLE
  2
STANDARD1
 70
     0
 40
0.0
 41
1.0
 50
0.0
 71
     0
 42
3.0
  3
txt
  4

  0
ENDTAB
  0
TABLE
  2
VIEW
 70
     1
  0
VIEW
  2
ALL
 70
     0
 40
270.0
 10
220.99159663865549
 20
135.0
 41
0.0
 11
0.0
 21
0.0
 31
1.0
 12
0.0
 22
0.0
 32
0.0
 42
0.0
 43
0.0
 44
0.0
 50
0.0
 71
     0
  0
ENDTAB
  0
TABLE
  2
UCS
 70
     0
  0
ENDTAB
  0
TABLE
  2
APPID
 70
     3
  0
APPID
  2
ACAD
 70
     0
  0
APPID
  2
ACAD_MLEADERVER
 70
     0
  0
APPID
  2
ACAD_NAV_VCDISPLAY
 70
     0
  0
ENDTAB
  0
TABLE
  2
DIMSTYLE
 70
     1
  0
DIMSTYLE
  2
STANDARD
 70
     0
  3

  4

  5

  6

  7

 40
1.0
 41
0.18
 42
0.0625
 43
0.38
 44
0.18
 45
0.0
 46
0.0
 47
0.0
 48
0.0
140
0.18
141
0.09
142
0.0
143
25.399999999999999
144
1.0
145
0.0
146
1.0
147
0.09
 71
     0
 72
     0
 73
     1
 74
     1
 75
     0
 76
     0
 77
     0
 78
     0
170
     0
171
     2
172
     0
173
     0
174
     0
175
     0
176
     0
177
     0
178
     0
  0
ENDTAB
  0
ENDSEC
  0
SECTION
  2
BLOCKS
  0
BLOCK
  8
0
  2
$MODEL_SPACE
 70
     0
 10
0.0
 20
0.0
 30
0.0
  3
$MODEL_SPACE
  1

  0
ENDBLK
  5
217
  8
0
  0
BLOCK
 67
     1
  8
0
  2
$PAPER_SPACE
 70
     0
 10
0.0
 20
0.0
 30
0.0
  3
$PAPER_SPACE
  1

  0
ENDBLK
  5
215
 67
     1
  8
0
  0
ENDSEC
  0
SECTION
  2
ENTITIES
  0
LINE
  5
5C6
  8
0
 10
54.871256267024542
 20
19.249523681262939
 30
0.0
 11
56.871256267024528
 21
19.249523681262939
 31
0.0
  0
LINE
  5
5C7
  8
0
 10
54.871256267024542
 20
19.049523681262951
 30
0.0
 11
56.871256267024528
 21
19.049523681262951
 31
0.0
  0
LINE
  5
5C8
  8
0
 10
54.871256267024542
 20
18.849523681262959
 30
0.0
 11
56.871256267024528
 21
18.849523681262959
 31
0.0
  0
LINE
  5
5C9
  8
0
 10
54.871256267024542
 20
18.649523681262981
 30
0.0
 11
56.871256267024528
 21
18.649523681262981
 31
0.0
  0
LINE
  5
5CA
  8
0
 10
54.871256267024542
 20
18.449523681262988
 30
0.0
 11
56.871256267024528
 21
18.449523681262988
 31
0.0
  0
LINE
  5
5CB
  8
0
 10
54.871256267024542
 20
17.64952368126303
 30
0.0
 11
56.871256267024528
 21
17.64952368126303
 31
0.0
  0
LINE
  5
5CC
  8
0
 10
54.871256267024542
 20
17.849523681263019
 30
0.0
 11
56.871256267024528
 21
17.849523681263019
 31
0.0
  0
LINE
  5
5CD
  8
0
 10
54.871256267024542
 20
18.049523681263011
 30
0.0
 11
56.871256267024528
 21
18.049523681263011
 31
0.0
  0
LINE
  5
5CE
  8
0
 10
54.871256267024542
 20
18.249523681263
 30
0.0
 11
56.871256267024528
 21
18.249523681263
 31
0.0
  0
LINE
  5
5CF
  8
0
 10
54.871256267024542
 20
16.649523681263091
 30
0.0
 11
56.871256267024528
 21
16.649523681263091
 31
0.0
  0
LINE
  5
5D0
  8
0
 10
54.871256267024542
 20
16.449523681263098
 30
0.0
 11
56.871256267024528
 21
16.449523681263098
 31
0.0
  0
LINE
  5
5D1
  8
0
 10
54.871256267024542
 20
16.24952368126311
 30
0.0
 11
56.871256267024528
 21
16.24952368126311
 31
0.0
  0
LINE
  5
5D2
  8
0
 10
54.871256267024542
 20
16.049523681263121
 30
0.0
 11
56.871256267024528
 21
16.049523681263121
 31
0.0
  0
LINE
  5
5D3
  8
0
 10
54.871256267024542
 20
16.849523681263079
 30
0.0
 11
56.871256267024528
 21
16.849523681263079
 31
0.0
  0
LINE
  5
5D4
  8
0
 10
54.871256267024542
 20
17.049523681263061
 30
0.0
 11
56.871256267024528
 21
17.049523681263061
 31
0.0
  0
LINE
  5
5D5
  8
0
 10
54.871256267024542
 20
17.249523681263049
 30
0.0
 11
56.871256267024528
 21
17.249523681263049
 31
0.0
  0
LINE
  5
5D6
  8
0
 10
54.871256267024542
 20
17.449523681263042
 30
0.0
 11
56.871256267024528
 21
17.449523681263042
 31
0.0
  0
LINE
  5
5D7
  8
0
 10
54.871256267024542
 20
15.449523681263161
 30
0.0
 11
56.871256267024528
 21
15.449523681263161
 31
0.0
  0
LINE
  5
5D8
  8
0
 10
54.871256267024542
 20
15.649523681263149
 30
0.0
 11
56.871256267024528
 21
15.649523681263149
 31
0.0
  0
LINE
  5
5D9
  8
0
 10
54.871256267024542
 20
15.849523681263131
 30
0.0
 11
56.871256267024528
 21
15.849523681263131
 31
0.0
  0
LINE
  5
5DA
  8
0
 10
54.871256267024542
 20
15.24952368126317
 30
0.0
 11
56.871256267024528
 21
15.24952368126317
 31
0.0
  0
LINE
  5
5DB
  8
0
 10
54.871256267024542
 20
15.04952368126318
 30
0.0
 11
56.871256267024528
 21
15.04952368126318
 31
0.0
  0
LINE
  5
5DC
  8
0
 10
54.871256267024542
 20
23.649523681262661
 30
0.0
 11
56.871256267024528
 21
23.649523681262661
 31
0.0
  0
LINE
  5
5DD
  8
0
 10
54.871256267024542
 20
23.449523681262679
 30
0.0
 11
56.871256267024528
 21
23.449523681262679
 31
0.0
  0
LINE
  5
5DE
  8
0
 10
54.871256267024542
 20
22.84952368126271
 30
0.0
 11
56.871256267024528
 21
22.84952368126271
 31
0.0
  0
LINE
  5
5DF
  8
0
 10
54.871256267024542
 20
23.049523681262698
 30
0.0
 11
56.871256267024528
 21
23.049523681262698
 31
0.0
  0
LINE
  5
5E0
  8
0
 10
54.871256267024542
 20
23.249523681262691
 30
0.0
 11
56.871256267024528
 21
23.249523681262691
 31
0.0
  0
LINE
  5
5E1
  8
0
 10
54.871256267024542
 20
21.249523681262801
 30
0.0
 11
56.871256267024528
 21
21.249523681262801
 31
0.0
  0
LINE
  5
5E2
  8
0
 10
54.871256267024542
 20
21.449523681262789
 30
0.0
 11
56.871256267024528
 21
21.449523681262789
 31
0.0
  0
LINE
  5
5E3
  8
0
 10
54.871256267024542
 20
21.649523681262782
 30
0.0
 11
56.871256267024528
 21
21.649523681262782
 31
0.0
  0
LINE
  5
5E4
  8
0
 10
54.871256267024542
 20
21.84952368126277
 30
0.0
 11
56.871256267024528
 21
21.84952368126277
 31
0.0
  0
LINE
  5
5E5
  8
0
 10
54.871256267024542
 20
22.649523681262721
 30
0.0
 11
56.871256267024528
 21
22.649523681262721
 31
0.0
  0
LINE
  5
5E6
  8
0
 10
54.871256267024542
 20
22.449523681262729
 30
0.0
 11
56.871256267024528
 21
22.449523681262729
 31
0.0
  0
LINE
  5
5E7
  8
0
 10
54.871256267024542
 20
22.24952368126274
 30
0.0
 11
56.871256267024528
 21
22.24952368126274
 31
0.0
  0
LINE
  5
5E8
  8
0
 10
54.871256267024542
 20
22.049523681262759
 30
0.0
 11
56.871256267024528
 21
22.049523681262759
 31
0.0
  0
LINE
  5
5E9
  8
0
 10
54.871256267024542
 20
20.44952368126285
 30
0.0
 11
56.871256267024528
 21
20.44952368126285
 31
0.0
  0
LINE
  5
5EA
  8
0
 10
54.871256267024542
 20
20.649523681262838
 30
0.0
 11
56.871256267024528
 21
20.649523681262838
 31
0.0
  0
LINE
  5
5EB
  8
0
 10
54.871256267024542
 20
20.84952368126282
 30
0.0
 11
56.871256267024528
 21
20.84952368126282
 31
0.0
  0
LINE
  5
5EC
  8
0
 10
54.871256267024542
 20
21.049523681262809
 30
0.0
 11
56.871256267024528
 21
21.049523681262809
 31
0.0
  0
LINE
  5
5ED
  8
0
 10
54.871256267024542
 20
20.249523681262861
 30
0.0
 11
56.871256267024528
 21
20.249523681262861
 31
0.0
  0
LINE
  5
5EE
  8
0
 10
54.871256267024542
 20
20.049523681262869
 30
0.0
 11
56.871256267024528
 21
20.049523681262869
 31
0.0
  0
LINE
  5
5EF
  8
0
 10
54.871256267024542
 20
19.84952368126288
 30
0.0
 11
56.871256267024528
 21
19.84952368126288
 31
0.0
  0
LINE
  5
5F0
  8
0
 10
54.871256267024542
 20
19.649523681262892
 30
0.0
 11
56.871256267024528
 21
19.649523681262892
 31
0.0
  0
LINE
  5
5F1
  8
0
 10
54.871256267024542
 20
19.4495236812629
 30
0.0
 11
56.871256267024528
 21
19.4495236812629
 31
0.0
  0
LINE
  5
5F2
  8
1
 10
15.871256267024529
 20
9.3495236812629088
 30
0.0
 11
15.871256267024529
 21
29.349523681262909
 31
0.0
  0
LINE
  5
5F3
  8
1
 10
5.8712562670245338
 20
19.349523681262909
 30
0.0
 11
25.871256267024538
 21
19.349523681262909
 31
0.0
  0
CIRCLE
  5
5F4
  8
0
 10
15.871256267024529
 20
19.349523681262909
 30
0.0
 40
5.0
  0
CIRCLE
  5
5F5
  8
3
 10
15.871256267024529
 20
19.349523681262909
 30
0.0
 40
4.188000000000101
  0
LINE
  5
5F6
  8
0
 10
40.871256267024421
 20
22.849523681262909
 30
0.0
 11
40.871256267024471
 21
15.849523681262911
 31
0.0
  0
LINE
  5
5F7
  8
0
 10
42.371256267024357
 20
24.349523681262909
 30
0.0
 11
40.871256267024421
 21
22.849523681262909
 31
0.0
  0
LINE
  5
5F8
  8
0
 10
40.871256267024471
 20
15.849523681262911
 30
0.0
 11
42.371256267024471
 21
14.349523681262911
 31
0.0
  0
LINE
  5
5F9
  8
0
 10
42.371256267024357
 20
24.349523681262909
 30
0.0
 11
42.371256267024471
 21
14.349523681262911
 31
0.0
  0
LINE
  5
5FA
  8
0
 10
133.37125626702459
 20
24.349523681262909
 30
0.0
 11
133.37125626702451
 21
14.349523681262911
 31
0.0
  0
LINE
  5
5FB
  8
0
 10
134.87125626702451
 20
15.849523681262911
 30
0.0
 11
133.37125626702451
 21
14.349523681262911
 31
0.0
  0
LINE
  5
5FC
  8
0
 10
133.37125626702459
 20
24.349523681262909
 30
0.0
 11
134.87125626702459
 21
22.849523681262909
 31
0.0
  0
LINE
  5
5FD
  8
0
 10
56.871256267024528
 20
24.349523681262909
 30
0.0
 11
133.37125626702459
 21
24.349523681262909
 31
0.0
  0
LINE
  5
5FE
  8
3
 10
41.559256267024523
 20
23.537523681263011
 30
0.0
 11
54.871256267024542
 21
23.537523681263011
 31
0.0
  0
LINE
  5
5FF
  8
3
 10
41.559256267024573
 20
15.16152368126275
 30
0.0
 11
54.871256267024542
 21
15.161523681262789
 31
0.0
  0
LINE
  5
600
  8
0
 10
134.87125626702459
 20
22.849523681262909
 30
0.0
 11
134.87125626702451
 21
15.849523681262911
 31
0.0
  0
LINE
  5
601
  8
1
 10
35.871256267024542
 20
19.349523681262909
 30
0.0
 11
139.87125626702459
 21
19.349523681262909
 31
0.0
  0
LINE
  5
604
  8
0
 10
54.871256267024542
 20
14.349523681262911
 30
0.0
 11
54.871256267024542
 21
24.349523681262909
 31
0.0
  0
LINE
  5
605
  8
0
 10
56.871256267024528
 20
24.349523681262909
 30
0.0
 11
56.871256267024528
 21
14.349523681262911
 31
0.0
  0
LINE
  5
606
  8
0
 10
42.371256267024471
 20
14.349523681262911
 30
0.0
 11
133.37125626702459
 21
14.349523681262911
 31
0.0
  0
LINE
  5
607
  8
0
 10
133.37125626702459
 20
24.349523681262909
 30
0.0
 11
42.371256267024357
 21
24.349523681262909
 31
0.0
  0
LINE
  5
622
  8
0
 10
54.871256267024542
 20
14.649523681263201
 30
0.0
 11
56.871256267024528
 21
14.649523681263201
 31
0.0
  0
LINE
  5
623
  8
0
 10
54.871256267024542
 20
14.849523681263189
 30
0.0
 11
56.871256267024528
 21
14.849523681263189
 31
0.0
  0
LINE
  5
624
  8
0
 10
54.871256267024542
 20
23.849523681262649
 30
0.0
 11
56.871256267024528
 21
23.849523681262649
 31
0.0
  0
LINE
  5
625
  8
0
 10
54.871256267024542
 20
24.049523681262642
 30
0.0
 11
56.871256267024528
 21
24.049523681262642
 31
0.0
  0
LINE
  5
626
  8
3
 10
56.871256267024528
 20
23.537523681263011
 30
0.0
 11
134.18325626702449
 21
23.537523681263011
 31
0.0
  0
LINE
  5
627
  8
3
 10
56.871256267024549
 20
15.161523681262789
 30
0.0
 11
134.1832562670244
 21
15.16152368126283
 31
0.0
  0
LINE
  5
641
  8
0
 10
54.871256267024542
 20
14.44952368126321
 30
0.0
 11
56.871256267024528
 21
14.44952368126321
 31
0.0
  0
LINE
  5
642
  8
0
 10
54.871256267024542
 20
24.24952368126263
 30
0.0
 11
56.871256267024528
 21
24.24952368126263
 31
0.0
  0
TEXT
  5
74E
  8
0
 62
     3
 10
0.0
 20
0.0
 30
0.0
 40
5.0
  1
GS10080-SUS
  7
STANDARD1
  0
ENDSEC
  0
EOF
