  0
SECTION
  2
HEADER
  9
$ACADVER
  1
AC1009
  9
$INSBASE
 10
0.0
 20
0.0
 30
0.0
  9
$EXTMIN
 10
0.0
 20
-2.960436562073669
 30
0.0
  9
$EXTMAX
 10
197.66989502863331
 20
131.50943405498671
 30
0.0
  9
$LIMMIN
 10
0.0
 20
0.0
  9
$LIMMAX
 10
187.5
 20
135.0
  9
$ORTHOMODE
 70
     0
  9
$REGENMODE
 70
     1
  9
$FILLMODE
 70
     1
  9
$QTEXTMODE
 70
     0
  9
$MIRRTEXT
 70
     0
  9
$DRAGMODE
 70
     2
  9
$LTSCALE
 40
5.0
  9
$OSMODE
 70
  3071
  9
$ATTMODE
 70
     1
  9
$TEXTSIZE
 40
0.2
  9
$TRACEWID
 40
0.05
  9
$TEXTSTYLE
  7
STANDARD
  9
$CLAYER
  8
0
  9
$CELTYPE
  6
BYLAYER
  9
$CECOLOR
 62
   256
  9
$DIMSCALE
 40
0.5
  9
$DIMASZ
 40
3.0
  9
$DIMEXO
 40
2.0
  9
$DIMDLI
 40
0.3799999999999999
  9
$DIMRND
 40
0.0
  9
$DIMDLE
 40
0.0
  9
$DIMEXE
 40
2.0
  9
$DIMTP
 40
0.0
  9
$DIMTM
 40
0.0
  9
$DIMTXT
 40
3.2000000000000002
  9
$DIMCEN
 40
0.09
  9
$DIMTSZ
 40
0.0
  9
$DIMTOL
 70
     0
  9
$DIMLIM
 70
     0
  9
$DIMTIH
 70
     0
  9
$DIMTOH
 70
     0
  9
$DIMSE1
 70
     0
  9
$DIMSE2
 70
     0
  9
$DIMTAD
 70
     1
  9
$DIMZIN
 70
     0
  9
$DIMBLK
  1

  9
$DIMASO
 70
     0
  9
$DIMSHO
 70
     0
  9
$DIMPOST
  1

  9
$DIMAPOST
  1

  9
$DIMALT
 70
     0
  9
$DIMALTD
 70
     2
  9
$DIMALTF
 40
25.399999999999999
  9
$DIMLFAC
 40
1.0
  9
$DIMTOFL
 70
     0
  9
$DIMTVP
 40
1.6000000000000001
  9
$DIMTIX
 70
     1
  9
$DIMSOXD
 70
     0
  9
$DIMSAH
 70
     0
  9
$DIMBLK1
  1

  9
$DIMBLK2
  1

  9
$DIMSTYLE
  2
STANDARD
  9
$DIMCLRD
 70
     0
  9
$DIMCLRE
 70
     0
  9
$DIMCLRT
 70
     0
  9
$DIMTFAC
 40
1.0
  9
$DIMGAP
 40
0.09
  9
$LUNITS
 70
     2
  9
$LUPREC
 70
     4
  9
$SKETCHINC
 40
0.1
  9
$FILLETRAD
 40
0.4
  9
$AUNITS
 70
     0
  9
$AUPREC
 70
     0
  9
$MENU
  1
E:\r13\win\SUPPORT\ACAD
  9
$ELEVATION
 40
0.0
  9
$PELEVATION
 40
0.0
  9
$THICKNESS
 40
0.0
  9
$LIMCHECK
 70
     0
  9
$BLIPMODE
 70
     0
  9
$CHAMFERA
 40
0.0
  9
$CHAMFERB
 40
0.0
  9
$SKPOLY
 70
     0
  9
$TDCREATE
 40
2451824.6906229062
  9
$TDUPDATE
 40
2456598.6900101509
  9
$TDINDWG
 40
0.0319363542
  9
$TDUSRTIMER
 40
0.0319363542
  9
$USRTIMER
 70
     1
  9
$ANGBASE
 50
0.0
  9
$ANGDIR
 70
     0
  9
$PDMODE
 70
     0
  9
$PDSIZE
 40
0.0
  9
$PLINEWID
 40
0.0
  9
$COORDS
 70
     1
  9
$SPLFRAME
 70
     0
  9
$SPLINETYPE
 70
     6
  9
$SPLINESEGS
 70
     8
  9
$ATTDIA
 70
     0
  9
$ATTREQ
 70
     1
  9
$HANDLING
 70
     1
  9
$HANDSEED
  5
1D1
  9
$SURFTAB1
 70
     6
  9
$SURFTAB2
 70
     6
  9
$SURFTYPE
 70
     6
  9
$SURFU
 70
     6
  9
$SURFV
 70
     6
  9
$UCSNAME
  2

  9
$UCSORG
 10
0.0
 20
0.0
 30
0.0
  9
$UCSXDIR
 10
1.0
 20
0.0
 30
0.0
  9
$UCSYDIR
 10
0.0
 20
1.0
 30
0.0
  9
$PUCSNAME
  2

  9
$PUCSORG
 10
0.0
 20
0.0
 30
0.0
  9
$PUCSXDIR
 10
1.0
 20
0.0
 30
0.0
  9
$PUCSYDIR
 10
0.0
 20
1.0
 30
0.0
  9
$USERI1
 70
     0
  9
$USERI2
 70
     1
  9
$USERI3
 70
     0
  9
$USERI4
 70
     0
  9
$USERI5
 70
     0
  9
$USERR1
 40
0.0
  9
$USERR2
 40
0.0
  9
$USERR3
 40
0.0
  9
$USERR4
 40
0.0
  9
$USERR5
 40
0.0
  9
$WORLDVIEW
 70
     1
  9
$SHADEDGE
 70
     3
  9
$SHADEDIF
 70
    70
  9
$TILEMODE
 70
     1
  9
$MAXACTVP
 70
    16
  9
$PLIMCHECK
 70
     0
  9
$PEXTMIN
 10
1.0000000000000000E+020
 20
1.0000000000000000E+020
 30
1.0000000000000000E+020
  9
$PEXTMAX
 10
-1.0000000000000000E+020
 20
-1.0000000000000000E+020
 30
-1.0000000000000000E+020
  9
$PLIMMIN
 10
0.0
 20
0.0
  9
$PLIMMAX
 10
12.0
 20
9.0
  9
$UNITMODE
 70
     0
  9
$VISRETAIN
 70
     0
  9
$PLINEGEN
 70
     0
  9
$PSLTSCALE
 70
     0
  0
ENDSEC
  0
SECTION
  2
TABLES
  0
TABLE
  2
VPORT
 70
     1
  0
VPORT
  2
*ACTIVE
 70
     0
 10
0.0
 20
0.0
 11
1.0
 21
1.0
 12
98.834947974552776
 22
66.313465060797697
 13
0.0
 23
0.0
 14
5.0
 24
5.0
 15
5.0
 25
5.0
 16
0.0
 26
0.0
 36
1.0
 17
0.0
 27
0.0
 37
0.0
 40
140.15365342376049
 41
2.304913294797688
 42
50.0
 43
0.0
 44
0.0
 50
0.0
 51
0.0
 71
     0
 72
   500
 73
     1
 74
     0
 75
     0
 76
     0
 77
     0
 78
     2
  0
ENDTAB
  0
TABLE
  2
LTYPE
 70
     4
  0
LTYPE
  2
CONTINUOUS
 70
     0
  3
Solid Line
 72
    65
 73
     0
 40
0.0
  0
LTYPE
  2
CENTER
 70
     0
  3
____ _ ____ _ ____ _ ____ _ ____ _ ____ _ ____
 72
    65
 73
     4
 40
2.0
 49
1.25
 49
-0.25
 49
0.25
 49
-0.25
  0
LTYPE
  2
HIDDEN
 70
     0
  3
__ __ __ __ __ __ __ __ __ __ __ __ __ __ __ __
 72
    65
 73
     2
 40
0.375
 49
0.25
 49
-0.125
  0
LTYPE
  2
PHANTOM2
 70
     0
  3
___ _ _ ___ _ _ ___ _ _ ___ _ _
 72
    65
 73
     6
 40
1.25
 49
0.625
 49
-0.125
 49
0.125
 49
-0.125
 49
0.125
 49
-0.125
  0
ENDTAB
  0
TABLE
  2
LAYER
 70
     3
  0
LAYER
  2
0
 70
     0
 62
     7
  6
CONTINUOUS
  0
LAYER
  2
1
 70
     0
 62
     1
  6
CENTER
  0
LAYER
  2
2
 70
     0
 62
     2
  6
HIDDEN
  0
ENDTAB
  0
TABLE
  2
STYLE
 70
     2
  0
STYLE
  2
STANDARD
 70
     0
 40
0.0
 41
1.0
 50
0.0
 71
     0
 42
0.2
  3
TXT
  4
BIGFONT
  0
STYLE
  2
STANDARD1
 70
     0
 40
0.0
 41
1.0
 50
0.0
 71
     0
 42
3.0
  3
txt
  4

  0
ENDTAB
  0
TABLE
  2
VIEW
 70
     0
  0
ENDTAB
  0
TABLE
  2
UCS
 70
     0
  0
ENDTAB
  0
TABLE
  2
APPID
 70
     3
  0
APPID
  2
ACAD
 70
     0
  0
APPID
  2
ACAD_MLEADERVER
 70
     0
  0
APPID
  2
ACAD_NAV_VCDISPLAY
 70
     0
  0
ENDTAB
  0
TABLE
  2
DIMSTYLE
 70
     1
  0
DIMSTYLE
  2
STANDARD
 70
     0
  3

  4

  5

  6

  7

 40
1.0
 41
0.18
 42
0.0625
 43
0.38
 44
0.18
 45
0.0
 46
0.0
 47
0.0
 48
0.0
140
0.18
141
0.09
142
0.0
143
25.399999999999999
144
1.0
145
0.0
146
1.0
147
0.09
 71
     0
 72
     0
 73
     1
 74
     1
 75
     0
 76
     0
 77
     0
 78
     0
170
     0
171
     2
172
     0
173
     0
174
     0
175
     0
176
     0
177
     0
178
     0
  0
ENDTAB
  0
ENDSEC
  0
SECTION
  2
BLOCKS
  0
BLOCK
  8
0
  2
$MODEL_SPACE
 70
     0
 10
0.0
 20
0.0
 30
0.0
  3
$MODEL_SPACE
  1

  0
ENDBLK
  5
9
  8
0
  0
BLOCK
 67
     1
  8
0
  2
$PAPER_SPACE
 70
     0
 10
0.0
 20
0.0
 30
0.0
  3
$PAPER_SPACE
  1

  0
ENDBLK
  5
E
 67
     1
  8
0
  0
ENDSEC
  0
SECTION
  2
ENTITIES
  0
LINE
  5
26
  8
0
 10
175.03642759357069
 20
117.50943427777339
 30
0.0
 11
192.6698951239641
 21
117.50943427777381
 31
0.0
1001
ACAD
1000
ASC_BOUNDS
1002
{
1070
    19
1005
0
1002
}
  0
LINE
  5
28
  8
0
 10
174.6379497143341
 20
117.8745719806743
 30
0.0
 11
173.88249715223051
 21
126.50943427777329
 31
0.0
1001
ACAD
1000
ASC_BOUNDS
1002
{
1070
    19
1005
0
1002
}
  0
LINE
  5
29
  8
0
 10
169.6698951239637
 20
126.50943427777329
 30
0.0
 11
173.88249715223051
 21
126.50943427777329
 31
0.0
1001
ACAD
1000
ASC_BOUNDS
1002
{
1070
    19
1005
0
1002
}
  0
ARC
  5
2A
  8
0
 10
175.03642759357069
 20
117.9094342777734
 30
0.0
 40
0.4
 50
184.99999999999969
 51
270.00000000000171
1001
ACAD
1000
ASC_BOUNDS
1002
{
1070
    19
1005
0
1002
}
  0
ARC
  5
2B
  8
0
 10
175.03642759357069
 20
75.109434277773232
 30
0.0
 40
0.4
 50
89.999999999998366
 51
175.0000000000002
  0
LINE
  5
2C
  8
0
 10
174.6379497143341
 20
75.1442965748723
 30
0.0
 11
173.88249715223051
 21
66.509434277773337
 31
0.0
  0
LINE
  5
2D
  8
0
 10
175.03642759357069
 20
75.509434277773224
 30
0.0
 11
192.6698951239641
 21
75.509434277772868
 31
0.0
  0
LINE
  5
2E
  8
0
 10
169.6698951239637
 20
66.509434277773337
 30
0.0
 11
173.88249715223051
 21
66.509434277773337
 31
0.0
  0
LINE
  5
2F
  8
1
 10
124.6698949333025
 20
96.509434054986741
 30
0.0
 11
54.669894933302537
 21
96.509434054986741
 31
0.0
  0
LINE
  5
32
  8
1
 10
89.669894933302544
 20
131.50943405498671
 30
0.0
 11
89.669894933302544
 21
61.509434054986741
 31
0.0
  0
CIRCLE
  5
33
  8
2
 10
89.669894933302544
 20
96.509434054986741
 30
0.0
 40
21.0
  0
CIRCLE
  5
36
  8
0
 10
89.669894933302544
 20
96.509434054986741
 30
0.0
 40
30.0
  0
CIRCLE
  5
37
  8
0
 10
89.669894933302544
 20
96.509434054986741
 30
0.0
 40
6.0
  0
CIRCLE
  5
38
  8
2
 10
89.669894933302444
 20
96.509434054986741
 30
0.0
 40
16.850000000000001
  0
CIRCLE
  5
39
  8
0
 10
89.669894933302444
 20
96.509434054986741
 30
0.0
 40
16.0
  0
ARC
  5
3A
  8
0
 10
90.869894933302476
 20
96.509434054986741
 30
0.0
 40
14.550000000000001
 50
37.711404397752602
 51
322.28859560224743
  0
LINE
  5
3B
  8
0
 10
101.0238118478925
 20
104.45953226678949
 30
0.0
 11
102.3804260698919
 21
105.40944377147601
 31
0.0
  0
LINE
  5
3C
  8
0
 10
103.058180604813
 20
100.0968143887051
 30
0.0
 11
105.1247081539276
 21
100.650538776627
 31
0.0
  0
ARC
  5
3D
  8
0
 10
102.4472466256739
 20
102.4676110000792
 30
0.0
 40
2.448247720180674
 50
125.54974902690699
 51
284.45025097309468
  0
ARC
  5
3E
  8
0
 10
102.4472466256739
 20
90.551257109894237
 30
0.0
 40
2.448247720180674
 50
75.549749026905346
 51
234.45025097309301
  0
LINE
  5
3F
  8
0
 10
101.0238118478925
 20
88.559335843184016
 30
0.0
 11
102.3804260698919
 21
87.609424338497575
 31
0.0
  0
LINE
  5
40
  8
0
 10
103.058180604813
 20
92.922053721268384
 30
0.0
 11
105.1247081539276
 21
92.36832933334648
 31
0.0
  0
LINE
  5
41
  8
2
 10
105.1247081539276
 20
100.650538776627
 30
0.0
 11
105.94574510627331
 21
100.87053496496419
 31
0.0
  0
LINE
  5
42
  8
2
 10
105.1247081539276
 20
92.36832933334648
 30
0.0
 11
105.94574510627331
 21
92.148333145009303
 31
0.0
  0
CIRCLE
  5
43
  8
0
 10
102.0409962263528
 20
102.2781733277473
 30
0.0
 40
1.25
  0
CIRCLE
  5
44
  8
0
 10
102.0409962263528
 20
90.7406947822262
 30
0.0
 40
1.25
  0
LINE
  5
45
  8
0
 10
169.66989493330249
 20
126.5094340549867
 30
0.0
 11
169.66989493330249
 21
66.509434054986812
 31
0.0
  0
LINE
  5
46
  8
2
 10
176.16989493330249
 20
113.35943405498671
 30
0.0
 11
176.1698949333026
 21
79.659434054986718
 31
0.0
  0
LINE
  5
47
  8
0
 10
192.6698951239641
 20
117.50943427777381
 30
0.0
 11
192.6698949333026
 21
75.509434277772868
 31
0.0
  0
LINE
  5
48
  8
2
 10
186.1698949333026
 20
111.9094340549866
 30
0.0
 11
186.1698949333026
 21
80.909434054986789
 31
0.0
  0
LINE
  5
49
  8
2
 10
174.81989493330269
 20
113.35943405498671
 30
0.0
 11
174.81989493330269
 21
79.659434054986718
 31
0.0
  0
LINE
  5
4A
  8
2
 10
174.9698949333025
 20
113.35943405498671
 30
0.0
 11
174.9698949333025
 21
79.659434054986718
 31
0.0
  0
LINE
  5
4B
  8
2
 10
176.7698949333026
 20
102.5094340549867
 30
0.0
 11
185.56989493330249
 21
102.5094340549867
 31
0.0
  0
LINE
  5
4C
  8
2
 10
176.1698949333026
 20
106.0094340549867
 30
0.0
 11
179.16989493330269
 21
106.0094340549867
 31
0.0
  0
LINE
  5
4D
  8
2
 10
176.1698949333026
 20
109.0094340549867
 30
0.0
 11
179.16989493330269
 21
109.0094340549867
 31
0.0
  0
CIRCLE
  5
4E
  8
2
 10
181.1698949333026
 20
107.5094340549867
 30
0.0
 40
2.5
  0
LINE
  5
4F
  8
2
 10
183.16989493330269
 20
109.0094340549867
 30
0.0
 11
186.1698949333026
 21
109.0094340549867
 31
0.0
  0
LINE
  5
50
  8
2
 10
183.16989493330269
 20
106.0094340549867
 30
0.0
 11
186.1698949333026
 21
106.0094340549867
 31
0.0
  0
ARC
  5
51
  8
2
 10
176.7698949333026
 20
111.9094340549866
 30
0.0
 40
0.6
 50
90.0
 51
180.0
  0
ARC
  5
52
  8
2
 10
185.56989493330249
 20
111.9094340549866
 30
0.0
 40
0.6
 50
0.0
 51
90.0
  0
ARC
  5
53
  8
2
 10
185.56989493330249
 20
103.10943405498671
 30
0.0
 40
0.6
 50
270.0
 51
0.0
  0
ARC
  5
54
  8
2
 10
176.7698949333026
 20
103.10943405498671
 30
0.0
 40
0.6
 50
180.0
 51
270.0
  0
ARC
  5
55
  8
2
 10
176.7698949333026
 20
89.909434054986775
 30
0.0
 40
0.6
 50
90.0
 51
180.0
  0
ARC
  5
56
  8
2
 10
185.56989493330249
 20
89.909434054986775
 30
0.0
 40
0.6
 50
0.0
 51
90.0
  0
LINE
  5
57
  8
2
 10
183.16989493330269
 20
87.009434054986713
 30
0.0
 11
186.1698949333026
 21
87.009434054986713
 31
0.0
  0
LINE
  5
58
  8
2
 10
183.16989493330269
 20
84.009434054986741
 30
0.0
 11
186.1698949333026
 21
84.009434054986741
 31
0.0
  0
CIRCLE
  5
59
  8
2
 10
181.1698949333026
 20
85.509434054986727
 30
0.0
 40
2.5
  0
LINE
  5
5A
  8
2
 10
176.1698949333026
 20
84.009434054986741
 30
0.0
 11
179.16989493330269
 21
84.009434054986741
 31
0.0
  0
LINE
  5
5B
  8
2
 10
176.1698949333026
 20
87.009434054986713
 30
0.0
 11
179.16989493330269
 21
87.009434054986713
 31
0.0
  0
LINE
  5
5C
  8
2
 10
176.7698949333026
 20
90.509434054986798
 30
0.0
 11
185.56989493330249
 21
90.509434054986741
 31
0.0
  0
ARC
  5
5D
  8
2
 10
176.7698949333026
 20
81.10943405498675
 30
0.0
 40
0.6
 50
180.0
 51
270.0
  0
ARC
  5
5E
  8
2
 10
185.56989493330249
 20
81.10943405498675
 30
0.0
 40
0.6
 50
270.0
 51
0.0
  0
LINE
  5
5F
  8
2
 10
174.9698949333025
 20
111.009865083063
 30
0.0
 11
176.1698949333026
 21
111.009865083063
 31
0.0
  0
LINE
  5
60
  8
2
 10
174.9698949333025
 20
82.009003026910335
 30
0.0
 11
176.1698949333026
 21
82.009003026910335
 31
0.0
  0
ARC
  5
61
  8
2
 10
185.76989493330271
 20
80.909434054986789
 30
0.0
 40
0.4000000000000001
 50
270.0
 51
0.0
  0
ARC
  5
62
  8
2
 10
185.76989493330271
 20
112.10943405498671
 30
0.0
 40
0.4000000000000001
 50
0.0
 51
90.0
  0
LINE
  5
63
  8
2
 10
192.6698949333026
 20
83.50943405498677
 30
0.0
 11
186.16989493330291
 21
83.50943405498677
 31
0.0
  0
LINE
  5
64
  8
2
 10
170.6698949333028
 20
112.5094340549867
 30
0.0
 11
174.81989493330269
 21
112.5094340549868
 31
0.0
  0
LINE
  5
65
  8
2
 10
192.6698949333026
 20
109.5094340549867
 30
0.0
 11
186.1698949333026
 21
109.5094340549867
 31
0.0
  0
LINE
  5
66
  8
2
 10
176.1698949333026
 20
113.35943405498671
 30
0.0
 11
174.81989493330269
 21
113.35943405498671
 31
0.0
  0
LINE
  5
67
  8
2
 10
176.1698949333026
 20
112.5094340549867
 30
0.0
 11
185.76989493330271
 21
112.5094340549867
 31
0.0
  0
LINE
  5
68
  8
2
 10
170.6698949333028
 20
112.5094340549867
 30
0.0
 11
169.66989493330249
 21
113.08678432417641
 31
0.0
  0
LINE
  5
69
  8
2
 10
170.6698949333028
 20
80.509434054986798
 30
0.0
 11
170.66989493330189
 21
112.5094340549867
 31
0.0
  0
LINE
  5
6A
  8
2
 10
170.6698949333028
 20
80.509434054986798
 30
0.0
 11
169.66989493330249
 21
79.932083785797175
 31
0.0
  0
LINE
  5
6B
  8
2
 10
176.1698949333026
 20
80.509434054986727
 30
0.0
 11
185.76989493330271
 21
80.509434054986798
 31
0.0
  0
LINE
  5
6C
  8
2
 10
176.1698949333026
 20
79.659434054986718
 30
0.0
 11
174.81989493330269
 21
79.659434054986718
 31
0.0
  0
LINE
  5
6D
  8
2
 10
170.6698949333028
 20
80.509434054986798
 30
0.0
 11
174.81989493330269
 21
80.509434054986656
 31
0.0
  0
LINE
  5
6E
  8
1
 10
164.66989493330249
 20
96.509434054986741
 30
0.0
 11
197.66989502863331
 21
96.509434054986741
 31
0.0
  0
LINE
  5
6F
  8
0
 10
175.06989493330269
 20
117.5094340549868
 30
0.0
 11
187.26989493330271
 21
117.5094340549871
 31
0.0
  0
LINE
  5
70
  8
0
 10
169.66989493330249
 20
126.5094340549867
 30
0.0
 11
173.88249717172181
 21
126.5094340549867
 31
0.0
  0
LINE
  5
8C
  8
0
 10
173.88249717172181
 20
126.5094340549867
 30
0.0
 11
173.8824971717217
 21
66.509434277773337
 31
0.0
  0
LINE
  5
8D
  8
0
 10
174.76619151052449
 20
117.6145233430494
 30
0.0
 11
174.76619151052449
 21
75.40434521249729
 31
0.0
  0
TEXT
  5
13C
  8
0
 62
     3
 10
0.0
 20
0.0
 30
0.0
 40
10.0
  1
GRL60S-L
  7
STANDARD1
  0
ENDSEC
  0
EOF
