  0
SECTION
  2
HEADER
  9
$ACADVER
  1
AC1009
  9
$INSBASE
 10
0.0
 20
0.0
 30
0.0
  9
$EXTMIN
 10
0.0
 20
-2.960436562073669
 30
0.0
  9
$EXTMAX
 10
180.5440664200643
 20
121.45725647285801
 30
0.0
  9
$LIMMIN
 10
0.0
 20
0.0
  9
$LIMMAX
 10
187.5
 20
135.0
  9
$ORTHOMODE
 70
     0
  9
$REGENMODE
 70
     1
  9
$FILLMODE
 70
     1
  9
$QTEXTMODE
 70
     0
  9
$MIRRTEXT
 70
     0
  9
$DRAGMODE
 70
     2
  9
$LTSCALE
 40
5.0
  9
$OSMODE
 70
  3071
  9
$ATTMODE
 70
     1
  9
$TEXTSIZE
 40
0.2
  9
$TRACEWID
 40
0.05
  9
$TEXTSTYLE
  7
STANDARD
  9
$CLAYER
  8
0
  9
$CELTYPE
  6
BYLAYER
  9
$CECOLOR
 62
   256
  9
$DIMSCALE
 40
0.5
  9
$DIMASZ
 40
3.0
  9
$DIMEXO
 40
2.0
  9
$DIMDLI
 40
0.3799999999999999
  9
$DIMRND
 40
0.0
  9
$DIMDLE
 40
0.0
  9
$DIMEXE
 40
2.0
  9
$DIMTP
 40
0.0
  9
$DIMTM
 40
0.0
  9
$DIMTXT
 40
3.2000000000000002
  9
$DIMCEN
 40
0.09
  9
$DIMTSZ
 40
0.0
  9
$DIMTOL
 70
     0
  9
$DIMLIM
 70
     0
  9
$DIMTIH
 70
     0
  9
$DIMTOH
 70
     0
  9
$DIMSE1
 70
     0
  9
$DIMSE2
 70
     0
  9
$DIMTAD
 70
     1
  9
$DIMZIN
 70
     0
  9
$DIMBLK
  1

  9
$DIMASO
 70
     0
  9
$DIMSHO
 70
     0
  9
$DIMPOST
  1

  9
$DIMAPOST
  1

  9
$DIMALT
 70
     0
  9
$DIMALTD
 70
     2
  9
$DIMALTF
 40
25.399999999999999
  9
$DIMLFAC
 40
1.0
  9
$DIMTOFL
 70
     0
  9
$DIMTVP
 40
1.6000000000000001
  9
$DIMTIX
 70
     1
  9
$DIMSOXD
 70
     0
  9
$DIMSAH
 70
     0
  9
$DIMBLK1
  1

  9
$DIMBLK2
  1

  9
$DIMSTYLE
  2
STANDARD
  9
$DIMCLRD
 70
     0
  9
$DIMCLRE
 70
     0
  9
$DIMCLRT
 70
     0
  9
$DIMTFAC
 40
1.0
  9
$DIMGAP
 40
0.09
  9
$LUNITS
 70
     2
  9
$LUPREC
 70
     4
  9
$SKETCHINC
 40
0.1
  9
$FILLETRAD
 40
0.4
  9
$AUNITS
 70
     0
  9
$AUPREC
 70
     0
  9
$MENU
  1
E:\r13\win\SUPPORT\ACAD
  9
$ELEVATION
 40
0.0
  9
$PELEVATION
 40
0.0
  9
$THICKNESS
 40
0.0
  9
$LIMCHECK
 70
     0
  9
$BLIPMODE
 70
     0
  9
$CHAMFERA
 40
0.0
  9
$CHAMFERB
 40
0.0
  9
$SKPOLY
 70
     0
  9
$TDCREATE
 40
2451824.6906229062
  9
$TDUPDATE
 40
2456598.68999507
  9
$TDINDWG
 40
0.0177796181
  9
$TDUSRTIMER
 40
0.0177796181
  9
$USRTIMER
 70
     1
  9
$ANGBASE
 50
0.0
  9
$ANGDIR
 70
     0
  9
$PDMODE
 70
     0
  9
$PDSIZE
 40
0.0
  9
$PLINEWID
 40
0.0
  9
$COORDS
 70
     1
  9
$SPLFRAME
 70
     0
  9
$SPLINETYPE
 70
     6
  9
$SPLINESEGS
 70
     8
  9
$ATTDIA
 70
     0
  9
$ATTREQ
 70
     1
  9
$HANDLING
 70
     1
  9
$HANDSEED
  5
31B
  9
$SURFTAB1
 70
     6
  9
$SURFTAB2
 70
     6
  9
$SURFTYPE
 70
     6
  9
$SURFU
 70
     6
  9
$SURFV
 70
     6
  9
$UCSNAME
  2

  9
$UCSORG
 10
0.0
 20
0.0
 30
0.0
  9
$UCSXDIR
 10
1.0
 20
0.0
 30
0.0
  9
$UCSYDIR
 10
0.0
 20
1.0
 30
0.0
  9
$PUCSNAME
  2

  9
$PUCSORG
 10
0.0
 20
0.0
 30
0.0
  9
$PUCSXDIR
 10
1.0
 20
0.0
 30
0.0
  9
$PUCSYDIR
 10
0.0
 20
1.0
 30
0.0
  9
$USERI1
 70
     0
  9
$USERI2
 70
     1
  9
$USERI3
 70
     0
  9
$USERI4
 70
     0
  9
$USERI5
 70
     0
  9
$USERR1
 40
0.0
  9
$USERR2
 40
0.0
  9
$USERR3
 40
0.0
  9
$USERR4
 40
0.0
  9
$USERR5
 40
0.0
  9
$WORLDVIEW
 70
     1
  9
$SHADEDGE
 70
     3
  9
$SHADEDIF
 70
    70
  9
$TILEMODE
 70
     1
  9
$MAXACTVP
 70
    16
  9
$PLIMCHECK
 70
     0
  9
$PEXTMIN
 10
1.0000000000000000E+020
 20
1.0000000000000000E+020
 30
1.0000000000000000E+020
  9
$PEXTMAX
 10
-1.0000000000000000E+020
 20
-1.0000000000000000E+020
 30
-1.0000000000000000E+020
  9
$PLIMMIN
 10
0.0
 20
0.0
  9
$PLIMMAX
 10
12.0
 20
9.0
  9
$UNITMODE
 70
     0
  9
$VISRETAIN
 70
     0
  9
$PLINEGEN
 70
     0
  9
$PSLTSCALE
 70
     0
  0
ENDSEC
  0
SECTION
  2
TABLES
  0
TABLE
  2
VPORT
 70
     1
  0
VPORT
  2
*ACTIVE
 70
     0
 10
0.0
 20
0.0
 11
1.0
 21
1.0
 12
93.74713919532617
 22
66.313465060797697
 13
0.0
 23
0.0
 14
5.0
 24
5.0
 15
5.0
 25
5.0
 16
0.0
 26
0.0
 36
1.0
 17
0.0
 27
0.0
 37
0.0
 40
140.15365342376049
 41
2.304913294797688
 42
50.0
 43
0.0
 44
0.0
 50
0.0
 51
0.0
 71
     0
 72
   500
 73
     1
 74
     0
 75
     0
 76
     0
 77
     0
 78
     2
  0
ENDTAB
  0
TABLE
  2
LTYPE
 70
     4
  0
LTYPE
  2
CONTINUOUS
 70
     0
  3
Solid Line
 72
    65
 73
     0
 40
0.0
  0
LTYPE
  2
CENTER
 70
     0
  3
____ _ ____ _ ____ _ ____ _ ____ _ ____ _ ____
 72
    65
 73
     4
 40
2.0
 49
1.25
 49
-0.25
 49
0.25
 49
-0.25
  0
LTYPE
  2
HIDDEN
 70
     0
  3
__ __ __ __ __ __ __ __ __ __ __ __ __ __ __ __
 72
    65
 73
     2
 40
0.375
 49
0.25
 49
-0.125
  0
LTYPE
  2
PHANTOM2
 70
     0
  3
___ _ _ ___ _ _ ___ _ _ ___ _ _
 72
    65
 73
     6
 40
1.25
 49
0.625
 49
-0.125
 49
0.125
 49
-0.125
 49
0.125
 49
-0.125
  0
ENDTAB
  0
TABLE
  2
LAYER
 70
     3
  0
LAYER
  2
0
 70
     0
 62
     7
  6
CONTINUOUS
  0
LAYER
  2
1
 70
     0
 62
     1
  6
CENTER
  0
LAYER
  2
2
 70
     0
 62
     2
  6
HIDDEN
  0
ENDTAB
  0
TABLE
  2
STYLE
 70
     2
  0
STYLE
  2
STANDARD
 70
     0
 40
0.0
 41
1.0
 50
0.0
 71
     0
 42
0.2
  3
TXT
  4
BIGFONT
  0
STYLE
  2
STANDARD1
 70
     0
 40
0.0
 41
1.0
 50
0.0
 71
     0
 42
3.0
  3
txt
  4

  0
ENDTAB
  0
TABLE
  2
VIEW
 70
     0
  0
ENDTAB
  0
TABLE
  2
UCS
 70
     0
  0
ENDTAB
  0
TABLE
  2
APPID
 70
     3
  0
APPID
  2
ACAD
 70
     0
  0
APPID
  2
ACAD_MLEADERVER
 70
     0
  0
APPID
  2
ACAD_NAV_VCDISPLAY
 70
     0
  0
ENDTAB
  0
TABLE
  2
DIMSTYLE
 70
     1
  0
DIMSTYLE
  2
STANDARD
 70
     0
  3

  4

  5

  6

  7

 40
1.0
 41
0.18
 42
0.0625
 43
0.38
 44
0.18
 45
0.0
 46
0.0
 47
0.0
 48
0.0
140
0.18
141
0.09
142
0.0
143
25.399999999999999
144
1.0
145
0.0
146
1.0
147
0.09
 71
     0
 72
     0
 73
     1
 74
     1
 75
     0
 76
     0
 77
     0
 78
     0
170
     0
171
     2
172
     0
173
     0
174
     0
175
     0
176
     0
177
     0
178
     0
  0
ENDTAB
  0
ENDSEC
  0
SECTION
  2
BLOCKS
  0
BLOCK
  8
0
  2
$MODEL_SPACE
 70
     0
 10
0.0
 20
0.0
 30
0.0
  3
$MODEL_SPACE
  1

  0
ENDBLK
  5
9
  8
0
  0
BLOCK
 67
     1
  8
0
  2
$PAPER_SPACE
 70
     0
 10
0.0
 20
0.0
 30
0.0
  3
$PAPER_SPACE
  1

  0
ENDBLK
  5
E
 67
     1
  8
0
  0
ENDSEC
  0
SECTION
  2
ENTITIES
  0
CIRCLE
  5
19D
  8
0
 10
81.544066420064212
 20
95.457256472858006
 30
0.0
 40
21.0
  0
LINE
  5
19E
  8
1
 10
107.5440664200642
 20
95.457256472858006
 30
0.0
 11
55.544066420064212
 21
95.457256472858006
 31
0.0
  0
LINE
  5
19F
  8
1
 10
81.544066420064212
 20
121.45725647285801
 30
0.0
 11
81.544066420064212
 21
69.457256472858006
 31
0.0
  0
CIRCLE
  5
1A0
  8
0
 10
81.544066420064212
 20
95.457256472858006
 30
0.0
 40
6.0
  0
CIRCLE
  5
1A1
  8
2
 10
81.544066420064155
 20
95.457256472858006
 30
0.0
 40
16.850000000000001
  0
CIRCLE
  5
1A2
  8
0
 10
81.544066420064155
 20
95.457256472858006
 30
0.0
 40
16.0
  0
ARC
  5
1A3
  8
0
 10
82.7440664200642
 20
95.457256472858006
 30
0.0
 40
14.550000000000001
 50
37.711404397750307
 51
322.2885956022497
  0
ARC
  5
1A4
  8
0
 10
94.321418112435595
 20
89.499079527765474
 30
0.0
 40
2.448247720180674
 50
75.549749026905346
 51
234.45025097309281
  0
CIRCLE
  5
1A5
  8
0
 10
93.915167713114442
 20
89.688517200097493
 30
0.0
 40
1.25
  0
LINE
  5
1A6
  8
0
 10
92.897983334654214
 20
87.507158261055324
 30
0.0
 11
94.254597556653664
 21
86.557246756368798
 31
0.0
  0
LINE
  5
1A7
  8
0
 10
94.932352091574657
 20
91.869876139139677
 30
0.0
 11
96.998879640689282
 21
91.316151751217802
 31
0.0
  0
LINE
  5
1A8
  8
2
 10
96.998879640689282
 20
91.316151751217802
 30
0.0
 11
97.819916593034932
 21
91.096155562880512
 31
0.0
  0
LINE
  5
1A9
  8
0
 10
92.897983334654214
 20
103.4073546846607
 30
0.0
 11
94.254597556653664
 21
104.3572661893473
 31
0.0
  0
ARC
  5
1AA
  8
0
 10
94.321418112435595
 20
101.4154334179505
 30
0.0
 40
2.448247720180674
 50
125.54974902690719
 51
284.45025097309468
  0
CIRCLE
  5
1AB
  8
0
 10
93.915167713114442
 20
101.2259957456185
 30
0.0
 40
1.25
  0
LINE
  5
1AC
  8
0
 10
94.932352091574657
 20
99.044636806576335
 30
0.0
 11
96.998879640689282
 21
99.59836119449821
 31
0.0
  0
LINE
  5
1AD
  8
2
 10
96.998879640689282
 20
99.59836119449821
 30
0.0
 11
97.819916593034932
 21
99.818357382835501
 31
0.0
  0
LINE
  5
1AE
  8
2
 10
175.5440664200643
 20
82.457256472858006
 30
0.0
 11
169.0440664200645
 21
82.457256472858006
 31
0.0
  0
LINE
  5
1AF
  8
2
 10
175.5440664200643
 20
108.45725647285801
 30
0.0
 11
169.04406642006421
 21
108.45725647285801
 31
0.0
  0
LINE
  5
1B0
  8
1
 10
147.54406642006421
 20
95.457256472858006
 30
0.0
 11
180.5440664200643
 21
95.457256472857992
 31
0.0
  0
LINE
  5
1B1
  8
0
 10
152.9440664200647
 20
116.45725647285811
 30
0.0
 11
175.14406642006441
 21
116.4572564728583
 31
0.0
  0
LINE
  5
1B2
  8
0
 10
152.9440664200641
 20
74.457256472857637
 30
0.0
 11
175.14406642006401
 21
74.457256472858731
 31
0.0
  0
LINE
  5
1B3
  8
2
 10
159.04406642006421
 20
112.307256472858
 30
0.0
 11
159.0440664200643
 21
78.607256472857983
 31
0.0
  0
LINE
  5
1B4
  8
2
 10
169.04406642006421
 20
110.8572564728578
 30
0.0
 11
169.04406642006421
 21
79.857256472858097
 31
0.0
  0
LINE
  5
1B5
  8
2
 10
157.6940664200643
 20
112.307256472858
 30
0.0
 11
157.6940664200643
 21
78.607256472857983
 31
0.0
  0
LINE
  5
1B6
  8
2
 10
157.84406642006419
 20
112.307256472858
 30
0.0
 11
157.84406642006419
 21
78.607256472857983
 31
0.0
  0
LINE
  5
1B7
  8
2
 10
153.54406642006441
 20
79.457256472858006
 30
0.0
 11
153.54406642006359
 21
111.45725647285801
 31
0.0
  0
LINE
  5
1B8
  8
0
 10
152.54406642006441
 20
116.0572564728581
 30
0.0
 11
152.5440664200641
 21
74.857256472857657
 31
0.0
  0
LINE
  5
1B9
  8
2
 10
153.54406642006441
 20
79.457256472858006
 30
0.0
 11
157.6940664200643
 21
79.457256472857893
 31
0.0
  0
ARC
  5
1BA
  8
0
 10
152.9440664200641
 20
74.857256472857657
 30
0.0
 40
0.4000000000000001
 50
180.0
 51
270.00000000000171
  0
LINE
  5
1BB
  8
2
 10
153.54406642006441
 20
79.457256472858006
 30
0.0
 11
152.54406642006421
 21
78.879906203668469
 31
0.0
  0
CIRCLE
  5
1BC
  8
2
 10
164.0440664200643
 20
84.457256472858006
 30
0.0
 40
2.5
  0
LINE
  5
1BD
  8
2
 10
159.0440664200643
 20
79.457256472858006
 30
0.0
 11
168.64406642006429
 21
79.457256472858006
 31
0.0
  0
ARC
  5
1BE
  8
2
 10
159.64406642006429
 20
80.057256472858029
 30
0.0
 40
0.6
 50
180.0
 51
270.0
  0
LINE
  5
1BF
  8
2
 10
157.84406642006419
 20
80.956825444781629
 30
0.0
 11
159.0440664200643
 21
80.956825444781629
 31
0.0
  0
LINE
  5
1C0
  8
2
 10
159.0440664200643
 20
78.607256472857983
 30
0.0
 11
157.6940664200643
 21
78.607256472857983
 31
0.0
  0
ARC
  5
1C1
  8
2
 10
168.44406642006419
 20
80.057256472858029
 30
0.0
 40
0.6
 50
270.0
 51
0.0
  0
ARC
  5
1C2
  8
2
 10
168.64406642006429
 20
79.857256472858097
 30
0.0
 40
0.4000000000000001
 50
270.0
 51
0.0
  0
LINE
  5
1C3
  8
2
 10
159.64406642006429
 20
89.457256472858006
 30
0.0
 11
168.44406642006419
 21
89.457256472858006
 31
0.0
  0
LINE
  5
1C4
  8
2
 10
159.0440664200643
 20
82.957256472858006
 30
0.0
 11
162.04406642006441
 21
82.957256472858006
 31
0.0
  0
LINE
  5
1C5
  8
2
 10
159.0440664200643
 20
85.957256472858006
 30
0.0
 11
162.04406642006441
 21
85.957256472858006
 31
0.0
  0
ARC
  5
1C6
  8
2
 10
159.64406642006429
 20
88.857256472858083
 30
0.0
 40
0.6
 50
90.0
 51
180.0
  0
LINE
  5
1C7
  8
2
 10
166.04406642006441
 20
85.957256472858006
 30
0.0
 11
169.04406642006421
 21
85.957256472858006
 31
0.0
  0
LINE
  5
1C8
  8
2
 10
166.04406642006441
 20
82.957256472858006
 30
0.0
 11
169.04406642006421
 21
82.957256472858006
 31
0.0
  0
ARC
  5
1C9
  8
2
 10
168.44406642006419
 20
88.857256472858083
 30
0.0
 40
0.6
 50
0.0
 51
90.0
  0
LINE
  5
1CA
  8
2
 10
153.54406642006441
 20
111.45725647285801
 30
0.0
 11
157.6940664200643
 21
111.45725647285811
 31
0.0
  0
LINE
  5
1CB
  8
2
 10
153.54406642006441
 20
111.45725647285801
 30
0.0
 11
152.54406642006421
 21
112.0346067420477
 31
0.0
  0
LINE
  5
1CC
  8
2
 10
159.64406642006429
 20
101.45725647285801
 30
0.0
 11
168.44406642006419
 21
101.45725647285801
 31
0.0
  0
ARC
  5
1CD
  8
2
 10
159.64406642006429
 20
102.0572564728579
 30
0.0
 40
0.6
 50
180.0
 51
270.0
  0
ARC
  5
1CE
  8
2
 10
168.44406642006419
 20
102.0572564728579
 30
0.0
 40
0.6
 50
270.0
 51
0.0
  0
CIRCLE
  5
1CF
  8
2
 10
164.0440664200643
 20
106.45725647285801
 30
0.0
 40
2.5
  0
LINE
  5
1D0
  8
2
 10
159.0440664200643
 20
111.45725647285801
 30
0.0
 11
168.64406642006429
 21
111.45725647285801
 31
0.0
  0
LINE
  5
1D1
  8
2
 10
159.0440664200643
 20
104.95725647285801
 30
0.0
 11
162.04406642006441
 21
104.95725647285801
 31
0.0
  0
LINE
  5
1D2
  8
2
 10
159.0440664200643
 20
107.95725647285801
 30
0.0
 11
162.04406642006441
 21
107.95725647285801
 31
0.0
  0
ARC
  5
1D3
  8
2
 10
159.64406642006429
 20
110.8572564728578
 30
0.0
 40
0.6
 50
90.0
 51
180.0
  0
LINE
  5
1D4
  8
2
 10
157.84406642006419
 20
109.9576875009342
 30
0.0
 11
159.0440664200643
 21
109.9576875009342
 31
0.0
  0
LINE
  5
1D5
  8
2
 10
159.0440664200643
 20
112.307256472858
 30
0.0
 11
157.6940664200643
 21
112.307256472858
 31
0.0
  0
LINE
  5
1D6
  8
2
 10
166.04406642006441
 20
107.95725647285801
 30
0.0
 11
169.04406642006421
 21
107.95725647285801
 31
0.0
  0
LINE
  5
1D7
  8
2
 10
166.04406642006441
 20
104.95725647285801
 30
0.0
 11
169.04406642006421
 21
104.95725647285801
 31
0.0
  0
ARC
  5
1D8
  8
2
 10
168.44406642006419
 20
110.8572564728578
 30
0.0
 40
0.6
 50
0.0
 51
90.0
  0
ARC
  5
1D9
  8
2
 10
168.64406642006429
 20
111.057256472858
 30
0.0
 40
0.4000000000000001
 50
0.0
 51
90.0
  0
ARC
  5
1DA
  8
0
 10
152.9440664200647
 20
116.0572564728581
 30
0.0
 40
0.4000000000000001
 50
90.000000000001606
 51
180.0
  0
LINE
  5
1DB
  8
0
 10
175.54406642006441
 20
116.0572564728583
 30
0.0
 11
175.5440664200641
 21
74.857256472858737
 31
0.0
  0
ARC
  5
1DC
  8
0
 10
175.14406642006401
 20
74.857256472858737
 30
0.0
 40
0.4000000000000001
 50
270.00000000000171
 51
0.0
  0
ARC
  5
1DD
  8
0
 10
175.14406642006441
 20
116.0572564728583
 30
0.0
 40
0.4000000000000001
 50
0.0
 51
90.000000000001606
  0
TEXT
  5
286
  8
0
 62
     3
 10
0.0
 20
0.0
 30
0.0
 40
10.0
  1
GRL60S-F
  7
STANDARD1
  0
ENDSEC
  0
EOF
