  0
SECTION
  2
HEADER
  9
$ACADVER
  1
AC1009
  9
$INSBASE
 10
0.0
 20
0.0
 30
0.0
  9
$EXTMIN
 10
0.0
 20
-2.960436562073669
 30
0.0
  9
$EXTMAX
 10
198.04923576789861
 20
130.26452064683301
 30
0.0
  9
$LIMMIN
 10
0.0
 20
0.0
  9
$LIMMAX
 10
187.5
 20
135.0
  9
$ORTHOMODE
 70
     0
  9
$REGENMODE
 70
     1
  9
$FILLMODE
 70
     1
  9
$QTEXTMODE
 70
     0
  9
$MIRRTEXT
 70
     0
  9
$DRAGMODE
 70
     2
  9
$LTSCALE
 40
5.0
  9
$OSMODE
 70
  3071
  9
$ATTMODE
 70
     1
  9
$TEXTSIZE
 40
0.2
  9
$TRACEWID
 40
0.05
  9
$TEXTSTYLE
  7
STANDARD
  9
$CLAYER
  8
0
  9
$CELTYPE
  6
BYLAYER
  9
$CECOLOR
 62
   256
  9
$DIMSCALE
 40
0.5
  9
$DIMASZ
 40
3.0
  9
$DIMEXO
 40
2.0
  9
$DIMDLI
 40
0.3799999999999999
  9
$DIMRND
 40
0.0
  9
$DIMDLE
 40
0.0
  9
$DIMEXE
 40
2.0
  9
$DIMTP
 40
0.0
  9
$DIMTM
 40
0.0
  9
$DIMTXT
 40
3.2000000000000002
  9
$DIMCEN
 40
0.09
  9
$DIMTSZ
 40
0.0
  9
$DIMTOL
 70
     0
  9
$DIMLIM
 70
     0
  9
$DIMTIH
 70
     0
  9
$DIMTOH
 70
     0
  9
$DIMSE1
 70
     0
  9
$DIMSE2
 70
     0
  9
$DIMTAD
 70
     1
  9
$DIMZIN
 70
     0
  9
$DIMBLK
  1

  9
$DIMASO
 70
     0
  9
$DIMSHO
 70
     0
  9
$DIMPOST
  1

  9
$DIMAPOST
  1

  9
$DIMALT
 70
     0
  9
$DIMALTD
 70
     2
  9
$DIMALTF
 40
25.399999999999999
  9
$DIMLFAC
 40
1.0
  9
$DIMTOFL
 70
     0
  9
$DIMTVP
 40
1.6000000000000001
  9
$DIMTIX
 70
     1
  9
$DIMSOXD
 70
     0
  9
$DIMSAH
 70
     0
  9
$DIMBLK1
  1

  9
$DIMBLK2
  1

  9
$DIMSTYLE
  2
STANDARD
  9
$DIMCLRD
 70
     0
  9
$DIMCLRE
 70
     0
  9
$DIMCLRT
 70
     0
  9
$DIMTFAC
 40
1.0
  9
$DIMGAP
 40
0.09
  9
$LUNITS
 70
     2
  9
$LUPREC
 70
     4
  9
$SKETCHINC
 40
0.1
  9
$FILLETRAD
 40
0.4
  9
$AUNITS
 70
     0
  9
$AUPREC
 70
     0
  9
$MENU
  1
E:\r13\win\SUPPORT\ACAD
  9
$ELEVATION
 40
0.0
  9
$PELEVATION
 40
0.0
  9
$THICKNESS
 40
0.0
  9
$LIMCHECK
 70
     0
  9
$BLIPMODE
 70
     0
  9
$CHAMFERA
 40
0.0
  9
$CHAMFERB
 40
0.0
  9
$SKPOLY
 70
     0
  9
$TDCREATE
 40
2451824.6919768169
  9
$TDUPDATE
 40
2456598.6899241782
  9
$TDINDWG
 40
0.0015888426
  9
$TDUSRTIMER
 40
0.0015888426
  9
$USRTIMER
 70
     1
  9
$ANGBASE
 50
0.0
  9
$ANGDIR
 70
     0
  9
$PDMODE
 70
     0
  9
$PDSIZE
 40
0.0
  9
$PLINEWID
 40
0.0
  9
$COORDS
 70
     1
  9
$SPLFRAME
 70
     0
  9
$SPLINETYPE
 70
     6
  9
$SPLINESEGS
 70
     8
  9
$ATTDIA
 70
     0
  9
$ATTREQ
 70
     1
  9
$HANDLING
 70
     1
  9
$HANDSEED
  5
1D1
  9
$SURFTAB1
 70
     6
  9
$SURFTAB2
 70
     6
  9
$SURFTYPE
 70
     6
  9
$SURFU
 70
     6
  9
$SURFV
 70
     6
  9
$UCSNAME
  2

  9
$UCSORG
 10
0.0
 20
0.0
 30
0.0
  9
$UCSXDIR
 10
1.0
 20
0.0
 30
0.0
  9
$UCSYDIR
 10
0.0
 20
1.0
 30
0.0
  9
$PUCSNAME
  2

  9
$PUCSORG
 10
0.0
 20
0.0
 30
0.0
  9
$PUCSXDIR
 10
1.0
 20
0.0
 30
0.0
  9
$PUCSYDIR
 10
0.0
 20
1.0
 30
0.0
  9
$USERI1
 70
     0
  9
$USERI2
 70
     1
  9
$USERI3
 70
     0
  9
$USERI4
 70
     0
  9
$USERI5
 70
     0
  9
$USERR1
 40
0.0
  9
$USERR2
 40
0.0
  9
$USERR3
 40
0.0
  9
$USERR4
 40
0.0
  9
$USERR5
 40
0.0
  9
$WORLDVIEW
 70
     1
  9
$SHADEDGE
 70
     3
  9
$SHADEDIF
 70
    70
  9
$TILEMODE
 70
     1
  9
$MAXACTVP
 70
    16
  9
$PLIMCHECK
 70
     0
  9
$PEXTMIN
 10
1.0000000000000000E+020
 20
1.0000000000000000E+020
 30
1.0000000000000000E+020
  9
$PEXTMAX
 10
-1.0000000000000000E+020
 20
-1.0000000000000000E+020
 30
-1.0000000000000000E+020
  9
$PLIMMIN
 10
0.0
 20
0.0
  9
$PLIMMAX
 10
12.0
 20
9.0
  9
$UNITMODE
 70
     0
  9
$VISRETAIN
 70
     0
  9
$PLINEGEN
 70
     0
  9
$PSLTSCALE
 70
     0
  0
ENDSEC
  0
SECTION
  2
TABLES
  0
TABLE
  2
VPORT
 70
     1
  0
VPORT
  2
*ACTIVE
 70
     0
 10
0.0
 20
0.0
 11
1.0
 21
1.0
 12
99.024618345068617
 22
66.313465060797697
 13
0.0
 23
0.0
 14
5.0
 24
5.0
 15
5.0
 25
5.0
 16
0.0
 26
0.0
 36
1.0
 17
0.0
 27
0.0
 37
0.0
 40
140.15365342376049
 41
2.304913294797688
 42
50.0
 43
0.0
 44
0.0
 50
0.0
 51
0.0
 71
     0
 72
   500
 73
     1
 74
     0
 75
     0
 76
     0
 77
     0
 78
     2
  0
ENDTAB
  0
TABLE
  2
LTYPE
 70
     4
  0
LTYPE
  2
CONTINUOUS
 70
     0
  3
Solid Line
 72
    65
 73
     0
 40
0.0
  0
LTYPE
  2
CENTER
 70
     0
  3
____ _ ____ _ ____ _ ____ _ ____ _ ____ _ ____
 72
    65
 73
     4
 40
2.0
 49
1.25
 49
-0.25
 49
0.25
 49
-0.25
  0
LTYPE
  2
HIDDEN
 70
     0
  3
_ _ _ _ _ _ _ _ _ _ _ _ _ _ _ _ _ _ _ _ _ _ _
 72
    65
 73
     2
 40
0.375
 49
0.25
 49
-0.125
  0
LTYPE
  2
PHANTOM2
 70
     0
  3
___ _ _ ___ _ _ ___ _ _ ___ _ _
 72
    65
 73
     6
 40
1.25
 49
0.625
 49
-0.125
 49
0.125
 49
-0.125
 49
0.125
 49
-0.125
  0
ENDTAB
  0
TABLE
  2
LAYER
 70
     3
  0
LAYER
  2
0
 70
     0
 62
     7
  6
CONTINUOUS
  0
LAYER
  2
1
 70
     0
 62
     1
  6
CENTER
  0
LAYER
  2
2
 70
     0
 62
     2
  6
HIDDEN
  0
ENDTAB
  0
TABLE
  2
STYLE
 70
     2
  0
STYLE
  2
STANDARD
 70
     0
 40
0.0
 41
1.0
 50
0.0
 71
     0
 42
0.2
  3
TXT
  4
BIGFONT
  0
STYLE
  2
STANDARD1
 70
     0
 40
0.0
 41
1.0
 50
0.0
 71
     0
 42
3.0
  3
txt
  4

  0
ENDTAB
  0
TABLE
  2
VIEW
 70
     0
  0
ENDTAB
  0
TABLE
  2
UCS
 70
     0
  0
ENDTAB
  0
TABLE
  2
APPID
 70
     3
  0
APPID
  2
ACAD
 70
     0
  0
APPID
  2
ACAD_MLEADERVER
 70
     0
  0
APPID
  2
ACAD_NAV_VCDISPLAY
 70
     0
  0
ENDTAB
  0
TABLE
  2
DIMSTYLE
 70
     1
  0
DIMSTYLE
  2
STANDARD
 70
     0
  3

  4

  5

  6

  7

 40
1.0
 41
0.18
 42
0.0625
 43
0.38
 44
0.18
 45
0.0
 46
0.0
 47
0.0
 48
0.0
140
0.18
141
0.09
142
0.0
143
25.399999999999999
144
1.0
145
0.0
146
1.0
147
0.09
 71
     0
 72
     0
 73
     1
 74
     1
 75
     0
 76
     0
 77
     0
 78
     0
170
     0
171
     2
172
     0
173
     0
174
     0
175
     0
176
     0
177
     0
178
     0
  0
ENDTAB
  0
ENDSEC
  0
SECTION
  2
BLOCKS
  0
BLOCK
  8
0
  2
$MODEL_SPACE
 70
     0
 10
0.0
 20
0.0
 30
0.0
  3
$MODEL_SPACE
  1

  0
ENDBLK
  5
9
  8
0
  0
BLOCK
 67
     1
  8
0
  2
$PAPER_SPACE
 70
     0
 10
0.0
 20
0.0
 30
0.0
  3
$PAPER_SPACE
  1

  0
ENDBLK
  5
E
 67
     1
  8
0
  0
ENDSEC
  0
SECTION
  2
ENTITIES
  0
LINE
  5
26
  8
0
 10
190.2187162260127
 20
65.264520646837084
 30
0.0
 11
190.2187162260127
 21
125.2645206468288
 31
0.0
  0
LINE
  5
27
  8
0
 10
171.1661573427605
 20
125.2645206468288
 30
0.0
 11
171.1661573427605
 21
65.264520646833404
 31
0.0
  0
CIRCLE
  5
28
  8
2
 10
92.222811849646746
 20
95.264520646832963
 30
0.0
 40
22.0
  0
LINE
  5
2B
  8
1
 10
127.2228118496467
 20
95.264520646832963
 30
0.0
 11
57.222811849646817
 21
95.264520646832963
 31
0.0
  0
LINE
  5
2E
  8
1
 10
92.222811849646746
 20
130.26452064683301
 30
0.0
 11
92.222811849646746
 21
60.26452064683297
 31
0.0
  0
CIRCLE
  5
2F
  8
0
 10
92.222811849646746
 20
95.264520646832963
 30
0.0
 40
30.0
  0
CIRCLE
  5
30
  8
0
 10
92.222811849646746
 20
95.264520646832963
 30
0.0
 40
6.0
  0
CIRCLE
  5
31
  8
2
 10
92.222811849646746
 20
95.264520646832963
 30
0.0
 40
16.850000000000001
  0
CIRCLE
  5
32
  8
0
 10
92.222811849646746
 20
95.264520646832963
 30
0.0
 40
16.0
  0
ARC
  5
33
  8
0
 10
93.422811849646791
 20
95.264520646832963
 30
0.0
 40
14.550000000000001
 50
37.71140439775229
 51
322.28859560224771
  0
LINE
  5
34
  8
0
 10
103.5767287642368
 20
103.2146188586357
 30
0.0
 11
104.9333429862362
 21
104.1645303633223
 31
0.0
  0
LINE
  5
35
  8
0
 10
105.6110975211573
 20
98.851900980551335
 30
0.0
 11
107.6776250702719
 21
99.405625368473224
 31
0.0
  0
ARC
  5
36
  8
0
 10
105.0001635420182
 20
101.2226975919255
 30
0.0
 40
2.448247720180674
 50
125.54974902690689
 51
284.4502509730944
  0
ARC
  5
37
  8
0
 10
105.0001635420182
 20
89.306343701740474
 30
0.0
 40
2.448247720180674
 50
75.549749026905545
 51
234.45025097309309
  0
LINE
  5
38
  8
0
 10
103.5767287642368
 20
87.314422435030252
 30
0.0
 11
104.9333429862362
 21
86.364510930343812
 31
0.0
  0
LINE
  5
39
  8
0
 10
105.6110975211573
 20
91.67714031311462
 30
0.0
 11
107.6776250702719
 21
91.123415925192717
 31
0.0
  0
LINE
  5
3A
  8
2
 10
107.6776250702719
 20
99.405625368473224
 30
0.0
 11
108.49866202261749
 21
99.625621556810415
 31
0.0
  0
LINE
  5
3B
  8
2
 10
107.6776250702719
 20
91.123415925192717
 30
0.0
 11
108.49866202261749
 21
90.903419736855525
 31
0.0
  0
CIRCLE
  5
3C
  8
0
 10
104.59391314269691
 20
101.0332599195935
 30
0.0
 40
1.25
  0
CIRCLE
  5
3D
  8
0
 10
104.59391314269691
 20
89.495781374072436
 30
0.0
 40
1.25
  0
LINE
  5
3E
  8
0
 10
192.19243678438681
 20
125.2645206468288
 30
0.0
 11
190.2187162260127
 21
125.2645206468288
 31
0.0
1001
ACAD
1000
ASC_BOUNDS
1002
{
1070
    19
1002
}
  0
LINE
  5
3F
  8
0
 10
188.0536527165545
 20
121.5145206468335
 30
0.0
 11
190.2187162260127
 21
125.2645206468288
 31
0.0
1001
ACAD
1000
ASC_BOUNDS
1002
{
1070
    19
1002
}
  0
ARC
  5
40
  8
2
 10
185.29243678438681
 20
110.864520646833
 30
0.0
 40
0.4000000000000001
 50
360.0
 51
90.0
1001
ACAD
1000
ASC_BOUNDS
1002
{
1070
    19
1002
}
  0
ARC
  5
41
  8
2
 10
185.09243678438671
 20
110.6645206468329
 30
0.0
 40
0.6
 50
0.0
 51
90.0
1001
ACAD
1000
ASC_BOUNDS
1002
{
1070
    19
1002
}
  0
LINE
  5
42
  8
2
 10
182.6924367843869
 20
107.76452064683291
 30
0.0
 11
185.6924367843867
 21
107.76452064683291
 31
0.0
  0
LINE
  5
43
  8
2
 10
192.19243678438681
 20
108.26452064683291
 30
0.0
 11
185.6924367843867
 21
108.26452064683291
 31
0.0
1001
ACAD
1000
ASC_BOUNDS
1002
{
1070
    19
1002
}
  0
LINE
  5
44
  8
2
 10
182.6924367843869
 20
104.76452064683301
 30
0.0
 11
185.6924367843867
 21
104.76452064683301
 31
0.0
  0
ARC
  5
45
  8
2
 10
185.09243678438671
 20
101.8645206468329
 30
0.0
 40
0.6
 50
270.00000000000023
 51
0.0
  0
CIRCLE
  5
46
  8
2
 10
180.6924367843867
 20
106.26452064683291
 30
0.0
 40
2.5
  0
LINE
  5
47
  8
2
 10
182.6924367843869
 20
85.764520646832935
 30
0.0
 11
185.6924367843867
 21
85.764520646832935
 31
0.0
  0
ARC
  5
48
  8
2
 10
185.09243678438671
 20
88.664520646833012
 30
0.0
 40
0.6
 50
0.0
 51
89.999999999999844
  0
LINE
  5
49
  8
2
 10
182.6924367843869
 20
82.764520646832963
 30
0.0
 11
185.6924367843867
 21
82.764520646832963
 31
0.0
  0
ARC
  5
4A
  8
2
 10
185.29243678438681
 20
79.664520646833026
 30
0.0
 40
0.4000000000000001
 50
270.00000000000011
 51
360.0
1001
ACAD
1000
ASC_BOUNDS
1002
{
1070
    19
1002
}
  0
ARC
  5
4B
  8
2
 10
185.09243678438671
 20
79.864520646832986
 30
0.0
 40
0.6
 50
270.0
 51
0.0
  0
CIRCLE
  5
4C
  8
2
 10
180.6924367843867
 20
84.264520646832963
 30
0.0
 40
2.5
  0
LINE
  5
4D
  8
2
 10
192.19243678438681
 20
82.264520646833006
 30
0.0
 11
185.69243678438701
 21
82.264520646833006
 31
0.0
1001
ACAD
1000
ASC_BOUNDS
1002
{
1070
    19
1002
}
  0
LINE
  5
4E
  8
0
 10
192.19243678438681
 20
65.264520646837084
 30
0.0
 11
190.2187162260127
 21
65.264520646837084
 31
0.0
1001
ACAD
1000
ASC_BOUNDS
1002
{
1070
    19
1002
}
  0
LINE
  5
4F
  8
0
 10
188.0536527165545
 20
69.01452064683248
 30
0.0
 11
190.2187162260127
 21
65.264520646837084
 31
0.0
1001
ACAD
1000
ASC_BOUNDS
1002
{
1070
    19
1002
}
  0
LINE
  5
50
  8
0
 10
192.19243678438681
 20
125.26452064683291
 30
0.0
 11
192.19243678438681
 21
65.264520646833034
 31
0.0
1001
ACAD
1000
ASC_BOUNDS
1002
{
1070
    19
1002
}
  0
LINE
  5
51
  8
2
 10
185.6924367843867
 20
110.6645206468329
 30
0.0
 11
185.6924367843867
 21
79.664520646833026
 31
0.0
1001
ACAD
1000
ASC_BOUNDS
1002
{
1070
    19
1002
}
  0
LINE
  5
52
  8
0
 10
171.16615734275851
 20
125.26452064683249
 30
0.0
 11
169.1924367843867
 21
125.26452064683249
 31
0.0
1001
ACAD
1000
ASC_BOUNDS
1002
{
1070
    19
1002
}
  0
LINE
  5
53
  8
0
 10
173.33122085221891
 20
121.5145206468335
 30
0.0
 11
171.1661573427605
 21
125.2645206468288
 31
0.0
1001
ACAD
1000
ASC_BOUNDS
1002
{
1070
    19
1002
}
  0
LINE
  5
54
  8
2
 10
174.49243678438671
 20
109.7649516749092
 30
0.0
 11
175.6924367843867
 21
109.7649516749092
 31
0.0
  0
ARC
  5
55
  8
2
 10
176.29243678438681
 20
110.6645206468329
 30
0.0
 40
0.6
 50
90.0
 51
180.0
  0
LINE
  5
56
  8
2
 10
175.6924367843867
 20
112.114520646833
 30
0.0
 11
174.34243678438679
 21
112.114520646833
 31
0.0
1001
ACAD
1000
ASC_BOUNDS
1002
{
1070
    19
1002
}
  0
LINE
  5
57
  8
2
 10
170.1924367843869
 20
111.26452064683291
 30
0.0
 11
169.1924367843867
 21
111.8418709160227
 31
0.0
1001
ACAD
1000
ASC_BOUNDS
1002
{
1070
    19
1002
}
  0
LINE
  5
58
  8
2
 10
170.1924367843869
 20
111.26452064683291
 30
0.0
 11
174.34243678438679
 21
111.26452064683301
 31
0.0
1001
ACAD
1000
ASC_BOUNDS
1002
{
1070
    19
1002
}
  0
ARC
  5
59
  8
2
 10
176.29243678438681
 20
101.8645206468329
 30
0.0
 40
0.6
 50
180.0
 51
270.00000000000023
  0
ARC
  5
5A
  8
2
 10
176.29243678438681
 20
88.664520646833012
 30
0.0
 40
0.6
 50
89.999999999999801
 51
180.0
  0
LINE
  5
5B
  8
2
 10
174.49243678438671
 20
80.764089618756572
 30
0.0
 11
175.6924367843867
 21
80.764089618756572
 31
0.0
  0
ARC
  5
5C
  8
2
 10
176.29243678438681
 20
79.864520646832986
 30
0.0
 40
0.6
 50
180.0
 51
270.0
  0
LINE
  5
5D
  8
2
 10
170.1924367843869
 20
79.264520646833034
 30
0.0
 11
169.1924367843867
 21
78.687170377643412
 31
0.0
1001
ACAD
1000
ASC_BOUNDS
1002
{
1070
    19
1002
}
  0
LINE
  5
5E
  8
2
 10
170.1924367843869
 20
79.264520646833034
 30
0.0
 11
174.34243678438679
 21
79.264520646832892
 31
0.0
1001
ACAD
1000
ASC_BOUNDS
1002
{
1070
    19
1002
}
  0
LINE
  5
5F
  8
2
 10
175.6924367843867
 20
78.414520646832955
 30
0.0
 11
174.34243678438679
 21
78.414520646832955
 31
0.0
1001
ACAD
1000
ASC_BOUNDS
1002
{
1070
    19
1002
}
  0
LINE
  5
60
  8
0
 10
171.16615734275851
 20
65.264520646833404
 30
0.0
 11
169.1924367843867
 21
65.264520646833404
 31
0.0
1001
ACAD
1000
ASC_BOUNDS
1002
{
1070
    19
1002
}
  0
LINE
  5
61
  8
0
 10
173.33122085221891
 20
69.01452064683248
 30
0.0
 11
171.1661573427605
 21
65.264520646837084
 31
0.0
1001
ACAD
1000
ASC_BOUNDS
1002
{
1070
    19
1002
}
  0
LINE
  5
62
  8
2
 10
170.1924367843869
 20
79.264520646833034
 30
0.0
 11
170.19243678438599
 21
111.26452064683291
 31
0.0
  0
LINE
  5
63
  8
2
 10
174.49243678438671
 20
112.114520646833
 30
0.0
 11
174.49243678438671
 21
78.414520646832955
 31
0.0
  0
LINE
  5
64
  8
2
 10
174.34243678438679
 20
112.114520646833
 30
0.0
 11
174.34243678438679
 21
78.414520646832955
 31
0.0
1001
ACAD
1000
ASC_BOUNDS
1002
{
1070
    19
1002
}
  0
LINE
  5
65
  8
2
 10
175.6924367843867
 20
112.114520646833
 30
0.0
 11
175.6924367843867
 21
78.414520646832955
 31
0.0
1001
ACAD
1000
ASC_BOUNDS
1002
{
1070
    19
1002
}
  0
LINE
  5
66
  8
0
 10
169.1924367843867
 20
125.26452064683291
 30
0.0
 11
169.1924367843867
 21
65.264520646833034
 31
0.0
1001
ACAD
1000
ASC_BOUNDS
1002
{
1070
    19
1002
}
  0
LINE
  5
67
  8
1
 10
164.69243678438681
 20
95.264520646832963
 30
0.0
 11
198.04923576789861
 21
95.264520646832963
 31
0.0
  0
LINE
  5
68
  8
2
 10
175.6924367843867
 20
79.264520646832963
 30
0.0
 11
185.29243678438681
 21
79.264520646833034
 31
0.0
1001
ACAD
1000
ASC_BOUNDS
1002
{
1070
    19
1002
}
  0
LINE
  5
69
  8
2
 10
176.29243678438681
 20
89.264520646833034
 30
0.0
 11
185.09243678438671
 21
89.264520646832963
 31
0.0
  0
LINE
  5
6A
  8
2
 10
175.6924367843867
 20
85.764520646832935
 30
0.0
 11
178.69243678438681
 21
85.764520646832935
 31
0.0
  0
LINE
  5
6B
  8
2
 10
175.6924367843867
 20
82.764520646832963
 30
0.0
 11
178.69243678438681
 21
82.764520646832963
 31
0.0
  0
LINE
  5
6C
  8
2
 10
175.6924367843867
 20
104.76452064683301
 30
0.0
 11
178.69243678438681
 21
104.76452064683301
 31
0.0
  0
LINE
  5
6D
  8
2
 10
176.29243678438681
 20
101.26452064683291
 30
0.0
 11
185.09243678438671
 21
101.26452064683291
 31
0.0
  0
ARC
  5
6E
  8
0
 10
180.6924367843867
 20
64.764520646832494
 30
0.0
 40
8.5
 50
30.00000000000011
 51
149.9999999999998
1001
ACAD
1000
ASC_BOUNDS
1002
{
1070
    19
1002
}
  0
LINE
  5
6F
  8
2
 10
175.6924367843867
 20
111.26452064683291
 30
0.0
 11
185.29243678438681
 21
111.26452064683291
 31
0.0
1001
ACAD
1000
ASC_BOUNDS
1002
{
1070
    19
1002
}
  0
LINE
  5
70
  8
2
 10
175.6924367843867
 20
107.76452064683291
 30
0.0
 11
178.69243678438681
 21
107.76452064683291
 31
0.0
  0
ARC
  5
71
  8
0
 10
180.6924367843867
 20
125.7645206468334
 30
0.0
 40
8.5
 50
210.00000000000011
 51
329.99999999999989
1001
ACAD
1000
ASC_BOUNDS
1002
{
1070
    19
1002
}
  0
TEXT
  5
13C
  8
0
 62
     3
 10
0.0
 20
0.0
 30
0.0
 40
10.0
  1
GRL60-R-SUS
  7
STANDARD1
  0
ENDSEC
  0
EOF
