  0
SECTION
  2
HEADER
  9
$ACADVER
  1
AC1009
  9
$INSBASE
 10
0.0
 20
0.0
 30
0.0
  9
$EXTMIN
 10
0.0
 20
-2.960436562073669
 30
0.0
  9
$EXTMAX
 10
154.90914796434339
 20
108.65746620009099
 30
0.0
  9
$LIMMIN
 10
0.0
 20
0.0
  9
$LIMMAX
 10
187.5
 20
135.0
  9
$ORTHOMODE
 70
     1
  9
$REGENMODE
 70
     1
  9
$FILLMODE
 70
     1
  9
$QTEXTMODE
 70
     0
  9
$MIRRTEXT
 70
     0
  9
$DRAGMODE
 70
     2
  9
$LTSCALE
 40
10.0
  9
$OSMODE
 70
  3071
  9
$ATTMODE
 70
     1
  9
$TEXTSIZE
 40
0.2
  9
$TRACEWID
 40
0.05
  9
$TEXTSTYLE
  7
STANDARD
  9
$CLAYER
  8
0
  9
$CELTYPE
  6
BYLAYER
  9
$CECOLOR
 62
   256
  9
$DIMSCALE
 40
0.5
  9
$DIMASZ
 40
3.0
  9
$DIMEXO
 40
2.0
  9
$DIMDLI
 40
0.3799999999999999
  9
$DIMRND
 40
0.0
  9
$DIMDLE
 40
0.0
  9
$DIMEXE
 40
2.0
  9
$DIMTP
 40
0.0
  9
$DIMTM
 40
0.0
  9
$DIMTXT
 40
3.2000000000000002
  9
$DIMCEN
 40
0.09
  9
$DIMTSZ
 40
0.0
  9
$DIMTOL
 70
     0
  9
$DIMLIM
 70
     0
  9
$DIMTIH
 70
     0
  9
$DIMTOH
 70
     0
  9
$DIMSE1
 70
     0
  9
$DIMSE2
 70
     0
  9
$DIMTAD
 70
     1
  9
$DIMZIN
 70
     0
  9
$DIMBLK
  1

  9
$DIMASO
 70
     0
  9
$DIMSHO
 70
     0
  9
$DIMPOST
  1

  9
$DIMAPOST
  1

  9
$DIMALT
 70
     0
  9
$DIMALTD
 70
     2
  9
$DIMALTF
 40
25.399999999999999
  9
$DIMLFAC
 40
1.0
  9
$DIMTOFL
 70
     0
  9
$DIMTVP
 40
1.6000000000000001
  9
$DIMTIX
 70
     1
  9
$DIMSOXD
 70
     0
  9
$DIMSAH
 70
     0
  9
$DIMBLK1
  1

  9
$DIMBLK2
  1

  9
$DIMSTYLE
  2
STANDARD
  9
$DIMCLRD
 70
     0
  9
$DIMCLRE
 70
     0
  9
$DIMCLRT
 70
     0
  9
$DIMTFAC
 40
1.0
  9
$DIMGAP
 40
0.09
  9
$LUNITS
 70
     2
  9
$LUPREC
 70
     4
  9
$SKETCHINC
 40
0.1
  9
$FILLETRAD
 40
0.4
  9
$AUNITS
 70
     0
  9
$AUPREC
 70
     0
  9
$MENU
  1
E:\r13\win\SUPPORT\ACAD
  9
$ELEVATION
 40
0.0
  9
$PELEVATION
 40
0.0
  9
$THICKNESS
 40
0.0
  9
$LIMCHECK
 70
     0
  9
$BLIPMODE
 70
     0
  9
$CHAMFERA
 40
0.0
  9
$CHAMFERB
 40
0.0
  9
$SKPOLY
 70
     0
  9
$TDCREATE
 40
2451824.6906229062
  9
$TDUPDATE
 40
2456598.6898671179
  9
$TDINDWG
 40
0.0220159375
  9
$TDUSRTIMER
 40
0.0220159375
  9
$USRTIMER
 70
     1
  9
$ANGBASE
 50
0.0
  9
$ANGDIR
 70
     0
  9
$PDMODE
 70
     0
  9
$PDSIZE
 40
0.0
  9
$PLINEWID
 40
0.0
  9
$COORDS
 70
     1
  9
$SPLFRAME
 70
     0
  9
$SPLINETYPE
 70
     6
  9
$SPLINESEGS
 70
     8
  9
$ATTDIA
 70
     0
  9
$ATTREQ
 70
     1
  9
$HANDLING
 70
     1
  9
$HANDSEED
  5
437
  9
$SURFTAB1
 70
     6
  9
$SURFTAB2
 70
     6
  9
$SURFTYPE
 70
     6
  9
$SURFU
 70
     6
  9
$SURFV
 70
     6
  9
$UCSNAME
  2

  9
$UCSORG
 10
0.0
 20
0.0
 30
0.0
  9
$UCSXDIR
 10
1.0
 20
0.0
 30
0.0
  9
$UCSYDIR
 10
0.0
 20
1.0
 30
0.0
  9
$PUCSNAME
  2

  9
$PUCSORG
 10
0.0
 20
0.0
 30
0.0
  9
$PUCSXDIR
 10
1.0
 20
0.0
 30
0.0
  9
$PUCSYDIR
 10
0.0
 20
1.0
 30
0.0
  9
$USERI1
 70
     0
  9
$USERI2
 70
     1
  9
$USERI3
 70
     0
  9
$USERI4
 70
     0
  9
$USERI5
 70
     0
  9
$USERR1
 40
0.0
  9
$USERR2
 40
0.0
  9
$USERR3
 40
0.0
  9
$USERR4
 40
0.0
  9
$USERR5
 40
0.0
  9
$WORLDVIEW
 70
     1
  9
$SHADEDGE
 70
     3
  9
$SHADEDIF
 70
    70
  9
$TILEMODE
 70
     1
  9
$MAXACTVP
 70
    16
  9
$PLIMCHECK
 70
     0
  9
$PEXTMIN
 10
1.0000000000000000E+020
 20
1.0000000000000000E+020
 30
1.0000000000000000E+020
  9
$PEXTMAX
 10
-1.0000000000000000E+020
 20
-1.0000000000000000E+020
 30
-1.0000000000000000E+020
  9
$PLIMMIN
 10
0.0
 20
0.0
  9
$PLIMMAX
 10
12.0
 20
9.0
  9
$UNITMODE
 70
     0
  9
$VISRETAIN
 70
     0
  9
$PLINEGEN
 70
     0
  9
$PSLTSCALE
 70
     0
  0
ENDSEC
  0
SECTION
  2
TABLES
  0
TABLE
  2
VPORT
 70
     1
  0
VPORT
  2
*ACTIVE
 70
     0
 10
0.0
 20
0.0
 11
1.0
 21
1.0
 12
93.74713919532617
 22
66.313465060797697
 13
0.0
 23
0.0
 14
5.0
 24
5.0
 15
5.0
 25
5.0
 16
0.0
 26
0.0
 36
1.0
 17
0.0
 27
0.0
 37
0.0
 40
140.15365342376049
 41
2.304913294797688
 42
50.0
 43
0.0
 44
0.0
 50
0.0
 51
0.0
 71
     0
 72
   500
 73
     1
 74
     0
 75
     0
 76
     0
 77
     0
 78
     2
  0
ENDTAB
  0
TABLE
  2
LTYPE
 70
     4
  0
LTYPE
  2
CONTINUOUS
 70
     0
  3
Solid Line
 72
    65
 73
     0
 40
0.0
  0
LTYPE
  2
CENTER
 70
     0
  3
____ _ ____ _ ____ _ ____ _ ____ _ ____ _ ____
 72
    65
 73
     4
 40
2.0
 49
1.25
 49
-0.25
 49
0.25
 49
-0.25
  0
LTYPE
  2
HIDDEN
 70
     0
  3
__ __ __ __ __ __ __ __ __ __ __ __ __ __ __ __
 72
    65
 73
     2
 40
0.375
 49
0.25
 49
-0.125
  0
LTYPE
  2
PHANTOM2
 70
     0
  3
___ _ _ ___ _ _ ___ _ _ ___ _ _
 72
    65
 73
     6
 40
1.25
 49
0.625
 49
-0.125
 49
0.125
 49
-0.125
 49
0.125
 49
-0.125
  0
ENDTAB
  0
TABLE
  2
LAYER
 70
     3
  0
LAYER
  2
0
 70
     0
 62
     7
  6
CONTINUOUS
  0
LAYER
  2
1
 70
     0
 62
     1
  6
CENTER
  0
LAYER
  2
2
 70
     0
 62
     2
  6
HIDDEN
  0
ENDTAB
  0
TABLE
  2
STYLE
 70
     2
  0
STYLE
  2
STANDARD
 70
     0
 40
0.0
 41
1.0
 50
0.0
 71
     0
 42
0.2
  3
TXT
  4
BIGFONT
  0
STYLE
  2
STANDARD1
 70
     0
 40
0.0
 41
1.0
 50
0.0
 71
     0
 42
3.0
  3
txt
  4

  0
ENDTAB
  0
TABLE
  2
VIEW
 70
     0
  0
ENDTAB
  0
TABLE
  2
UCS
 70
     0
  0
ENDTAB
  0
TABLE
  2
APPID
 70
     3
  0
APPID
  2
ACAD
 70
     0
  0
APPID
  2
ACAD_MLEADERVER
 70
     0
  0
APPID
  2
ACAD_NAV_VCDISPLAY
 70
     0
  0
ENDTAB
  0
TABLE
  2
DIMSTYLE
 70
     1
  0
DIMSTYLE
  2
STANDARD
 70
     0
  3

  4

  5

  6

  7

 40
1.0
 41
0.18
 42
0.0625
 43
0.38
 44
0.18
 45
0.0
 46
0.0
 47
0.0
 48
0.0
140
0.18
141
0.09
142
0.0
143
25.399999999999999
144
1.0
145
0.0
146
1.0
147
0.09
 71
     0
 72
     0
 73
     1
 74
     1
 75
     0
 76
     0
 77
     0
 78
     0
170
     0
171
     2
172
     0
173
     0
174
     0
175
     0
176
     0
177
     0
178
     0
  0
ENDTAB
  0
ENDSEC
  0
SECTION
  2
BLOCKS
  0
BLOCK
  8
0
  2
$MODEL_SPACE
 70
     0
 10
0.0
 20
0.0
 30
0.0
  3
$MODEL_SPACE
  1

  0
ENDBLK
  5
9
  8
0
  0
BLOCK
 67
     1
  8
0
  2
$PAPER_SPACE
 70
     0
 10
0.0
 20
0.0
 30
0.0
  3
$PAPER_SPACE
  1

  0
ENDBLK
  5
E
 67
     1
  8
0
  0
ENDSEC
  0
SECTION
  2
ENTITIES
  0
CIRCLE
  5
23F
  8
2
 10
57.90914796434447
 20
78.657466200090994
 30
0.0
 40
13.599999999999961
  0
CIRCLE
  5
240
  8
2
 10
57.90914796434447
 20
78.657466200090994
 30
0.0
 40
16.0
  0
LINE
  5
241
  8
0
 10
127.3373714547198
 20
103.65746620009099
 30
0.0
 11
127.3373714547198
 21
53.657466200090987
 31
0.0
  0
LINE
  5
242
  8
0
 10
145.48092447396709
 20
103.65746620009099
 30
0.0
 11
145.48092447396709
 21
53.657466200090987
 31
0.0
  0
LINE
  5
243
  8
1
 10
136.4091479643435
 20
108.65746620009099
 30
0.0
 11
136.4091479643435
 21
48.657466200090987
 31
0.0
  0
ARC
  5
244
  8
2
 10
144.20914796434329
 20
91.457466200090948
 30
0.0
 40
0.2
 50
0.0
 51
90.0
  0
LINE
  5
245
  8
2
 10
149.9091479643435
 20
89.65746620009088
 30
0.0
 11
144.40914796434339
 21
89.65746620009088
 31
0.0
  0
LINE
  5
246
  8
2
 10
128.40914796434421
 20
92.257466200090946
 30
0.0
 11
127.05914796434431
 21
92.257466200090946
 31
0.0
  0
LINE
  5
247
  8
2
 10
123.9091479643447
 20
91.657466200090937
 30
0.0
 11
122.9091479643444
 21
92.034816469280429
 31
0.0
  0
LINE
  5
248
  8
2
 10
123.9091479643447
 20
91.657466200090937
 30
0.0
 11
127.05914796434431
 21
91.657466200090937
 31
0.0
  0
LINE
  5
249
  8
2
 10
128.40914796434421
 20
91.65746620009088
 30
0.0
 11
144.20914796434329
 21
91.65746620009088
 31
0.0
  0
ARC
  5
24A
  8
2
 10
144.20914796434329
 20
65.857466200090926
 30
0.0
 40
0.2
 50
270.0
 51
0.0
  0
LINE
  5
24B
  8
2
 10
149.9091479643435
 20
67.65746620009088
 30
0.0
 11
144.40914796434339
 21
67.65746620009088
 31
0.0
  0
LINE
  5
24C
  8
2
 10
128.40914796434421
 20
65.057466200090914
 30
0.0
 11
127.05914796434431
 21
65.057466200090914
 31
0.0
  0
LINE
  5
24D
  8
2
 10
123.9091479643447
 20
65.657466200090937
 30
0.0
 11
122.9091479643444
 21
65.0801159309014
 31
0.0
  0
LINE
  5
24E
  8
2
 10
123.9091479643447
 20
65.657466200090937
 30
0.0
 11
127.05914796434431
 21
65.657466200090937
 31
0.0
  0
LINE
  5
24F
  8
2
 10
128.40914796434421
 20
65.657466200090937
 30
0.0
 11
144.20914796434329
 21
65.65746620009088
 31
0.0
  0
LINE
  5
250
  8
2
 10
127.05914796434431
 20
92.257466200090846
 30
0.0
 11
127.05914796434431
 21
65.057466200090914
 31
0.0
  0
LINE
  5
251
  8
2
 10
128.40914796434421
 20
92.257466200090946
 30
0.0
 11
128.40914796434421
 21
65.057466200090914
 31
0.0
  0
LINE
  5
252
  8
2
 10
123.9091479643447
 20
65.657466200090937
 30
0.0
 11
123.9091479643447
 21
91.657466200090937
 31
0.0
  0
LINE
  5
253
  8
2
 10
144.4091479643433
 20
91.457466200090948
 30
0.0
 11
144.40914796434339
 21
65.857466200090926
 31
0.0
  0
LINE
  5
254
  8
0
 10
138.9091479643435
 20
97.635542515647785
 30
0.0
 11
145.48092447396709
 21
103.65746620009099
 31
0.0
  0
LINE
  5
255
  8
0
 10
133.9091479643435
 20
94.657466200090994
 30
0.0
 11
138.9091479643435
 21
94.657466200090994
 31
0.0
1001
ACAD
1000
ASC_BOUNDS
1002
{
1070
    19
1002
}
  0
LINE
  5
256
  8
0
 10
149.9091479643435
 20
103.65746620009099
 30
0.0
 11
145.48092447396729
 21
103.65746620009099
 31
0.0
1001
ACAD
1000
ASC_BOUNDS
1002
{
1070
    19
1002
}
  0
LINE
  5
257
  8
0
 10
138.9091479643408
 20
97.635542515645355
 30
0.0
 11
138.90914796434379
 21
59.679389884534203
 31
0.0
  0
LINE
  5
258
  8
0
 10
133.9091479643435
 20
97.635542515647273
 30
0.0
 11
133.9091479643435
 21
59.67938988453443
 31
0.0
  0
LINE
  5
259
  8
0
 10
133.9091479643435
 20
62.657466200091001
 30
0.0
 11
138.9091479643435
 21
62.657466200091001
 31
0.0
1001
ACAD
1000
ASC_BOUNDS
1002
{
1070
    19
1002
}
  0
LINE
  5
25A
  8
0
 10
138.9091479643435
 20
59.679389884534203
 30
0.0
 11
145.48092447396709
 21
53.657466200090987
 31
0.0
  0
LINE
  5
25B
  8
0
 10
149.9091479643435
 20
53.657466200090987
 30
0.0
 11
145.48092447396729
 21
53.657466200090987
 31
0.0
1001
ACAD
1000
ASC_BOUNDS
1002
{
1070
    19
1002
}
  0
LINE
  5
25C
  8
0
 10
149.9091479643435
 20
53.657466200090987
 30
0.0
 11
149.9091479643435
 21
103.65746620009099
 31
0.0
1001
ACAD
1000
ASC_BOUNDS
1002
{
1070
    19
1002
}
  0
LINE
  5
25D
  8
0
 10
127.3373714547198
 20
103.65746620009099
 30
0.0
 11
122.9091479643444
 21
103.65746620009099
 31
0.0
1001
ACAD
1000
ASC_BOUNDS
1002
{
1070
    19
1002
}
  0
LINE
  5
25E
  8
0
 10
127.3373714547198
 20
53.657466200090987
 30
0.0
 11
122.9091479643444
 21
53.657466200090987
 31
0.0
1001
ACAD
1000
ASC_BOUNDS
1002
{
1070
    19
1002
}
  0
LINE
  5
25F
  8
0
 10
122.9091479643444
 20
53.657466200091449
 30
0.0
 11
122.9091479643444
 21
103.65746620009099
 31
0.0
1001
ACAD
1000
ASC_BOUNDS
1002
{
1070
    19
1002
}
  0
LINE
  5
260
  8
0
 10
133.9091479643435
 20
59.67938988453465
 30
0.0
 11
127.3373714547198
 21
53.657466200090987
 31
0.0
  0
LINE
  5
261
  8
0
 10
133.9091479643435
 20
97.635542515647344
 30
0.0
 11
127.3373714547198
 21
103.65746620009099
 31
0.0
  0
LINE
  5
262
  8
1
 10
117.9091479643444
 20
78.657466200090994
 30
0.0
 11
154.90914796434339
 21
78.657466200090994
 31
0.0
  0
LINE
  5
263
  8
2
 10
142.14119877191351
 20
88.657466200090994
 30
0.0
 11
144.4091479643445
 21
88.657466200090994
 31
0.0
  0
LINE
  5
264
  8
2
 10
142.14119877191351
 20
86.657466200090994
 30
0.0
 11
144.4091479643445
 21
86.657466200090994
 31
0.0
  0
ARC
  5
265
  8
2
 10
144.10914796434429
 20
91.357466200091267
 30
0.0
 40
0.3
 50
0.0
 51
90.0
1001
ACAD
1000
ASC_BOUNDS
1002
{
1070
    19
1002
}
  0
ARC
  5
266
  8
2
 10
144.10914796434429
 20
83.957466200091176
 30
0.0
 40
0.3
 50
270.0
 51
0.0
  0
LINE
  5
267
  8
2
 10
134.14119877191351
 20
86.657466200090994
 30
0.0
 11
136.4091479643435
 21
86.657466200090994
 31
0.0
  0
LINE
  5
268
  8
2
 10
134.14119877191351
 20
88.657466200090994
 30
0.0
 11
136.4091479643435
 21
88.657466200090994
 31
0.0
  0
ARC
  5
269
  8
2
 10
136.10914796434429
 20
91.357466200091267
 30
0.0
 40
0.3
 50
0.0
 51
90.0
1001
ACAD
1000
ASC_BOUNDS
1002
{
1070
    19
1002
}
  0
LINE
  5
26A
  8
2
 10
136.4091479643435
 20
86.657466200090994
 30
0.0
 11
138.6770971567754
 21
86.657466200090994
 31
0.0
  0
LINE
  5
26B
  8
2
 10
136.4091479643435
 20
88.657466200090994
 30
0.0
 11
138.6770971567754
 21
88.657466200090994
 31
0.0
  0
ARC
  5
26C
  8
2
 10
136.70914796434371
 20
91.357466200091267
 30
0.0
 40
0.3
 50
90.0
 51
180.0
  0
ARC
  5
26D
  8
2
 10
136.10914796434429
 20
83.957466200091176
 30
0.0
 40
0.3
 50
270.0
 51
0.0
  0
ARC
  5
26E
  8
2
 10
136.70914796434371
 20
83.957466200091176
 30
0.0
 40
0.3
 50
180.0
 51
270.0
  0
CIRCLE
  5
26F
  8
2
 10
140.40914796434441
 20
87.657466200090994
 30
0.0
 40
2.0
  0
LINE
  5
270
  8
2
 10
136.70914796434371
 20
83.657466200090994
 30
0.0
 11
144.10914796434429
 21
83.657466200090994
 31
0.0
  0
ARC
  5
271
  8
2
 10
144.10914796434429
 20
73.357466200091267
 30
0.0
 40
0.3
 50
0.0
 51
90.0
  0
LINE
  5
272
  8
2
 10
142.14119877191351
 20
70.657466200090994
 30
0.0
 11
144.4091479643445
 21
70.657466200090994
 31
0.0
  0
LINE
  5
273
  8
2
 10
142.14119877191351
 20
68.657466200090994
 30
0.0
 11
144.4091479643445
 21
68.657466200090994
 31
0.0
  0
ARC
  5
274
  8
2
 10
144.10914796434429
 20
65.957466200091176
 30
0.0
 40
0.3
 50
270.0
 51
0.0
  0
LINE
  5
275
  8
2
 10
134.14119877191351
 20
68.657466200090994
 30
0.0
 11
136.4091479643435
 21
68.657466200090994
 31
0.0
  0
LINE
  5
276
  8
2
 10
134.14119877191351
 20
70.657466200090994
 30
0.0
 11
136.4091479643435
 21
70.657466200090994
 31
0.0
  0
ARC
  5
277
  8
2
 10
136.10914796434429
 20
73.357466200091267
 30
0.0
 40
0.3
 50
0.0
 51
90.0
  0
ARC
  5
278
  8
2
 10
136.70914796434371
 20
73.357466200091267
 30
0.0
 40
0.3
 50
90.0
 51
180.0
  0
LINE
  5
279
  8
2
 10
136.4091479643435
 20
68.657466200090994
 30
0.0
 11
138.6770971567754
 21
68.657466200090994
 31
0.0
  0
LINE
  5
27A
  8
2
 10
136.4091479643435
 20
70.657466200090994
 30
0.0
 11
138.6770971567754
 21
70.657466200090994
 31
0.0
  0
ARC
  5
27B
  8
2
 10
136.10914796434429
 20
65.957466200091176
 30
0.0
 40
0.3
 50
270.0
 51
0.0
  0
ARC
  5
27C
  8
2
 10
136.70914796434371
 20
65.957466200091176
 30
0.0
 40
0.3
 50
180.0
 51
270.0
  0
LINE
  5
27D
  8
2
 10
136.70914796434371
 20
73.657466200090994
 30
0.0
 11
144.10914796434429
 21
73.657466200090994
 31
0.0
  0
CIRCLE
  5
27E
  8
2
 10
140.40914796434441
 20
69.657466200090994
 30
0.0
 40
2.0
  0
LINE
  5
27F
  8
2
 10
136.4091479643435
 20
91.357466200091267
 30
0.0
 11
136.40914796434359
 21
65.957466200091176
 31
0.0
1001
ACAD
1000
ASC_BOUNDS
1002
{
1070
    19
1002
}
  0
LINE
  5
280
  8
2
 10
128.4091479643435
 20
88.657466200090994
 30
0.0
 11
130.6770971567754
 21
88.657466200090994
 31
0.0
  0
LINE
  5
281
  8
2
 10
128.4091479643435
 20
86.657466200090994
 30
0.0
 11
130.6770971567754
 21
86.657466200090994
 31
0.0
  0
ARC
  5
282
  8
2
 10
128.70914796434371
 20
91.357466200091267
 30
0.0
 40
0.3
 50
90.0
 51
180.0
  0
ARC
  5
283
  8
2
 10
128.70914796434371
 20
83.957466200091176
 30
0.0
 40
0.3
 50
180.0
 51
270.0
  0
LINE
  5
284
  8
2
 10
128.4091479643435
 20
70.657466200090994
 30
0.0
 11
130.6770971567754
 21
70.657466200090994
 31
0.0
  0
LINE
  5
285
  8
2
 10
128.4091479643435
 20
68.657466200090994
 30
0.0
 11
130.6770971567754
 21
68.657466200090994
 31
0.0
  0
ARC
  5
286
  8
2
 10
128.70914796434371
 20
73.357466200091267
 30
0.0
 40
0.3
 50
90.0
 51
180.0
  0
ARC
  5
287
  8
2
 10
128.70914796434371
 20
65.957466200091176
 30
0.0
 40
0.3
 50
180.0
 51
270.0
  0
CIRCLE
  5
288
  8
2
 10
132.4091479643435
 20
87.657466200090994
 30
0.0
 40
2.0
  0
LINE
  5
289
  8
2
 10
128.70914796434371
 20
73.657466200090994
 30
0.0
 11
136.10914796434429
 21
73.657466200090994
 31
0.0
  0
LINE
  5
28A
  8
2
 10
128.70914796434371
 20
83.657466200090994
 30
0.0
 11
136.10914796434429
 21
83.657466200090994
 31
0.0
  0
CIRCLE
  5
28B
  8
2
 10
132.4091479643435
 20
69.657466200090994
 30
0.0
 40
2.0
  0
LINE
  5
28C
  8
1
 10
87.909147964344484
 20
78.657466200090994
 30
0.0
 11
27.90914796434447
 21
78.657466200090994
 31
0.0
  0
LINE
  5
28D
  8
1
 10
57.90914796434447
 20
108.65746620009099
 30
0.0
 11
57.90914796434447
 21
48.657466200090987
 31
0.0
  0
CIRCLE
  5
28E
  8
0
 10
57.90914796434447
 20
78.657466200090994
 30
0.0
 40
25.0
  0
CIRCLE
  5
28F
  8
0
 10
57.90914796434447
 20
78.657466200090994
 30
0.0
 40
5.0
  0
ARC
  5
290
  8
0
 10
58.709147964343522
 20
78.657466200090994
 30
0.0
 40
11.4
 50
37.306834345822061
 51
322.6931656541779
  0
LINE
  5
291
  8
0
 10
66.809287963326199
 20
84.889411318500493
 30
0.0
 11
67.776721550710135
 21
85.566815609103955
 31
0.0
  0
LINE
  5
292
  8
0
 10
68.403994607945208
 20
81.469551882932606
 30
0.0
 11
70.466183706101447
 21
82.022113786423787
 31
0.0
  0
CIRCLE
  5
293
  8
0
 10
67.606641285635646
 20
83.179481600716599
 30
0.0
 40
1.25
  0
ARC
  5
294
  8
0
 10
67.78513912684798
 20
83.262716511037866
 30
0.0
 40
1.8969505765761081
 50
120.95946438503179
 51
289.0405356149713
  0
ARC
  5
295
  8
0
 10
67.78513912684798
 20
74.052215889144236
 30
0.0
 40
1.8969505765761081
 50
70.959464385028738
 51
239.04053561496821
  0
CIRCLE
  5
296
  8
0
 10
67.606641285635646
 20
74.135450799465502
 30
0.0
 40
1.25
  0
LINE
  5
297
  8
0
 10
68.403994607945208
 20
75.845380517249623
 30
0.0
 11
70.466183706101447
 21
75.2928186137583
 31
0.0
  0
LINE
  5
298
  8
0
 10
66.809287963326199
 20
72.425521081681609
 30
0.0
 11
67.776721550710135
 21
71.748116791078132
 31
0.0
  0
CIRCLE
  5
299
  8
0
 10
57.90914796434356
 20
78.657466200090994
 30
0.0
 40
13.0
  0
LINE
  5
29A
  8
2
 10
127.2091479643442
 20
92.257466200090903
 30
0.0
 11
127.2091479643442
 21
65.057466200090971
 31
0.0
  0
LINE
  5
29B
  8
2
 10
127.2091479643442
 20
90.029361380754494
 30
0.0
 11
128.40914796434421
 21
90.029361380754494
 31
0.0
  0
LINE
  5
29C
  8
2
 10
127.2091479643442
 20
67.285571019427493
 30
0.0
 11
128.40914796434421
 21
67.285571019427493
 31
0.0
  0
TEXT
  5
3A2
  8
0
 62
     3
 10
0.0
 20
0.0
 30
0.0
 40
10.0
  1
GRL50S2-Y
  7
STANDARD1
  0
ENDSEC
  0
EOF
