  0
SECTION
  2
HEADER
  9
$ACADVER
  1
AC1009
  9
$INSBASE
 10
0.0
 20
0.0
 30
0.0
  9
$EXTMIN
 10
0.0
 20
-2.960436562073669
 30
0.0
  9
$EXTMAX
 10
154.41182831572559
 20
107.4528302813863
 30
0.0
  9
$LIMMIN
 10
0.0
 20
0.0
  9
$LIMMAX
 10
187.5
 20
135.0
  9
$ORTHOMODE
 70
     0
  9
$REGENMODE
 70
     1
  9
$FILLMODE
 70
     1
  9
$QTEXTMODE
 70
     0
  9
$MIRRTEXT
 70
     0
  9
$DRAGMODE
 70
     2
  9
$LTSCALE
 40
5.0
  9
$OSMODE
 70
  3071
  9
$ATTMODE
 70
     1
  9
$TEXTSIZE
 40
0.2
  9
$TRACEWID
 40
0.05
  9
$TEXTSTYLE
  7
STANDARD
  9
$CLAYER
  8
0
  9
$CELTYPE
  6
BYLAYER
  9
$CECOLOR
 62
   256
  9
$DIMSCALE
 40
0.5
  9
$DIMASZ
 40
3.0
  9
$DIMEXO
 40
2.0
  9
$DIMDLI
 40
0.3799999999999999
  9
$DIMRND
 40
0.0
  9
$DIMDLE
 40
0.0
  9
$DIMEXE
 40
2.0
  9
$DIMTP
 40
0.0
  9
$DIMTM
 40
0.0
  9
$DIMTXT
 40
3.2000000000000002
  9
$DIMCEN
 40
0.09
  9
$DIMTSZ
 40
0.0
  9
$DIMTOL
 70
     0
  9
$DIMLIM
 70
     0
  9
$DIMTIH
 70
     0
  9
$DIMTOH
 70
     0
  9
$DIMSE1
 70
     0
  9
$DIMSE2
 70
     0
  9
$DIMTAD
 70
     1
  9
$DIMZIN
 70
     0
  9
$DIMBLK
  1

  9
$DIMASO
 70
     0
  9
$DIMSHO
 70
     0
  9
$DIMPOST
  1

  9
$DIMAPOST
  1

  9
$DIMALT
 70
     0
  9
$DIMALTD
 70
     2
  9
$DIMALTF
 40
25.399999999999999
  9
$DIMLFAC
 40
1.0
  9
$DIMTOFL
 70
     0
  9
$DIMTVP
 40
1.6000000000000001
  9
$DIMTIX
 70
     1
  9
$DIMSOXD
 70
     0
  9
$DIMSAH
 70
     0
  9
$DIMBLK1
  1

  9
$DIMBLK2
  1

  9
$DIMSTYLE
  2
STANDARD
  9
$DIMCLRD
 70
     0
  9
$DIMCLRE
 70
     0
  9
$DIMCLRT
 70
     0
  9
$DIMTFAC
 40
1.0
  9
$DIMGAP
 40
0.09
  9
$LUNITS
 70
     2
  9
$LUPREC
 70
     4
  9
$SKETCHINC
 40
0.1
  9
$FILLETRAD
 40
0.4
  9
$AUNITS
 70
     0
  9
$AUPREC
 70
     0
  9
$MENU
  1
E:\r13\win\SUPPORT\ACAD
  9
$ELEVATION
 40
0.0
  9
$PELEVATION
 40
0.0
  9
$THICKNESS
 40
0.0
  9
$LIMCHECK
 70
     0
  9
$BLIPMODE
 70
     0
  9
$CHAMFERA
 40
0.0
  9
$CHAMFERB
 40
0.0
  9
$SKPOLY
 70
     0
  9
$TDCREATE
 40
2451824.6906229062
  9
$TDUPDATE
 40
2456598.6898020259
  9
$TDINDWG
 40
0.0268659838
  9
$TDUSRTIMER
 40
0.0268659838
  9
$USRTIMER
 70
     1
  9
$ANGBASE
 50
0.0
  9
$ANGDIR
 70
     0
  9
$PDMODE
 70
     0
  9
$PDSIZE
 40
0.0
  9
$PLINEWID
 40
0.0
  9
$COORDS
 70
     1
  9
$SPLFRAME
 70
     0
  9
$SPLINETYPE
 70
     6
  9
$SPLINESEGS
 70
     8
  9
$ATTDIA
 70
     0
  9
$ATTREQ
 70
     1
  9
$HANDLING
 70
     1
  9
$HANDSEED
  5
1D0
  9
$SURFTAB1
 70
     6
  9
$SURFTAB2
 70
     6
  9
$SURFTYPE
 70
     6
  9
$SURFU
 70
     6
  9
$SURFV
 70
     6
  9
$UCSNAME
  2

  9
$UCSORG
 10
0.0
 20
0.0
 30
0.0
  9
$UCSXDIR
 10
1.0
 20
0.0
 30
0.0
  9
$UCSYDIR
 10
0.0
 20
1.0
 30
0.0
  9
$PUCSNAME
  2

  9
$PUCSORG
 10
0.0
 20
0.0
 30
0.0
  9
$PUCSXDIR
 10
1.0
 20
0.0
 30
0.0
  9
$PUCSYDIR
 10
0.0
 20
1.0
 30
0.0
  9
$USERI1
 70
     0
  9
$USERI2
 70
     1
  9
$USERI3
 70
     0
  9
$USERI4
 70
     0
  9
$USERI5
 70
     0
  9
$USERR1
 40
0.0
  9
$USERR2
 40
0.0
  9
$USERR3
 40
0.0
  9
$USERR4
 40
0.0
  9
$USERR5
 40
0.0
  9
$WORLDVIEW
 70
     1
  9
$SHADEDGE
 70
     3
  9
$SHADEDIF
 70
    70
  9
$TILEMODE
 70
     1
  9
$MAXACTVP
 70
    16
  9
$PLIMCHECK
 70
     0
  9
$PEXTMIN
 10
1.0000000000000000E+020
 20
1.0000000000000000E+020
 30
1.0000000000000000E+020
  9
$PEXTMAX
 10
-1.0000000000000000E+020
 20
-1.0000000000000000E+020
 30
-1.0000000000000000E+020
  9
$PLIMMIN
 10
0.0
 20
0.0
  9
$PLIMMAX
 10
12.0
 20
9.0
  9
$UNITMODE
 70
     0
  9
$VISRETAIN
 70
     0
  9
$PLINEGEN
 70
     0
  9
$PSLTSCALE
 70
     0
  0
ENDSEC
  0
SECTION
  2
TABLES
  0
TABLE
  2
VPORT
 70
     1
  0
VPORT
  2
*ACTIVE
 70
     0
 10
0.0
 20
0.0
 11
1.0
 21
1.0
 12
93.74713919532617
 22
66.313465060797697
 13
0.0
 23
0.0
 14
5.0
 24
5.0
 15
5.0
 25
5.0
 16
0.0
 26
0.0
 36
1.0
 17
0.0
 27
0.0
 37
0.0
 40
140.15365342376049
 41
2.304913294797688
 42
50.0
 43
0.0
 44
0.0
 50
0.0
 51
0.0
 71
     0
 72
   500
 73
     1
 74
     0
 75
     0
 76
     0
 77
     0
 78
     2
  0
ENDTAB
  0
TABLE
  2
LTYPE
 70
     4
  0
LTYPE
  2
CONTINUOUS
 70
     0
  3
Solid Line
 72
    65
 73
     0
 40
0.0
  0
LTYPE
  2
CENTER
 70
     0
  3
____ _ ____ _ ____ _ ____ _ ____ _ ____ _ ____
 72
    65
 73
     4
 40
2.0
 49
1.25
 49
-0.25
 49
0.25
 49
-0.25
  0
LTYPE
  2
HIDDEN
 70
     0
  3
__ __ __ __ __ __ __ __ __ __ __ __ __ __ __ __
 72
    65
 73
     2
 40
0.375
 49
0.25
 49
-0.125
  0
LTYPE
  2
PHANTOM2
 70
     0
  3
___ _ _ ___ _ _ ___ _ _ ___ _ _
 72
    65
 73
     6
 40
1.25
 49
0.625
 49
-0.125
 49
0.125
 49
-0.125
 49
0.125
 49
-0.125
  0
ENDTAB
  0
TABLE
  2
LAYER
 70
     3
  0
LAYER
  2
0
 70
     0
 62
     7
  6
CONTINUOUS
  0
LAYER
  2
1
 70
     0
 62
     1
  6
CENTER
  0
LAYER
  2
2
 70
     0
 62
     2
  6
HIDDEN
  0
ENDTAB
  0
TABLE
  2
STYLE
 70
     2
  0
STYLE
  2
STANDARD
 70
     0
 40
0.0
 41
1.0
 50
0.0
 71
     0
 42
0.2
  3
TXT
  4
BIGFONT
  0
STYLE
  2
STANDARD1
 70
     0
 40
0.0
 41
1.0
 50
0.0
 71
     0
 42
3.0
  3
txt
  4

  0
ENDTAB
  0
TABLE
  2
VIEW
 70
     0
  0
ENDTAB
  0
TABLE
  2
UCS
 70
     0
  0
ENDTAB
  0
TABLE
  2
APPID
 70
     3
  0
APPID
  2
ACAD
 70
     0
  0
APPID
  2
ACAD_MLEADERVER
 70
     0
  0
APPID
  2
ACAD_NAV_VCDISPLAY
 70
     0
  0
ENDTAB
  0
TABLE
  2
DIMSTYLE
 70
     1
  0
DIMSTYLE
  2
STANDARD
 70
     0
  3

  4

  5

  6

  7

 40
1.0
 41
0.18
 42
0.0625
 43
0.38
 44
0.18
 45
0.0
 46
0.0
 47
0.0
 48
0.0
140
0.18
141
0.09
142
0.0
143
25.399999999999999
144
1.0
145
0.0
146
1.0
147
0.09
 71
     0
 72
     0
 73
     1
 74
     1
 75
     0
 76
     0
 77
     0
 78
     0
170
     0
171
     2
172
     0
173
     0
174
     0
175
     0
176
     0
177
     0
178
     0
  0
ENDTAB
  0
ENDSEC
  0
SECTION
  2
BLOCKS
  0
BLOCK
  8
0
  2
$MODEL_SPACE
 70
     0
 10
0.0
 20
0.0
 30
0.0
  3
$MODEL_SPACE
  1

  0
ENDBLK
  5
9
  8
0
  0
BLOCK
 67
     1
  8
0
  2
$PAPER_SPACE
 70
     0
 10
0.0
 20
0.0
 30
0.0
  3
$PAPER_SPACE
  1

  0
ENDBLK
  5
E
 67
     1
  8
0
  0
ENDSEC
  0
SECTION
  2
ENTITIES
  0
LINE
  5
26
  8
0
 10
149.41182832676981
 20
95.452830117834338
 30
0.0
 11
135.27836079637689
 21
95.452830117834367
 31
0.0
  0
LINE
  5
28
  8
0
 10
134.87988291714021
 20
95.817967820735333
 30
0.0
 11
134.29940768208891
 21
102.4528301178343
 31
0.0
  0
LINE
  5
29
  8
0
 10
134.29940768208891
 20
102.4528301178343
 30
0.0
 11
130.41182832676981
 21
102.4528301178343
 31
0.0
  0
ARC
  5
2A
  8
0
 10
135.27836079637689
 20
95.852830117834358
 30
0.0
 40
0.4
 50
184.9999999999965
 51
270.0
  0
ARC
  5
2B
  8
0
 10
135.27836079637689
 20
59.052830117834759
 30
0.0
 40
0.4
 50
90.0
 51
175.0000000000035
  0
LINE
  5
2C
  8
0
 10
134.87988291714021
 20
59.087692414933798
 30
0.0
 11
134.29940768208891
 21
52.452830117834772
 31
0.0
  0
LINE
  5
2D
  8
0
 10
149.41182832676981
 20
59.452830117834772
 30
0.0
 11
135.27836079637689
 21
59.452830117834772
 31
0.0
  0
LINE
  5
2E
  8
0
 10
134.29940768208891
 20
52.452830117834772
 30
0.0
 11
130.41182832676981
 21
52.452830117834772
 31
0.0
  0
LINE
  5
2F
  8
1
 10
95.411828300386446
 20
77.452830281386355
 30
0.0
 11
35.411828300386453
 21
77.452830281386355
 31
0.0
  0
LINE
  5
32
  8
1
 10
65.411828300386446
 20
107.4528302813863
 30
0.0
 11
65.411828300386446
 21
47.452830281386362
 31
0.0
  0
CIRCLE
  5
33
  8
2
 10
65.411828300386446
 20
77.452830281386355
 30
0.0
 40
18.0
  0
CIRCLE
  5
36
  8
0
 10
65.411828300386446
 20
77.452830281386355
 30
0.0
 40
25.0
  0
CIRCLE
  5
37
  8
0
 10
65.411828300386446
 20
77.452830281386355
 30
0.0
 40
5.0
  0
CIRCLE
  5
38
  8
2
 10
65.411828300385537
 20
77.452830281386355
 30
0.0
 40
13.6
  0
ARC
  5
39
  8
0
 10
66.211828300385548
 20
77.452830281386355
 30
0.0
 40
11.4
 50
37.306834345821578
 51
322.69316565417859
  0
LINE
  5
3A
  8
0
 10
74.311968299368175
 20
83.684775399795839
 30
0.0
 11
75.279401886752112
 21
84.362179690399387
 31
0.0
  0
LINE
  5
3B
  8
0
 10
75.906674943987184
 20
80.264915964227924
 30
0.0
 11
77.968864042143423
 21
80.817477867719219
 31
0.0
  0
CIRCLE
  5
3C
  8
0
 10
75.10932162167768
 20
81.974845682011946
 30
0.0
 40
1.25
  0
ARC
  5
3D
  8
0
 10
75.287819462889956
 20
82.058080592333283
 30
0.0
 40
1.8969505765761081
 50
120.9594643850297
 51
289.04053561497119
  0
ARC
  5
3E
  8
0
 10
75.287819462889956
 20
72.847579970439611
 30
0.0
 40
1.8969505765761081
 50
70.959464385028809
 51
239.04053561497031
  0
CIRCLE
  5
3F
  8
0
 10
75.10932162167768
 20
72.930814880760906
 30
0.0
 40
1.25
  0
LINE
  5
40
  8
0
 10
75.906674943987184
 20
74.640744598544941
 30
0.0
 11
77.968864042143423
 21
74.088182695053675
 31
0.0
  0
LINE
  5
41
  8
0
 10
74.311968299368175
 20
71.220885162977012
 30
0.0
 11
75.279401886752112
 21
70.543480872373493
 31
0.0
  0
CIRCLE
  5
42
  8
0
 10
65.411828300385537
 20
77.452830281386355
 30
0.0
 40
13.0
  0
LINE
  5
43
  8
2
 10
77.968864042143423
 20
74.088182695053675
 30
0.0
 11
78.548419537916857
 21
73.932891267992247
 31
0.0
  0
LINE
  5
44
  8
2
 10
77.968864042143423
 20
80.817477867719219
 30
0.0
 11
78.548419537916914
 21
80.97276929478079
 31
0.0
  0
LINE
  5
45
  8
2
 10
143.9118283003863
 20
90.152830281386287
 30
0.0
 11
143.9118283003863
 21
64.652830281386343
 31
0.0
1001
ACAD
1000
ASC_BOUNDS
1002
{
1070
    19
1005
0
1005
0
1002
}
  0
LINE
  5
46
  8
2
 10
135.91182830038619
 20
91.052830281386321
 30
0.0
 11
135.91182830038619
 21
63.85283028138636
 31
0.0
1001
ACAD
1000
ASC_BOUNDS
1002
{
1070
    19
1005
0
1005
0
1002
}
  0
LINE
  5
47
  8
2
 10
134.71182830038609
 20
91.052830281386321
 30
0.0
 11
134.71182830038609
 21
63.85283028138636
 31
0.0
  0
LINE
  5
48
  8
2
 10
134.56182830038631
 20
91.052830281386321
 30
0.0
 11
134.56182830038631
 21
63.85283028138636
 31
0.0
1001
ACAD
1000
ASC_BOUNDS
1002
{
1070
    19
1005
0
1005
0
1002
}
  0
LINE
  5
49
  8
2
 10
136.2118283003862
 20
82.452830281386355
 30
0.0
 11
143.61182830038629
 21
82.452830281386355
 31
0.0
  0
LINE
  5
4A
  8
2
 10
135.91182830038619
 20
85.452830281386326
 30
0.0
 11
138.17977749281721
 21
85.452830281386326
 31
0.0
  0
LINE
  5
4B
  8
2
 10
135.91182830038619
 20
87.452830281386355
 30
0.0
 11
138.17977749281721
 21
87.452830281386355
 31
0.0
  0
CIRCLE
  5
4C
  8
2
 10
139.9118283003863
 20
86.452830281386397
 30
0.0
 40
2.0
  0
LINE
  5
4D
  8
2
 10
141.64387910795531
 20
87.452830281386355
 30
0.0
 11
143.9118283003863
 21
87.452830281386355
 31
0.0
  0
LINE
  5
4E
  8
2
 10
141.64387910795531
 20
85.452830281386326
 30
0.0
 11
143.9118283003863
 21
85.452830281386326
 31
0.0
  0
ARC
  5
4F
  8
2
 10
136.2118283003862
 20
90.152830281386287
 30
0.0
 40
0.3
 50
90.0
 51
180.0
  0
ARC
  5
50
  8
2
 10
143.61182830038629
 20
90.152830281386287
 30
0.0
 40
0.3
 50
0.0
 51
90.0
1001
ACAD
1000
ASC_BOUNDS
1002
{
1070
    19
1005
0
1002
}
  0
ARC
  5
51
  8
2
 10
136.2118283003862
 20
82.752830281386366
 30
0.0
 40
0.3
 50
180.0
 51
270.0
  0
ARC
  5
52
  8
2
 10
143.61182830038629
 20
82.752830281386366
 30
0.0
 40
0.3
 50
270.0
 51
0.0
  0
ARC
  5
53
  8
2
 10
143.61182830038629
 20
72.152830281386343
 30
0.0
 40
0.3
 50
0.0
 51
90.0
  0
ARC
  5
54
  8
2
 10
136.2118283003862
 20
72.152830281386343
 30
0.0
 40
0.3
 50
90.0
 51
180.0
  0
LINE
  5
55
  8
2
 10
136.2118283003862
 20
72.452830281386355
 30
0.0
 11
143.61182830038629
 21
72.452830281386355
 31
0.0
  0
LINE
  5
56
  8
2
 10
141.64387910795531
 20
69.452830281386383
 30
0.0
 11
143.9118283003863
 21
69.452830281386383
 31
0.0
  0
LINE
  5
57
  8
2
 10
141.64387910795531
 20
67.452830281386355
 30
0.0
 11
143.9118283003863
 21
67.452830281386355
 31
0.0
  0
CIRCLE
  5
58
  8
2
 10
139.9118283003863
 20
68.452830281386298
 30
0.0
 40
2.0
  0
LINE
  5
59
  8
2
 10
135.91182830038619
 20
67.452830281386355
 30
0.0
 11
138.17977749281721
 21
67.452830281386355
 31
0.0
  0
LINE
  5
5A
  8
2
 10
135.91182830038619
 20
69.452830281386383
 30
0.0
 11
138.17977749281721
 21
69.452830281386383
 31
0.0
  0
ARC
  5
5B
  8
2
 10
136.2118283003862
 20
64.752830281386395
 30
0.0
 40
0.3
 50
180.0
 51
270.0
  0
ARC
  5
5C
  8
2
 10
143.61182830038629
 20
64.752830281386395
 30
0.0
 40
0.3
 50
270.0
 51
0.0
  0
LINE
  5
5D
  8
2
 10
134.71182830038609
 20
88.824725462049855
 30
0.0
 11
135.91182830038619
 21
88.824725462049855
 31
0.0
  0
LINE
  5
5E
  8
2
 10
134.71182830038609
 20
66.080935100722854
 30
0.0
 11
135.91182830038619
 21
66.080935100722854
 31
0.0
  0
ARC
  5
5F
  8
2
 10
143.7118283003862
 20
64.652830281386343
 30
0.0
 40
0.2
 50
270.0
 51
0.0
1001
ACAD
1000
ASC_BOUNDS
1002
{
1070
    19
1005
0
1002
}
  0
ARC
  5
60
  8
2
 10
143.7118283003862
 20
90.252830281386366
 30
0.0
 40
0.2
 50
0.0
 51
90.0
1001
ACAD
1000
ASC_BOUNDS
1002
{
1070
    19
1005
0
1002
}
  0
LINE
  5
61
  8
2
 10
131.41182830038659
 20
90.452830281386298
 30
0.0
 11
134.56182830038631
 21
90.452830281386298
 31
0.0
1001
ACAD
1000
ASC_BOUNDS
1002
{
1070
    19
1005
0
1002
}
  0
LINE
  5
62
  8
2
 10
135.91182830038619
 20
91.052830281386321
 30
0.0
 11
134.56182830038631
 21
91.052830281386321
 31
0.0
1001
ACAD
1000
ASC_BOUNDS
1002
{
1070
    19
1005
0
1005
0
1002
}
  0
LINE
  5
63
  8
2
 10
135.91182830038619
 20
90.452830281386298
 30
0.0
 11
143.7118283003862
 21
90.452830281386298
 31
0.0
1001
ACAD
1000
ASC_BOUNDS
1002
{
1070
    19
1005
0
1002
}
  0
LINE
  5
64
  8
2
 10
131.41182830038659
 20
90.452830281386298
 30
0.0
 11
130.41182830038639
 21
90.830180550575847
 31
0.0
1001
ACAD
1000
ASC_BOUNDS
1002
{
1070
    19
1005
0
1002
}
  0
LINE
  5
65
  8
2
 10
149.41182830038639
 20
88.452830281386284
 30
0.0
 11
143.9118283003863
 21
88.452830281386284
 31
0.0
1001
ACAD
1000
ASC_BOUNDS
1002
{
1070
    19
1005
0
1002
}
  0
LINE
  5
66
  8
2
 10
149.41182830038639
 20
66.452830281386412
 30
0.0
 11
143.9118283003863
 21
66.452830281386412
 31
0.0
1001
ACAD
1000
ASC_BOUNDS
1002
{
1070
    19
1005
0
1002
}
  0
LINE
  5
67
  8
2
 10
131.41182830038659
 20
64.452830281386383
 30
0.0
 11
131.41182830038659
 21
90.452830281386298
 31
0.0
  0
LINE
  5
68
  8
2
 10
131.41182830038659
 20
64.452830281386383
 30
0.0
 11
130.41182830038639
 21
63.875480012196761
 31
0.0
1001
ACAD
1000
ASC_BOUNDS
1002
{
1070
    19
1005
0
1002
}
  0
LINE
  5
69
  8
2
 10
135.91182830038619
 20
64.452830281386383
 30
0.0
 11
143.7118283003862
 21
64.452830281386383
 31
0.0
1001
ACAD
1000
ASC_BOUNDS
1002
{
1070
    19
1005
0
1002
}
  0
LINE
  5
6A
  8
2
 10
135.91182830038619
 20
63.85283028138636
 30
0.0
 11
134.56182830038631
 21
63.85283028138636
 31
0.0
1001
ACAD
1000
ASC_BOUNDS
1002
{
1070
    19
1005
0
1005
0
1002
}
  0
LINE
  5
6B
  8
2
 10
131.41182830038659
 20
64.452830281386383
 30
0.0
 11
134.56182830038631
 21
64.452830281386383
 31
0.0
1001
ACAD
1000
ASC_BOUNDS
1002
{
1070
    19
1005
0
1002
}
  0
LINE
  5
6C
  8
1
 10
125.4118283003864
 20
77.452830281386355
 30
0.0
 11
154.41182831572559
 21
77.452830281386355
 31
0.0
  0
LINE
  5
6D
  8
0
 10
149.41182830468139
 20
59.452830117834772
 30
0.0
 11
149.41182832676981
 21
95.452830117834338
 31
0.0
1001
ACAD
1000
ASC_BOUNDS
1002
{
1070
    19
1005
0
1005
0
1002
}
  0
LINE
  5
6E
  8
0
 10
130.41182830038639
 20
52.452830281386639
 30
0.0
 11
130.41182830038639
 21
102.4528302813862
 31
0.0
1001
ACAD
1000
ASC_BOUNDS
1002
{
1070
    19
1005
0
1005
0
1005
0
1005
0
1002
}
  0
LINE
  5
8B
  8
0
 10
134.29940768208891
 20
102.4528301178343
 30
0.0
 11
134.29940768208891
 21
52.452830117834772
 31
0.0
  0
LINE
  5
8C
  8
0
 10
135.0081247133306
 20
95.557919183110329
 30
0.0
 11
135.0081247133306
 21
59.347741052558803
 31
0.0
  0
TEXT
  5
13B
  8
0
 62
     3
 10
0.0
 20
0.0
 30
0.0
 40
10.0
  1
GRL50S-L
  7
STANDARD1
  0
ENDSEC
  0
EOF
