  0
SECTION
  2
HEADER
  9
$ACADVER
  1
AC1009
  9
$INSBASE
 10
0.0
 20
0.0
 30
0.0
  9
$EXTMIN
 10
0.0
 20
-2.960436562073669
 30
0.0
  9
$EXTMAX
 10
156.41795851209201
 20
106.6994723721531
 30
0.0
  9
$LIMMIN
 10
0.0
 20
0.0
  9
$LIMMAX
 10
187.5
 20
135.0
  9
$ORTHOMODE
 70
     0
  9
$REGENMODE
 70
     1
  9
$FILLMODE
 70
     1
  9
$QTEXTMODE
 70
     0
  9
$MIRRTEXT
 70
     0
  9
$DRAGMODE
 70
     2
  9
$LTSCALE
 40
5.0
  9
$OSMODE
 70
  3071
  9
$ATTMODE
 70
     1
  9
$TEXTSIZE
 40
0.2
  9
$TRACEWID
 40
0.05
  9
$TEXTSTYLE
  7
STANDARD
  9
$CLAYER
  8
0
  9
$CELTYPE
  6
BYLAYER
  9
$CECOLOR
 62
   256
  9
$DIMSCALE
 40
0.5
  9
$DIMASZ
 40
3.0
  9
$DIMEXO
 40
2.0
  9
$DIMDLI
 40
0.3799999999999999
  9
$DIMRND
 40
0.0
  9
$DIMDLE
 40
0.0
  9
$DIMEXE
 40
2.0
  9
$DIMTP
 40
0.0
  9
$DIMTM
 40
0.0
  9
$DIMTXT
 40
3.2000000000000002
  9
$DIMCEN
 40
0.09
  9
$DIMTSZ
 40
0.0
  9
$DIMTOL
 70
     0
  9
$DIMLIM
 70
     0
  9
$DIMTIH
 70
     0
  9
$DIMTOH
 70
     0
  9
$DIMSE1
 70
     0
  9
$DIMSE2
 70
     0
  9
$DIMTAD
 70
     1
  9
$DIMZIN
 70
     0
  9
$DIMBLK
  1

  9
$DIMASO
 70
     0
  9
$DIMSHO
 70
     0
  9
$DIMPOST
  1

  9
$DIMAPOST
  1

  9
$DIMALT
 70
     0
  9
$DIMALTD
 70
     2
  9
$DIMALTF
 40
25.399999999999999
  9
$DIMLFAC
 40
1.0
  9
$DIMTOFL
 70
     0
  9
$DIMTVP
 40
1.6000000000000001
  9
$DIMTIX
 70
     1
  9
$DIMSOXD
 70
     0
  9
$DIMSAH
 70
     0
  9
$DIMBLK1
  1

  9
$DIMBLK2
  1

  9
$DIMSTYLE
  2
STANDARD
  9
$DIMCLRD
 70
     0
  9
$DIMCLRE
 70
     0
  9
$DIMCLRT
 70
     0
  9
$DIMTFAC
 40
1.0
  9
$DIMGAP
 40
0.09
  9
$LUNITS
 70
     2
  9
$LUPREC
 70
     4
  9
$SKETCHINC
 40
0.1
  9
$FILLETRAD
 40
0.4
  9
$AUNITS
 70
     0
  9
$AUPREC
 70
     0
  9
$MENU
  1
E:\r13\win\SUPPORT\ACAD
  9
$ELEVATION
 40
0.0
  9
$PELEVATION
 40
0.0
  9
$THICKNESS
 40
0.0
  9
$LIMCHECK
 70
     0
  9
$BLIPMODE
 70
     0
  9
$CHAMFERA
 40
0.0
  9
$CHAMFERB
 40
0.0
  9
$SKPOLY
 70
     0
  9
$TDCREATE
 40
2451824.691623183
  9
$TDUPDATE
 40
2456598.6896838541
  9
$TDINDWG
 40
0.0019929745
  9
$TDUSRTIMER
 40
0.0019929745
  9
$USRTIMER
 70
     1
  9
$ANGBASE
 50
0.0
  9
$ANGDIR
 70
     0
  9
$PDMODE
 70
     0
  9
$PDSIZE
 40
0.0
  9
$PLINEWID
 40
0.0
  9
$COORDS
 70
     1
  9
$SPLFRAME
 70
     0
  9
$SPLINETYPE
 70
     6
  9
$SPLINESEGS
 70
     8
  9
$ATTDIA
 70
     0
  9
$ATTREQ
 70
     1
  9
$HANDLING
 70
     1
  9
$HANDSEED
  5
1D1
  9
$SURFTAB1
 70
     6
  9
$SURFTAB2
 70
     6
  9
$SURFTYPE
 70
     6
  9
$SURFU
 70
     6
  9
$SURFV
 70
     6
  9
$UCSNAME
  2

  9
$UCSORG
 10
0.0
 20
0.0
 30
0.0
  9
$UCSXDIR
 10
1.0
 20
0.0
 30
0.0
  9
$UCSYDIR
 10
0.0
 20
1.0
 30
0.0
  9
$PUCSNAME
  2

  9
$PUCSORG
 10
0.0
 20
0.0
 30
0.0
  9
$PUCSXDIR
 10
1.0
 20
0.0
 30
0.0
  9
$PUCSYDIR
 10
0.0
 20
1.0
 30
0.0
  9
$USERI1
 70
     0
  9
$USERI2
 70
     1
  9
$USERI3
 70
     0
  9
$USERI4
 70
     0
  9
$USERI5
 70
     0
  9
$USERR1
 40
0.0
  9
$USERR2
 40
0.0
  9
$USERR3
 40
0.0
  9
$USERR4
 40
0.0
  9
$USERR5
 40
0.0
  9
$WORLDVIEW
 70
     1
  9
$SHADEDGE
 70
     3
  9
$SHADEDIF
 70
    70
  9
$TILEMODE
 70
     1
  9
$MAXACTVP
 70
    16
  9
$PLIMCHECK
 70
     0
  9
$PEXTMIN
 10
1.0000000000000000E+020
 20
1.0000000000000000E+020
 30
1.0000000000000000E+020
  9
$PEXTMAX
 10
-1.0000000000000000E+020
 20
-1.0000000000000000E+020
 30
-1.0000000000000000E+020
  9
$PLIMMIN
 10
0.0
 20
0.0
  9
$PLIMMAX
 10
12.0
 20
9.0
  9
$UNITMODE
 70
     0
  9
$VISRETAIN
 70
     0
  9
$PLINEGEN
 70
     0
  9
$PSLTSCALE
 70
     0
  0
ENDSEC
  0
SECTION
  2
TABLES
  0
TABLE
  2
VPORT
 70
     1
  0
VPORT
  2
*ACTIVE
 70
     0
 10
0.0
 20
0.0
 11
1.0
 21
1.0
 12
93.74713919532617
 22
66.313465060797697
 13
0.0
 23
0.0
 14
5.0
 24
5.0
 15
5.0
 25
5.0
 16
0.0
 26
0.0
 36
1.0
 17
0.0
 27
0.0
 37
0.0
 40
140.15365342376049
 41
2.304913294797688
 42
50.0
 43
0.0
 44
0.0
 50
0.0
 51
0.0
 71
     0
 72
   500
 73
     1
 74
     0
 75
     0
 76
     0
 77
     0
 78
     2
  0
ENDTAB
  0
TABLE
  2
LTYPE
 70
     4
  0
LTYPE
  2
CONTINUOUS
 70
     0
  3
Solid Line
 72
    65
 73
     0
 40
0.0
  0
LTYPE
  2
CENTER
 70
     0
  3
____ _ ____ _ ____ _ ____ _ ____ _ ____ _ ____
 72
    65
 73
     4
 40
2.0
 49
1.25
 49
-0.25
 49
0.25
 49
-0.25
  0
LTYPE
  2
HIDDEN
 70
     0
  3
_ _ _ _ _ _ _ _ _ _ _ _ _ _ _ _ _ _ _ _ _ _ _
 72
    65
 73
     2
 40
0.375
 49
0.25
 49
-0.125
  0
LTYPE
  2
PHANTOM2
 70
     0
  3
___ _ _ ___ _ _ ___ _ _ ___ _ _
 72
    65
 73
     6
 40
1.25
 49
0.625
 49
-0.125
 49
0.125
 49
-0.125
 49
0.125
 49
-0.125
  0
ENDTAB
  0
TABLE
  2
LAYER
 70
     3
  0
LAYER
  2
0
 70
     0
 62
     7
  6
CONTINUOUS
  0
LAYER
  2
1
 70
     0
 62
     1
  6
CENTER
  0
LAYER
  2
2
 70
     0
 62
     2
  6
HIDDEN
  0
ENDTAB
  0
TABLE
  2
STYLE
 70
     2
  0
STYLE
  2
STANDARD
 70
     0
 40
0.0
 41
1.0
 50
0.0
 71
     0
 42
0.2
  3
TXT
  4
BIGFONT
  0
STYLE
  2
STANDARD1
 70
     0
 40
0.0
 41
1.0
 50
0.0
 71
     0
 42
3.0
  3
txt
  4

  0
ENDTAB
  0
TABLE
  2
VIEW
 70
     0
  0
ENDTAB
  0
TABLE
  2
UCS
 70
     0
  0
ENDTAB
  0
TABLE
  2
APPID
 70
     3
  0
APPID
  2
ACAD
 70
     0
  0
APPID
  2
ACAD_MLEADERVER
 70
     0
  0
APPID
  2
ACAD_NAV_VCDISPLAY
 70
     0
  0
ENDTAB
  0
TABLE
  2
DIMSTYLE
 70
     1
  0
DIMSTYLE
  2
STANDARD
 70
     0
  3

  4

  5

  6

  7

 40
1.0
 41
0.18
 42
0.0625
 43
0.38
 44
0.18
 45
0.0
 46
0.0
 47
0.0
 48
0.0
140
0.18
141
0.09
142
0.0
143
25.399999999999999
144
1.0
145
0.0
146
1.0
147
0.09
 71
     0
 72
     0
 73
     1
 74
     1
 75
     0
 76
     0
 77
     0
 78
     0
170
     0
171
     2
172
     0
173
     0
174
     0
175
     0
176
     0
177
     0
178
     0
  0
ENDTAB
  0
ENDSEC
  0
SECTION
  2
BLOCKS
  0
BLOCK
  8
0
  2
$MODEL_SPACE
 70
     0
 10
0.0
 20
0.0
 30
0.0
  3
$MODEL_SPACE
  1

  0
ENDBLK
  5
9
  8
0
  0
BLOCK
 67
     1
  8
0
  2
$PAPER_SPACE
 70
     0
 10
0.0
 20
0.0
 30
0.0
  3
$PAPER_SPACE
  1

  0
ENDBLK
  5
E
 67
     1
  8
0
  0
ENDSEC
  0
SECTION
  2
ENTITIES
  0
LINE
  5
26
  8
0
 10
149.63483687696259
 20
101.6994723721528
 30
0.0
 11
149.63483687696259
 21
51.699472372153707
 31
0.0
  0
LINE
  5
27
  8
0
 10
135.20108014722189
 20
101.6994723721529
 30
0.0
 11
135.20108014722189
 21
51.699472372153672
 31
0.0
  0
CIRCLE
  5
28
  8
2
 10
51.175434868169532
 20
76.699472372153082
 30
0.0
 40
19.0
  0
LINE
  5
2B
  8
1
 10
81.175434868169546
 20
76.699472372153082
 30
0.0
 11
21.175434868169528
 21
76.699472372153082
 31
0.0
  0
LINE
  5
2E
  8
1
 10
51.175434868169532
 20
106.6994723721531
 30
0.0
 11
51.175434868169532
 21
46.699472372153082
 31
0.0
  0
CIRCLE
  5
2F
  8
0
 10
51.175434868169532
 20
76.699472372153082
 30
0.0
 40
25.0
  0
CIRCLE
  5
30
  8
0
 10
51.175434868169532
 20
76.699472372153082
 30
0.0
 40
5.0
  0
CIRCLE
  5
31
  8
2
 10
51.175434868168601
 20
76.699472372153082
 30
0.0
 40
13.6
  0
ARC
  5
32
  8
0
 10
51.975434868168591
 20
76.699472372153082
 30
0.0
 40
11.4
 50
37.306834345821507
 51
322.69316565417881
  0
LINE
  5
33
  8
0
 10
60.075574867151261
 20
82.931417490562595
 30
0.0
 11
61.04300845453519
 21
83.608821781166085
 31
0.0
  0
LINE
  5
34
  8
0
 10
61.670281511770249
 20
79.511558054994651
 30
0.0
 11
63.732470609926509
 21
80.064119958485918
 31
0.0
  0
CIRCLE
  5
35
  8
0
 10
60.872928189460723
 20
81.221487772778687
 30
0.0
 40
1.25
  0
ARC
  5
36
  8
0
 10
61.051426030673042
 20
81.304722683099996
 30
0.0
 40
1.8969505765761081
 50
120.95946438502941
 51
289.04053561497182
  0
ARC
  5
37
  8
0
 10
61.051426030673042
 20
72.094222061206324
 30
0.0
 40
1.8969505765761081
 50
70.959464385028241
 51
239.04053561497051
  0
CIRCLE
  5
38
  8
0
 10
60.872928189460723
 20
72.177456971527619
 30
0.0
 40
1.25
  0
LINE
  5
39
  8
0
 10
61.670281511770249
 20
73.887386689311654
 30
0.0
 11
63.732470609926509
 21
73.334824785820373
 31
0.0
  0
LINE
  5
3A
  8
0
 10
60.075574867151261
 20
70.467527253743725
 30
0.0
 11
61.04300845453519
 21
69.79012296314022
 31
0.0
  0
CIRCLE
  5
3B
  8
0
 10
51.175434868168601
 20
76.699472372153082
 30
0.0
 40
13.0
  0
LINE
  5
3C
  8
2
 10
63.732470609926509
 20
73.334824785820373
 30
0.0
 11
64.312026105699942
 21
73.17953335875896
 31
0.0
  0
LINE
  5
3D
  8
2
 10
63.732470609926509
 20
80.064119958485918
 30
0.0
 11
64.312026105700014
 21
80.219411385547488
 31
0.0
  0
LINE
  5
3E
  8
0
 10
148.04712363669111
 20
54.449472372153771
 30
0.0
 11
149.63483687696259
 21
51.699472372153707
 31
0.0
1001
ACAD
1000
ASC_BOUNDS
1002
{
1070
    19
1002
}
  0
LINE
  5
3F
  8
0
 10
149.63483687696259
 20
51.699472372153707
 30
0.0
 11
151.9179585120923
 21
51.699472372153693
 31
0.0
1001
ACAD
1000
ASC_BOUNDS
1002
{
1070
    19
1002
}
  0
LINE
  5
40
  8
0
 10
136.7887933874934
 20
54.449472372153771
 30
0.0
 11
135.20108014722189
 21
51.699472372153707
 31
0.0
1001
ACAD
1000
ASC_BOUNDS
1002
{
1070
    19
1002
}
  0
LINE
  5
41
  8
0
 10
132.91795851209281
 20
51.699472372153693
 30
0.0
 11
135.20108014722189
 21
51.699472372153672
 31
0.0
1001
ACAD
1000
ASC_BOUNDS
1002
{
1070
    19
1002
}
  0
ARC
  5
42
  8
0
 10
142.4179585120923
 20
51.199472372153771
 30
0.0
 40
6.5
 50
29.999999999999918
 51
150.00000000000011
1001
ACAD
1000
ASC_BOUNDS
1002
{
1070
    19
1002
}
  0
LINE
  5
43
  8
0
 10
136.7887933874934
 20
98.949472372152783
 30
0.0
 11
135.20108014722189
 21
101.6994723721528
 31
0.0
1001
ACAD
1000
ASC_BOUNDS
1002
{
1070
    19
1002
}
  0
LINE
  5
44
  8
0
 10
148.04712363669111
 20
98.949472372152783
 30
0.0
 11
149.63483687696259
 21
101.6994723721528
 31
0.0
1001
ACAD
1000
ASC_BOUNDS
1002
{
1070
    19
1002
}
  0
ARC
  5
45
  8
0
 10
142.4179585120923
 20
102.1994723721528
 30
0.0
 40
6.5
 50
210.0
 51
330.00000000000011
1001
ACAD
1000
ASC_BOUNDS
1002
{
1070
    19
1002
}
  0
ARC
  5
46
  8
2
 10
146.2179585120922
 20
89.499472372153193
 30
0.0
 40
0.2
 50
360.0
 51
90.0
1001
ACAD
1000
ASC_BOUNDS
1002
{
1070
    19
1002
}
  0
LINE
  5
47
  8
2
 10
138.41795851209221
 20
90.299472372153176
 30
0.0
 11
137.0679585120923
 21
90.299472372153176
 31
0.0
1001
ACAD
1000
ASC_BOUNDS
1002
{
1070
    19
1002
}
  0
ARC
  5
48
  8
2
 10
138.7179585120922
 20
89.399472372153141
 30
0.0
 40
0.3
 50
89.999999999999801
 51
180.0
  0
LINE
  5
49
  8
2
 10
138.41795851209221
 20
89.699472372153153
 30
0.0
 11
146.2179585120922
 21
89.699472372153153
 31
0.0
1001
ACAD
1000
ASC_BOUNDS
1002
{
1070
    19
1002
}
  0
LINE
  5
4A
  8
2
 10
133.9179585120919
 20
89.699472372153153
 30
0.0
 11
132.91795851209159
 21
90.076822641342673
 31
0.0
  0
LINE
  5
4B
  8
2
 10
133.9179585120919
 20
89.699472372153153
 30
0.0
 11
137.0679585120923
 21
89.699472372153153
 31
0.0
1001
ACAD
1000
ASC_BOUNDS
1002
{
1070
    19
1002
}
  0
ARC
  5
4C
  8
2
 10
146.11795851209229
 20
89.399472372153141
 30
0.0
 40
0.3
 50
0.0
 51
89.999999999999801
  0
LINE
  5
4D
  8
2
 10
144.15000931966131
 20
86.699472372153181
 30
0.0
 11
146.4179585120923
 21
86.699472372153181
 31
0.0
  0
LINE
  5
4E
  8
2
 10
144.15000931966131
 20
84.699472372153153
 30
0.0
 11
146.4179585120923
 21
84.699472372153153
 31
0.0
  0
LINE
  5
4F
  8
2
 10
138.41795851209221
 20
86.699472372153181
 30
0.0
 11
140.6859077045232
 21
86.699472372153181
 31
0.0
  0
LINE
  5
50
  8
2
 10
137.21795851209211
 20
88.071367552816682
 30
0.0
 11
138.41795851209221
 21
88.071367552816682
 31
0.0
  0
LINE
  5
51
  8
2
 10
138.41795851209221
 20
84.699472372153153
 30
0.0
 11
140.6859077045232
 21
84.699472372153153
 31
0.0
  0
CIRCLE
  5
52
  8
2
 10
142.41795851209221
 20
85.699472372153224
 30
0.0
 40
2.0
  0
ARC
  5
53
  8
2
 10
138.7179585120922
 20
81.999472372153193
 30
0.0
 40
0.3
 50
180.0
 51
270.0
  0
LINE
  5
54
  8
2
 10
138.7179585120922
 20
81.699472372153181
 30
0.0
 11
146.11795851209229
 21
81.699472372153181
 31
0.0
  0
LINE
  5
55
  8
2
 10
144.15000931966131
 20
68.699472372153195
 30
0.0
 11
146.4179585120923
 21
68.699472372153195
 31
0.0
  0
LINE
  5
56
  8
2
 10
138.41795851209221
 20
68.699472372153195
 30
0.0
 11
140.6859077045232
 21
68.699472372153195
 31
0.0
  0
ARC
  5
57
  8
2
 10
138.7179585120922
 20
71.399472372153156
 30
0.0
 40
0.3
 50
90.0
 51
180.0
  0
LINE
  5
58
  8
2
 10
138.7179585120922
 20
71.699472372153181
 30
0.0
 11
146.11795851209229
 21
71.699472372153181
 31
0.0
  0
LINE
  5
59
  8
2
 10
144.15000931966131
 20
66.699472372153181
 30
0.0
 11
146.4179585120923
 21
66.699472372153181
 31
0.0
  0
ARC
  5
5A
  8
2
 10
146.2179585120922
 20
63.899472372153163
 30
0.0
 40
0.2
 50
270.0
 51
360.0
1001
ACAD
1000
ASC_BOUNDS
1002
{
1070
    19
1002
}
  0
LINE
  5
5B
  8
2
 10
138.41795851209221
 20
66.699472372153181
 30
0.0
 11
140.6859077045232
 21
66.699472372153181
 31
0.0
  0
LINE
  5
5C
  8
2
 10
137.21795851209211
 20
65.327577191489681
 30
0.0
 11
138.41795851209221
 21
65.327577191489681
 31
0.0
  0
LINE
  5
5D
  8
2
 10
138.41795851209221
 20
63.09947237215318
 30
0.0
 11
137.0679585120923
 21
63.09947237215318
 31
0.0
1001
ACAD
1000
ASC_BOUNDS
1002
{
1070
    19
1002
}
  0
ARC
  5
5E
  8
2
 10
138.7179585120922
 20
63.999472372153221
 30
0.0
 40
0.3
 50
180.0
 51
270.00000000000023
  0
LINE
  5
5F
  8
2
 10
138.41795851209221
 20
63.699472372153203
 30
0.0
 11
146.2179585120922
 21
63.699472372153203
 31
0.0
1001
ACAD
1000
ASC_BOUNDS
1002
{
1070
    19
1002
}
  0
CIRCLE
  5
60
  8
2
 10
142.41795851209221
 20
67.699472372153124
 30
0.0
 40
2.0
  0
LINE
  5
61
  8
2
 10
133.9179585120919
 20
63.699472372153203
 30
0.0
 11
132.91795851209159
 21
63.12212210296358
 31
0.0
1001
ACAD
1000
ASC_BOUNDS
1002
{
1070
    19
1002
}
  0
LINE
  5
62
  8
2
 10
133.9179585120919
 20
63.699472372153203
 30
0.0
 11
137.0679585120923
 21
63.699472372153203
 31
0.0
1001
ACAD
1000
ASC_BOUNDS
1002
{
1070
    19
1002
}
  0
LINE
  5
63
  8
2
 10
151.9179585120921
 20
65.699472372153224
 30
0.0
 11
146.4179585120923
 21
65.699472372153224
 31
0.0
1001
ACAD
1000
ASC_BOUNDS
1002
{
1070
    19
1002
}
  0
LINE
  5
64
  8
2
 10
151.91795851209179
 20
87.699472372153124
 30
0.0
 11
146.4179585120923
 21
87.699472372153124
 31
0.0
1001
ACAD
1000
ASC_BOUNDS
1002
{
1070
    19
1002
}
  0
ARC
  5
65
  8
2
 10
146.11795851209229
 20
63.999472372153221
 30
0.0
 40
0.3
 50
270.00000000000023
 51
0.0
  0
ARC
  5
66
  8
2
 10
146.11795851209229
 20
71.399472372153156
 30
0.0
 40
0.3
 50
0.0
 51
90.0
  0
ARC
  5
67
  8
2
 10
146.11795851209229
 20
81.999472372153193
 30
0.0
 40
0.3
 50
270.0
 51
0.0
  0
LINE
  5
68
  8
2
 10
146.4179585120923
 20
89.499472372153193
 30
0.0
 11
146.4179585120923
 21
63.899472372153163
 31
0.0
1001
ACAD
1000
ASC_BOUNDS
1002
{
1070
    19
1002
}
  0
LINE
  5
69
  8
2
 10
133.9179585120919
 20
63.699472372153203
 30
0.0
 11
133.9179585120919
 21
89.699472372153153
 31
0.0
  0
LINE
  5
6A
  8
2
 10
137.0679585120923
 20
90.299472372153176
 30
0.0
 11
137.0679585120923
 21
63.09947237215318
 31
0.0
1001
ACAD
1000
ASC_BOUNDS
1002
{
1070
    19
1002
}
  0
LINE
  5
6B
  8
2
 10
138.41795851209221
 20
90.299472372153176
 30
0.0
 11
138.41795851209221
 21
63.09947237215318
 31
0.0
1001
ACAD
1000
ASC_BOUNDS
1002
{
1070
    19
1002
}
  0
LINE
  5
6C
  8
2
 10
137.21795851209211
 20
90.299472372153176
 30
0.0
 11
137.21795851209211
 21
63.09947237215318
 31
0.0
  0
LINE
  5
6D
  8
1
 10
127.9179585120916
 20
76.699472372153025
 30
0.0
 11
156.41795851209201
 21
76.699472372153323
 31
0.0
  0
LINE
  5
6E
  8
0
 10
149.63483687696259
 20
101.6994723721528
 30
0.0
 11
151.9179585120923
 21
101.6994723721528
 31
0.0
1001
ACAD
1000
ASC_BOUNDS
1002
{
1070
    19
1002
}
  0
LINE
  5
6F
  8
0
 10
132.91795851209159
 20
51.699472372153288
 30
0.0
 11
132.91795851209159
 21
101.6994723721528
 31
0.0
1001
ACAD
1000
ASC_BOUNDS
1002
{
1070
    19
1002
}
  0
LINE
  5
70
  8
0
 10
151.9179585120923
 20
51.699472372153288
 30
0.0
 11
151.91795851209179
 21
101.6994723721528
 31
0.0
1001
ACAD
1000
ASC_BOUNDS
1002
{
1070
    19
1002
}
  0
LINE
  5
71
  8
0
 10
132.91795851209281
 20
101.6994723721528
 30
0.0
 11
135.20108014722189
 21
101.6994723721529
 31
0.0
1001
ACAD
1000
ASC_BOUNDS
1002
{
1070
    19
1002
}
  0
LINE
  5
72
  8
0
 10
132.91795851209221
 20
101.6994723721528
 30
0.0
 11
132.91795851209309
 21
51.699472372152869
 31
0.0
  0
TEXT
  5
13C
  8
0
 62
     3
 10
0.0
 20
0.0
 30
0.0
 40
10.0
  1
GRL50-R-SUS
  7
STANDARD1
  0
ENDSEC
  0
EOF
