  0
SECTION
  2
HEADER
  9
$ACADVER
  1
AC1009
  9
$INSBASE
 10
0.0
 20
0.0
 30
0.0
  9
$EXTMIN
 10
0.0
 20
-2.960436562073669
 30
0.0
  9
$EXTMAX
 10
150.29697991175979
 20
99.245282740898119
 30
0.0
  9
$LIMMIN
 10
0.0
 20
0.0
  9
$LIMMAX
 10
187.5
 20
135.0
  9
$ORTHOMODE
 70
     0
  9
$REGENMODE
 70
     1
  9
$FILLMODE
 70
     1
  9
$QTEXTMODE
 70
     0
  9
$MIRRTEXT
 70
     0
  9
$DRAGMODE
 70
     2
  9
$LTSCALE
 40
5.0
  9
$OSMODE
 70
  3071
  9
$ATTMODE
 70
     1
  9
$TEXTSIZE
 40
0.2
  9
$TRACEWID
 40
0.05
  9
$TEXTSTYLE
  7
STANDARD
  9
$CLAYER
  8
0
  9
$CELTYPE
  6
BYLAYER
  9
$CECOLOR
 62
   256
  9
$DIMSCALE
 40
0.5
  9
$DIMASZ
 40
3.0
  9
$DIMEXO
 40
2.0
  9
$DIMDLI
 40
0.3799999999999999
  9
$DIMRND
 40
0.0
  9
$DIMDLE
 40
0.0
  9
$DIMEXE
 40
2.0
  9
$DIMTP
 40
0.0
  9
$DIMTM
 40
0.0
  9
$DIMTXT
 40
3.2000000000000002
  9
$DIMCEN
 40
0.09
  9
$DIMTSZ
 40
0.0
  9
$DIMTOL
 70
     0
  9
$DIMLIM
 70
     0
  9
$DIMTIH
 70
     0
  9
$DIMTOH
 70
     0
  9
$DIMSE1
 70
     0
  9
$DIMSE2
 70
     0
  9
$DIMTAD
 70
     1
  9
$DIMZIN
 70
     0
  9
$DIMBLK
  1

  9
$DIMASO
 70
     0
  9
$DIMSHO
 70
     0
  9
$DIMPOST
  1

  9
$DIMAPOST
  1

  9
$DIMALT
 70
     0
  9
$DIMALTD
 70
     2
  9
$DIMALTF
 40
25.399999999999999
  9
$DIMLFAC
 40
1.0
  9
$DIMTOFL
 70
     0
  9
$DIMTVP
 40
1.6000000000000001
  9
$DIMTIX
 70
     1
  9
$DIMSOXD
 70
     0
  9
$DIMSAH
 70
     0
  9
$DIMBLK1
  1

  9
$DIMBLK2
  1

  9
$DIMSTYLE
  2
STANDARD
  9
$DIMCLRD
 70
     0
  9
$DIMCLRE
 70
     0
  9
$DIMCLRT
 70
     0
  9
$DIMTFAC
 40
1.0
  9
$DIMGAP
 40
0.09
  9
$LUNITS
 70
     2
  9
$LUPREC
 70
     4
  9
$SKETCHINC
 40
0.1
  9
$FILLETRAD
 40
0.4
  9
$AUNITS
 70
     0
  9
$AUPREC
 70
     0
  9
$MENU
  1
E:\r13\win\SUPPORT\ACAD
  9
$ELEVATION
 40
0.0
  9
$PELEVATION
 40
0.0
  9
$THICKNESS
 40
0.0
  9
$LIMCHECK
 70
     0
  9
$BLIPMODE
 70
     0
  9
$CHAMFERA
 40
0.0
  9
$CHAMFERB
 40
0.0
  9
$SKPOLY
 70
     0
  9
$TDCREATE
 40
2451824.6906229062
  9
$TDUPDATE
 40
2456598.6895767478
  9
$TDINDWG
 40
0.0258136574
  9
$TDUSRTIMER
 40
0.0258136574
  9
$USRTIMER
 70
     1
  9
$ANGBASE
 50
0.0
  9
$ANGDIR
 70
     0
  9
$PDMODE
 70
     0
  9
$PDSIZE
 40
0.0
  9
$PLINEWID
 40
0.0
  9
$COORDS
 70
     1
  9
$SPLFRAME
 70
     0
  9
$SPLINETYPE
 70
     6
  9
$SPLINESEGS
 70
     8
  9
$ATTDIA
 70
     0
  9
$ATTREQ
 70
     1
  9
$HANDLING
 70
     1
  9
$HANDSEED
  5
1D8
  9
$SURFTAB1
 70
     6
  9
$SURFTAB2
 70
     6
  9
$SURFTYPE
 70
     6
  9
$SURFU
 70
     6
  9
$SURFV
 70
     6
  9
$UCSNAME
  2

  9
$UCSORG
 10
0.0
 20
0.0
 30
0.0
  9
$UCSXDIR
 10
1.0
 20
0.0
 30
0.0
  9
$UCSYDIR
 10
0.0
 20
1.0
 30
0.0
  9
$PUCSNAME
  2

  9
$PUCSORG
 10
0.0
 20
0.0
 30
0.0
  9
$PUCSXDIR
 10
1.0
 20
0.0
 30
0.0
  9
$PUCSYDIR
 10
0.0
 20
1.0
 30
0.0
  9
$USERI1
 70
     0
  9
$USERI2
 70
     1
  9
$USERI3
 70
     0
  9
$USERI4
 70
     0
  9
$USERI5
 70
     0
  9
$USERR1
 40
0.0
  9
$USERR2
 40
0.0
  9
$USERR3
 40
0.0
  9
$USERR4
 40
0.0
  9
$USERR5
 40
0.0
  9
$WORLDVIEW
 70
     1
  9
$SHADEDGE
 70
     3
  9
$SHADEDIF
 70
    70
  9
$TILEMODE
 70
     1
  9
$MAXACTVP
 70
    16
  9
$PLIMCHECK
 70
     0
  9
$PEXTMIN
 10
1.0000000000000000E+020
 20
1.0000000000000000E+020
 30
1.0000000000000000E+020
  9
$PEXTMAX
 10
-1.0000000000000000E+020
 20
-1.0000000000000000E+020
 30
-1.0000000000000000E+020
  9
$PLIMMIN
 10
0.0
 20
0.0
  9
$PLIMMAX
 10
12.0
 20
9.0
  9
$UNITMODE
 70
     0
  9
$VISRETAIN
 70
     0
  9
$PLINEGEN
 70
     0
  9
$PSLTSCALE
 70
     0
  0
ENDSEC
  0
SECTION
  2
TABLES
  0
TABLE
  2
VPORT
 70
     1
  0
VPORT
  2
*ACTIVE
 70
     0
 10
0.0
 20
0.0
 11
1.0
 21
1.0
 12
93.74713919532617
 22
66.313465060797697
 13
0.0
 23
0.0
 14
5.0
 24
5.0
 15
5.0
 25
5.0
 16
0.0
 26
0.0
 36
1.0
 17
0.0
 27
0.0
 37
0.0
 40
140.15365342376049
 41
2.304913294797688
 42
50.0
 43
0.0
 44
0.0
 50
0.0
 51
0.0
 71
     0
 72
   500
 73
     1
 74
     0
 75
     0
 76
     0
 77
     0
 78
     2
  0
ENDTAB
  0
TABLE
  2
LTYPE
 70
     4
  0
LTYPE
  2
CONTINUOUS
 70
     0
  3
Solid Line
 72
    65
 73
     0
 40
0.0
  0
LTYPE
  2
CENTER
 70
     0
  3
____ _ ____ _ ____ _ ____ _ ____ _ ____ _ ____
 72
    65
 73
     4
 40
2.0
 49
1.25
 49
-0.25
 49
0.25
 49
-0.25
  0
LTYPE
  2
HIDDEN
 70
     0
  3
__ __ __ __ __ __ __ __ __ __ __ __ __ __ __ __
 72
    65
 73
     2
 40
0.375
 49
0.25
 49
-0.125
  0
LTYPE
  2
PHANTOM2
 70
     0
  3
___ _ _ ___ _ _ ___ _ _ ___ _ _
 72
    65
 73
     6
 40
1.25
 49
0.625
 49
-0.125
 49
0.125
 49
-0.125
 49
0.125
 49
-0.125
  0
ENDTAB
  0
TABLE
  2
LAYER
 70
     3
  0
LAYER
  2
0
 70
     0
 62
     7
  6
CONTINUOUS
  0
LAYER
  2
1
 70
     0
 62
     1
  6
CENTER
  0
LAYER
  2
2
 70
     0
 62
     2
  6
HIDDEN
  0
ENDTAB
  0
TABLE
  2
STYLE
 70
     2
  0
STYLE
  2
STANDARD
 70
     0
 40
0.0
 41
1.0
 50
0.0
 71
     0
 42
0.2
  3
TXT
  4
BIGFONT
  0
STYLE
  2
STANDARD1
 70
     0
 40
0.0
 41
1.0
 50
0.0
 71
     0
 42
3.0
  3
txt
  4

  0
ENDTAB
  0
TABLE
  2
VIEW
 70
     0
  0
ENDTAB
  0
TABLE
  2
UCS
 70
     0
  0
ENDTAB
  0
TABLE
  2
APPID
 70
     3
  0
APPID
  2
ACAD
 70
     0
  0
APPID
  2
ACAD_NAV_VCDISPLAY
 70
     0
  0
APPID
  2
ACAD_MLEADERVER
 70
     0
  0
ENDTAB
  0
TABLE
  2
DIMSTYLE
 70
     1
  0
DIMSTYLE
  2
STANDARD
 70
     0
  3

  4

  5

  6

  7

 40
1.0
 41
0.18
 42
0.0625
 43
0.38
 44
0.18
 45
0.0
 46
0.0
 47
0.0
 48
0.0
140
0.18
141
0.09
142
0.0
143
25.399999999999999
144
1.0
145
0.0
146
1.0
147
0.09
 71
     0
 72
     0
 73
     1
 74
     1
 75
     0
 76
     0
 77
     0
 78
     0
170
     0
171
     2
172
     0
173
     0
174
     0
175
     0
176
     0
177
     0
178
     0
  0
ENDTAB
  0
ENDSEC
  0
SECTION
  2
BLOCKS
  0
BLOCK
  8
0
  2
$MODEL_SPACE
 70
     0
 10
0.0
 20
0.0
 30
0.0
  3
$MODEL_SPACE
  1

  0
ENDBLK
  5
9
  8
0
  0
BLOCK
 67
     1
  8
0
  2
$PAPER_SPACE
 70
     0
 10
0.0
 20
0.0
 30
0.0
  3
$PAPER_SPACE
  1

  0
ENDBLK
  5
E
 67
     1
  8
0
  0
ENDSEC
  0
SECTION
  2
ENTITIES
  0
LINE
  5
26
  8
2
 10
133.79697991175979
 20
85.045282740898244
 30
0.0
 11
133.79697991175979
 21
63.445282740898001
 31
0.0
1001
ACAD
1000
ASC_BOUNDS
1002
{
1070
    19
1005
0
1005
0
1002
}
  0
ARC
  5
27
  8
2
 10
127.0969799117596
 20
84.945282740897909
 30
0.0
 40
0.3
 50
90.0
 51
180.0000000000002
  0
ARC
  5
28
  8
2
 10
133.49697991175969
 20
84.945282740897909
 30
0.0
 40
0.3
 50
0.0
 51
90.0
  0
LINE
  5
29
  8
2
 10
127.09697991176
 20
70.245282740898062
 30
0.0
 11
133.49697991175969
 21
70.245282740898062
 31
0.0
  0
LINE
  5
2A
  8
2
 10
127.09697991176
 20
78.245282740898176
 30
0.0
 11
133.49697991175969
 21
78.245282740898176
 31
0.0
  0
LINE
  5
2B
  8
2
 10
126.79697991175991
 20
67.845282740897972
 30
0.0
 11
128.6266506029113
 21
67.845282740897972
 31
0.0
  0
LINE
  5
2C
  8
2
 10
126.79697991175991
 20
65.645282740898267
 30
0.0
 11
128.62665060291221
 21
65.645282740898267
 31
0.0
  0
CIRCLE
  5
2D
  8
2
 10
130.29697991175991
 20
66.745282740898119
 30
0.0
 40
2.0
  0
LINE
  5
2E
  8
2
 10
131.96730922060749
 20
65.645282740898267
 30
0.0
 11
133.79697991175979
 21
65.645282740898267
 31
0.0
  0
LINE
  5
2F
  8
2
 10
131.9673092206084
 20
67.845282740897972
 30
0.0
 11
133.79697991175979
 21
67.845282740897972
 31
0.0
  0
ARC
  5
30
  8
2
 10
127.09697991176
 20
63.545282740898188
 30
0.0
 40
0.3
 50
180.0
 51
270.0
  0
ARC
  5
31
  8
2
 10
133.49697991175969
 20
63.545282740898188
 30
0.0
 40
0.3
 50
270.0
 51
0.0
  0
ARC
  5
32
  8
2
 10
127.09697991176
 20
69.945282740897909
 30
0.0
 40
0.3
 50
90.0
 51
180.0000000000002
  0
ARC
  5
33
  8
2
 10
133.49697991175969
 20
69.945282740897909
 30
0.0
 40
0.3
 50
0.0
 51
90.0
  0
ARC
  5
34
  8
2
 10
133.49697991175969
 20
78.545282740898188
 30
0.0
 40
0.3
 50
270.0
 51
0.0
  0
ARC
  5
35
  8
2
 10
127.09697991176
 20
78.545282740897903
 30
0.0
 40
0.3
 50
180.0
 51
270.0
  0
LINE
  5
36
  8
2
 10
131.9673092206084
 20
80.645282740898267
 30
0.0
 11
133.79697991175979
 21
80.645282740898267
 31
0.0
  0
LINE
  5
37
  8
2
 10
131.96730922060749
 20
82.845282740897972
 30
0.0
 11
133.79697991175979
 21
82.845282740897972
 31
0.0
  0
CIRCLE
  5
38
  8
2
 10
130.29697991175991
 20
81.745282740898119
 30
0.0
 40
2.0
  0
LINE
  5
39
  8
2
 10
126.79697991175991
 20
82.845282740897972
 30
0.0
 11
128.62665060291221
 21
82.845282740897972
 31
0.0
  0
LINE
  5
3A
  8
2
 10
126.79697991175991
 20
80.645282740898267
 30
0.0
 11
128.6266506029113
 21
80.645282740898267
 31
0.0
  0
LINE
  5
3B
  8
0
 10
127.1635122497725
 20
89.245282955879034
 30
0.0
 11
145.29697978016549
 21
89.245282955880413
 31
0.0
  0
LINE
  5
3D
  8
0
 10
126.7650343705358
 20
89.610420658779944
 30
0.0
 11
126.3595364625355
 21
94.245282955878949
 31
0.0
  0
LINE
  5
3E
  8
0
 10
122.296979780166
 20
94.245282955878949
 30
0.0
 11
126.3595364625355
 21
94.245282955878949
 31
0.0
  0
ARC
  5
3F
  8
0
 10
127.1635122497725
 20
89.645282955879054
 30
0.0
 40
0.4
 50
185.00000000000631
 51
270.00000000000648
  0
ARC
  5
40
  8
0
 10
127.1635122497725
 20
58.845282955878858
 30
0.0
 40
0.4
 50
89.999999999993491
 51
174.99999999999369
  0
LINE
  5
41
  8
0
 10
126.7650343705358
 20
58.880145252977968
 30
0.0
 11
126.3595364625355
 21
54.24528295587897
 31
0.0
  0
LINE
  5
42
  8
0
 10
127.1635122497725
 20
59.245282955878871
 30
0.0
 11
145.29697978016549
 21
59.245282955877521
 31
0.0
  0
LINE
  5
43
  8
0
 10
122.296979780166
 20
54.245282955878963
 30
0.0
 11
126.3595364625355
 21
54.24528295587897
 31
0.0
  0
LINE
  5
44
  8
1
 10
87.296979911760104
 20
74.245282740898119
 30
0.0
 11
37.296979911760097
 21
74.245282740898119
 31
0.0
  0
LINE
  5
47
  8
1
 10
62.296979911760097
 20
99.245282740898119
 30
0.0
 11
62.296979911760097
 21
49.245282740898119
 31
0.0
  0
CIRCLE
  5
48
  8
2
 10
62.296979911760097
 20
74.245282740898119
 30
0.0
 40
15.0
  0
CIRCLE
  5
4B
  8
0
 10
62.296979911760097
 20
74.245282740898119
 30
0.0
 40
20.0
  0
CIRCLE
  5
4C
  8
2
 10
62.296979911760097
 20
74.245282740898119
 30
0.0
 40
11.5
  0
CIRCLE
  5
4D
  8
0
 10
62.296979911760097
 20
74.245282740898119
 30
0.0
 40
11.0
  0
ARC
  5
4E
  8
0
 10
63.046979911759131
 20
74.245282740898119
 30
0.0
 40
9.75
 50
42.834156958489928
 51
317.1658430415107
  0
LINE
  5
4F
  8
0
 10
69.21995094128954
 20
80.054345178427326
 30
0.0
 11
70.196895583369269
 21
80.874099067277029
 31
0.0
  0
LINE
  5
50
  8
0
 10
70.789261069594986
 20
77.336220303369771
 30
0.0
 11
72.633598740404892
 21
78.007504317480453
 31
0.0
  0
CIRCLE
  5
51
  8
0
 10
70.004605179536043
 20
78.695284171410009
 30
0.0
 40
1.0
  0
ARC
  5
52
  8
0
 10
70.066017102008914
 20
78.730738454032434
 30
0.0
 40
1.570911426267553
 50
122.58722830885699
 51
297.41277169114272
  0
ARC
  5
53
  8
0
 10
70.066017102008914
 20
69.759827027763947
 30
0.0
 40
1.570911426267553
 50
62.587228308857348
 51
237.41277169114301
  0
CIRCLE
  5
54
  8
0
 10
70.004605179536043
 20
69.795281310386372
 30
0.0
 40
1.0
  0
LINE
  5
55
  8
0
 10
70.789261069594986
 20
71.154345178426468
 30
0.0
 11
72.633598740404594
 21
70.483061164315927
 31
0.0
  0
LINE
  5
56
  8
0
 10
69.21995094128954
 20
68.436220303369055
 30
0.0
 11
70.196895583369269
 21
67.616466414519209
 31
0.0
  0
LINE
  5
57
  8
2
 10
72.633598740404892
 20
78.007504317480453
 30
0.0
 11
73.103445050797916
 21
78.178514389143345
 31
0.0
  0
LINE
  5
58
  8
2
 10
73.103445050797674
 20
70.312051092653178
 30
0.0
 11
72.633598740404594
 21
70.483061164315927
 31
0.0
  0
CIRCLE
  5
59
  8
0
 10
62.296979911760097
 20
74.245282740898119
 30
0.0
 40
4.0
  0
LINE
  5
5A
  8
1
 10
117.2969799117601
 20
74.245282740898119
 30
0.0
 11
150.29697991175979
 21
74.245282740898119
 31
0.0
  0
LINE
  5
5B
  8
0
 10
122.29697991175981
 20
54.245282740898119
 30
0.0
 11
122.2969799117603
 21
94.245282740898119
 31
0.0
1001
ACAD
1000
ASC_BOUNDS
1002
{
1070
    19
1005
0
1005
0
1005
0
1002
}
  0
LINE
  5
5C
  8
0
 10
145.29697978016549
 20
59.245282955877521
 30
0.0
 11
145.29697991175979
 21
89.245282955880413
 31
0.0
1001
ACAD
1000
ASC_BOUNDS
1002
{
1070
    19
1005
0
1005
0
1002
}
  0
LINE
  5
5D
  8
2
 10
123.2969799117604
 20
63.245282740898183
 30
0.0
 11
125.4469799117599
 21
63.245282740898183
 31
0.0
1001
ACAD
1000
ASC_BOUNDS
1002
{
1070
    19
1005
0
1002
}
  0
LINE
  5
5E
  8
2
 10
125.4469799117599
 20
62.745282740898062
 30
0.0
 11
126.79697991175991
 21
62.745282740898062
 31
0.0
1001
ACAD
1000
ASC_BOUNDS
1002
{
1070
    19
1005
0
1005
0
1002
}
  0
LINE
  5
5F
  8
2
 10
126.79697991175991
 20
63.245282740898183
 30
0.0
 11
140.59697991176
 21
63.245282740898183
 31
0.0
1001
ACAD
1000
ASC_BOUNDS
1002
{
1070
    19
1005
0
1002
}
  0
LINE
  5
60
  8
2
 10
123.2969799117604
 20
63.245282740898183
 30
0.0
 11
122.2969799117603
 21
62.667932471708561
 31
0.0
1001
ACAD
1000
ASC_BOUNDS
1002
{
1070
    19
1005
0
1002
}
  0
ARC
  5
61
  8
2
 10
140.59697991176
 20
63.445282740898001
 30
0.0
 40
0.2
 50
270.0
 51
359.99999999999977
1001
ACAD
1000
ASC_BOUNDS
1002
{
1070
    19
1005
0
1002
}
  0
LINE
  5
62
  8
2
 10
133.79697991175979
 20
80.645282740898267
 30
0.0
 11
135.6266506029113
 21
80.645282740898267
 31
0.0
  0
LINE
  5
63
  8
2
 10
133.79697991175979
 20
82.845282740897972
 30
0.0
 11
135.62665060291221
 21
82.845282740897972
 31
0.0
  0
CIRCLE
  5
64
  8
2
 10
137.29697991175991
 20
81.745282740898119
 30
0.0
 40
2.0
  0
LINE
  5
65
  8
2
 10
138.96730922060749
 20
82.845282740897972
 30
0.0
 11
140.79697991175991
 21
82.845282740897972
 31
0.0
  0
LINE
  5
66
  8
2
 10
138.9673092206084
 20
80.645282740898267
 30
0.0
 11
140.79697991175991
 21
80.645282740898267
 31
0.0
  0
ARC
  5
67
  8
2
 10
134.09697991176
 20
78.545282740897903
 30
0.0
 40
0.3
 50
180.0
 51
270.0
  0
ARC
  5
68
  8
2
 10
140.49697991175969
 20
78.545282740898188
 30
0.0
 40
0.3
 50
270.0
 51
0.0
  0
ARC
  5
69
  8
2
 10
140.49697991175969
 20
69.945282740897909
 30
0.0
 40
0.3
 50
0.0
 51
90.0
  0
ARC
  5
6A
  8
2
 10
134.09697991176
 20
69.945282740897909
 30
0.0
 40
0.3
 50
90.0
 51
180.0000000000002
  0
ARC
  5
6B
  8
2
 10
140.49697991175969
 20
63.545282740898188
 30
0.0
 40
0.3
 50
270.0
 51
0.0
  0
ARC
  5
6C
  8
2
 10
134.09697991176
 20
63.545282740898188
 30
0.0
 40
0.3
 50
180.0
 51
270.0
  0
LINE
  5
6D
  8
2
 10
138.9673092206084
 20
67.845282740897972
 30
0.0
 11
140.79697991175991
 21
67.845282740897972
 31
0.0
  0
LINE
  5
6E
  8
2
 10
138.96730922060749
 20
65.645282740898267
 30
0.0
 11
140.79697991175991
 21
65.645282740898267
 31
0.0
  0
CIRCLE
  5
6F
  8
2
 10
137.29697991175991
 20
66.745282740898119
 30
0.0
 40
2.0
  0
LINE
  5
70
  8
2
 10
133.79697991175979
 20
65.645282740898267
 30
0.0
 11
135.62665060291221
 21
65.645282740898267
 31
0.0
  0
LINE
  5
71
  8
2
 10
133.79697991175979
 20
67.845282740897972
 30
0.0
 11
135.6266506029113
 21
67.845282740897972
 31
0.0
  0
LINE
  5
72
  8
2
 10
134.09697991176
 20
78.245282740898176
 30
0.0
 11
140.49697991175969
 21
78.245282740898176
 31
0.0
  0
LINE
  5
73
  8
2
 10
134.09697991176
 20
70.245282740898062
 30
0.0
 11
140.49697991175969
 21
70.245282740898062
 31
0.0
  0
LINE
  5
74
  8
2
 10
125.79697991175991
 20
83.966393788509947
 30
0.0
 11
126.79697991175991
 21
83.966393788509947
 31
0.0
  0
LINE
  5
75
  8
2
 10
125.79697991175991
 20
64.524171693286291
 30
0.0
 11
126.79697991175991
 21
64.524171693286291
 31
0.0
  0
LINE
  5
76
  8
2
 10
140.79697991175991
 20
65.245282740898062
 30
0.0
 11
145.29697991175979
 21
65.245282740898062
 31
0.0
1001
ACAD
1000
ASC_BOUNDS
1002
{
1070
    19
1005
0
1002
}
  0
LINE
  5
77
  8
2
 10
140.79697991175991
 20
83.245282740898176
 30
0.0
 11
145.29697991175979
 21
83.245282740898176
 31
0.0
1001
ACAD
1000
ASC_BOUNDS
1002
{
1070
    19
1005
0
1002
}
  0
LINE
  5
78
  8
2
 10
123.2969799117604
 20
85.245282740898062
 30
0.0
 11
125.4469799117599
 21
85.245282740898062
 31
0.0
1001
ACAD
1000
ASC_BOUNDS
1002
{
1070
    19
1005
0
1002
}
  0
LINE
  5
79
  8
2
 10
125.4469799117599
 20
85.745282740898176
 30
0.0
 11
126.79697991175991
 21
85.745282740898176
 31
0.0
1001
ACAD
1000
ASC_BOUNDS
1002
{
1070
    19
1005
0
1002
}
  0
LINE
  5
7A
  8
2
 10
126.79697991175991
 20
85.245282740898062
 30
0.0
 11
140.59697991176
 21
85.245282740898062
 31
0.0
1001
ACAD
1000
ASC_BOUNDS
1002
{
1070
    19
1005
0
1002
}
  0
LINE
  5
7B
  8
2
 10
123.2969799117604
 20
85.245282740898062
 30
0.0
 11
122.2969799117603
 21
85.822633010087543
 31
0.0
  0
ARC
  5
7C
  8
2
 10
140.59697991176
 20
85.045282740898244
 30
0.0
 40
0.2
 50
359.99999999999977
 51
90.0
1001
ACAD
1000
ASC_BOUNDS
1002
{
1070
    19
1005
0
1002
}
  0
ARC
  5
7D
  8
2
 10
140.59697991176
 20
85.045282740898244
 30
0.0
 40
0.2
 50
359.99999999999977
 51
90.0
  0
ARC
  5
7E
  8
2
 10
140.49697991175969
 20
84.945282740897909
 30
0.0
 40
0.3
 50
0.0
 51
90.0
  0
ARC
  5
7F
  8
2
 10
134.0969799117596
 20
84.945282740897909
 30
0.0
 40
0.3
 50
90.0
 51
180.0000000000002
  0
LINE
  5
80
  8
2
 10
140.79697991175991
 20
85.045282740898244
 30
0.0
 11
140.79697991175991
 21
63.445282740898001
 31
0.0
1001
ACAD
1000
ASC_BOUNDS
1002
{
1070
    19
1005
0
1005
0
1002
}
  0
LINE
  5
81
  8
2
 10
126.79697991175991
 20
85.745282740898176
 30
0.0
 11
126.79697991175991
 21
62.745282740898062
 31
0.0
1001
ACAD
1000
ASC_BOUNDS
1002
{
1070
    19
1005
0
1005
0
1002
}
  0
LINE
  5
82
  8
2
 10
125.4469799117599
 20
85.745282740898176
 30
0.0
 11
125.4469799117599
 21
62.745282740898062
 31
0.0
1001
ACAD
1000
ASC_BOUNDS
1002
{
1070
    19
1005
0
1005
0
1002
}
  0
LINE
  5
83
  8
2
 10
123.2969799117604
 20
85.245282740898062
 30
0.0
 11
123.2969799117604
 21
63.245282740898183
 31
0.0
  0
LINE
  5
84
  8
2
 10
125.79697991175991
 20
62.745282740898062
 30
0.0
 11
125.79697991175991
 21
85.745282740898176
 31
0.0
  0
LINE
  5
A1
  8
0
 10
126.3595364625355
 20
94.245282955878949
 30
0.0
 11
126.3595364625356
 21
54.24528295587897
 31
0.0
  0
LINE
  5
A3
  8
0
 10
126.8932761667263
 20
89.350372021154968
 30
0.0
 11
126.89327616672411
 21
59.245282955878871
 31
0.0
  0
TEXT
  5
179
  8
0
 62
     3
 10
0.0
 20
0.0
 30
0.0
 40
10.0
  1
GRL40J2-L
  7
STANDARD1
  0
ENDSEC
  0
EOF
