  0
SECTION
  2
HEADER
  9
$ACADVER
  1
AC1009
  9
$INSBASE
 10
0.0
 20
0.0
 30
0.0
  9
$EXTMIN
 10
0.0
 20
-2.960436562073669
 30
0.0
  9
$EXTMAX
 10
136.21777662468841
 20
100.1886790069122
 30
0.0
  9
$LIMMIN
 10
0.0
 20
0.0
  9
$LIMMAX
 10
187.5
 20
135.0
  9
$ORTHOMODE
 70
     0
  9
$REGENMODE
 70
     1
  9
$FILLMODE
 70
     1
  9
$QTEXTMODE
 70
     0
  9
$MIRRTEXT
 70
     0
  9
$DRAGMODE
 70
     2
  9
$LTSCALE
 40
5.0
  9
$OSMODE
 70
  3071
  9
$ATTMODE
 70
     1
  9
$TEXTSIZE
 40
0.2
  9
$TRACEWID
 40
0.05
  9
$TEXTSTYLE
  7
STANDARD
  9
$CLAYER
  8
0
  9
$CELTYPE
  6
BYLAYER
  9
$CECOLOR
 62
   256
  9
$DIMSCALE
 40
0.5
  9
$DIMASZ
 40
3.0
  9
$DIMEXO
 40
2.0
  9
$DIMDLI
 40
0.3799999999999999
  9
$DIMRND
 40
0.0
  9
$DIMDLE
 40
0.0
  9
$DIMEXE
 40
2.0
  9
$DIMTP
 40
0.0
  9
$DIMTM
 40
0.0
  9
$DIMTXT
 40
3.2000000000000002
  9
$DIMCEN
 40
0.09
  9
$DIMTSZ
 40
0.0
  9
$DIMTOL
 70
     0
  9
$DIMLIM
 70
     0
  9
$DIMTIH
 70
     0
  9
$DIMTOH
 70
     0
  9
$DIMSE1
 70
     0
  9
$DIMSE2
 70
     0
  9
$DIMTAD
 70
     1
  9
$DIMZIN
 70
     0
  9
$DIMBLK
  1

  9
$DIMASO
 70
     0
  9
$DIMSHO
 70
     0
  9
$DIMPOST
  1

  9
$DIMAPOST
  1

  9
$DIMALT
 70
     0
  9
$DIMALTD
 70
     2
  9
$DIMALTF
 40
25.399999999999999
  9
$DIMLFAC
 40
1.0
  9
$DIMTOFL
 70
     0
  9
$DIMTVP
 40
1.6000000000000001
  9
$DIMTIX
 70
     1
  9
$DIMSOXD
 70
     0
  9
$DIMSAH
 70
     0
  9
$DIMBLK1
  1

  9
$DIMBLK2
  1

  9
$DIMSTYLE
  2
STANDARD
  9
$DIMCLRD
 70
     0
  9
$DIMCLRE
 70
     0
  9
$DIMCLRT
 70
     0
  9
$DIMTFAC
 40
1.0
  9
$DIMGAP
 40
0.09
  9
$LUNITS
 70
     2
  9
$LUPREC
 70
     4
  9
$SKETCHINC
 40
0.1
  9
$FILLETRAD
 40
0.4
  9
$AUNITS
 70
     0
  9
$AUPREC
 70
     0
  9
$MENU
  1
E:\r13\win\SUPPORT\ACAD
  9
$ELEVATION
 40
0.0
  9
$PELEVATION
 40
0.0
  9
$THICKNESS
 40
0.0
  9
$LIMCHECK
 70
     0
  9
$BLIPMODE
 70
     0
  9
$CHAMFERA
 40
0.0
  9
$CHAMFERB
 40
0.0
  9
$SKPOLY
 70
     0
  9
$TDCREATE
 40
2451824.6906229062
  9
$TDUPDATE
 40
2456598.6895607528
  9
$TDINDWG
 40
0.0182465278
  9
$TDUSRTIMER
 40
0.0182465278
  9
$USRTIMER
 70
     1
  9
$ANGBASE
 50
0.0
  9
$ANGDIR
 70
     0
  9
$PDMODE
 70
     0
  9
$PDSIZE
 40
0.0
  9
$PLINEWID
 40
0.0
  9
$COORDS
 70
     1
  9
$SPLFRAME
 70
     0
  9
$SPLINETYPE
 70
     6
  9
$SPLINESEGS
 70
     8
  9
$ATTDIA
 70
     0
  9
$ATTREQ
 70
     1
  9
$HANDLING
 70
     1
  9
$HANDSEED
  5
1E6
  9
$SURFTAB1
 70
     6
  9
$SURFTAB2
 70
     6
  9
$SURFTYPE
 70
     6
  9
$SURFU
 70
     6
  9
$SURFV
 70
     6
  9
$UCSNAME
  2

  9
$UCSORG
 10
0.0
 20
0.0
 30
0.0
  9
$UCSXDIR
 10
1.0
 20
0.0
 30
0.0
  9
$UCSYDIR
 10
0.0
 20
1.0
 30
0.0
  9
$PUCSNAME
  2

  9
$PUCSORG
 10
0.0
 20
0.0
 30
0.0
  9
$PUCSXDIR
 10
1.0
 20
0.0
 30
0.0
  9
$PUCSYDIR
 10
0.0
 20
1.0
 30
0.0
  9
$USERI1
 70
     0
  9
$USERI2
 70
     1
  9
$USERI3
 70
     0
  9
$USERI4
 70
     0
  9
$USERI5
 70
     0
  9
$USERR1
 40
0.0
  9
$USERR2
 40
0.0
  9
$USERR3
 40
0.0
  9
$USERR4
 40
0.0
  9
$USERR5
 40
0.0
  9
$WORLDVIEW
 70
     1
  9
$SHADEDGE
 70
     3
  9
$SHADEDIF
 70
    70
  9
$TILEMODE
 70
     1
  9
$MAXACTVP
 70
    16
  9
$PLIMCHECK
 70
     0
  9
$PEXTMIN
 10
1.0000000000000000E+020
 20
1.0000000000000000E+020
 30
1.0000000000000000E+020
  9
$PEXTMAX
 10
-1.0000000000000000E+020
 20
-1.0000000000000000E+020
 30
-1.0000000000000000E+020
  9
$PLIMMIN
 10
0.0
 20
0.0
  9
$PLIMMAX
 10
12.0
 20
9.0
  9
$UNITMODE
 70
     0
  9
$VISRETAIN
 70
     0
  9
$PLINEGEN
 70
     0
  9
$PSLTSCALE
 70
     0
  0
ENDSEC
  0
SECTION
  2
TABLES
  0
TABLE
  2
VPORT
 70
     1
  0
VPORT
  2
*ACTIVE
 70
     0
 10
0.0
 20
0.0
 11
1.0
 21
1.0
 12
93.74713919532617
 22
66.313465060797697
 13
0.0
 23
0.0
 14
5.0
 24
5.0
 15
5.0
 25
5.0
 16
0.0
 26
0.0
 36
1.0
 17
0.0
 27
0.0
 37
0.0
 40
140.15365342376049
 41
2.304913294797688
 42
50.0
 43
0.0
 44
0.0
 50
0.0
 51
0.0
 71
     0
 72
   500
 73
     1
 74
     0
 75
     0
 76
     0
 77
     0
 78
     2
  0
ENDTAB
  0
TABLE
  2
LTYPE
 70
     4
  0
LTYPE
  2
CONTINUOUS
 70
     0
  3
Solid Line
 72
    65
 73
     0
 40
0.0
  0
LTYPE
  2
CENTER
 70
     0
  3
____ _ ____ _ ____ _ ____ _ ____ _ ____ _ ____
 72
    65
 73
     4
 40
2.0
 49
1.25
 49
-0.25
 49
0.25
 49
-0.25
  0
LTYPE
  2
HIDDEN
 70
     0
  3
__ __ __ __ __ __ __ __ __ __ __ __ __ __ __ __
 72
    65
 73
     2
 40
0.375
 49
0.25
 49
-0.125
  0
LTYPE
  2
PHANTOM2
 70
     0
  3
___ _ _ ___ _ _ ___ _ _ ___ _ _
 72
    65
 73
     6
 40
1.25
 49
0.625
 49
-0.125
 49
0.125
 49
-0.125
 49
0.125
 49
-0.125
  0
ENDTAB
  0
TABLE
  2
LAYER
 70
     3
  0
LAYER
  2
0
 70
     0
 62
     7
  6
CONTINUOUS
  0
LAYER
  2
1
 70
     0
 62
     1
  6
CENTER
  0
LAYER
  2
2
 70
     0
 62
     2
  6
HIDDEN
  0
ENDTAB
  0
TABLE
  2
STYLE
 70
     2
  0
STYLE
  2
STANDARD
 70
     0
 40
0.0
 41
1.0
 50
0.0
 71
     0
 42
0.2
  3
TXT
  4
BIGFONT
  0
STYLE
  2
STANDARD1
 70
     0
 40
0.0
 41
1.0
 50
0.0
 71
     0
 42
3.0
  3
txt
  4

  0
ENDTAB
  0
TABLE
  2
VIEW
 70
     0
  0
ENDTAB
  0
TABLE
  2
UCS
 70
     0
  0
ENDTAB
  0
TABLE
  2
APPID
 70
     3
  0
APPID
  2
ACAD
 70
     0
  0
APPID
  2
ACAD_MLEADERVER
 70
     0
  0
APPID
  2
ACAD_NAV_VCDISPLAY
 70
     0
  0
ENDTAB
  0
TABLE
  2
DIMSTYLE
 70
     1
  0
DIMSTYLE
  2
STANDARD
 70
     0
  3

  4

  5

  6

  7

 40
1.0
 41
0.18
 42
0.0625
 43
0.38
 44
0.18
 45
0.0
 46
0.0
 47
0.0
 48
0.0
140
0.18
141
0.09
142
0.0
143
25.399999999999999
144
1.0
145
0.0
146
1.0
147
0.09
 71
     0
 72
     0
 73
     1
 74
     1
 75
     0
 76
     0
 77
     0
 78
     0
170
     0
171
     2
172
     0
173
     0
174
     0
175
     0
176
     0
177
     0
178
     0
  0
ENDTAB
  0
ENDSEC
  0
SECTION
  2
BLOCKS
  0
BLOCK
  8
0
  2
$MODEL_SPACE
 70
     0
 10
0.0
 20
0.0
 30
0.0
  3
$MODEL_SPACE
  1

  0
ENDBLK
  5
9
  8
0
  0
BLOCK
 67
     1
  8
0
  2
$PAPER_SPACE
 70
     0
 10
0.0
 20
0.0
 30
0.0
  3
$PAPER_SPACE
  1

  0
ENDBLK
  5
E
 67
     1
  8
0
  0
ENDSEC
  0
SECTION
  2
ENTITIES
  0
LINE
  5
26
  8
0
 10
115.2177766246884
 20
55.188679006912189
 30
0.0
 11
115.21777662468929
 21
95.188679006912196
 31
0.0
1001
ACAD
1000
ASC_BOUNDS
1002
{
1070
    19
1002
}
  0
LINE
  5
28
  8
2
 10
118.71777662468929
 20
63.688679006912203
 30
0.0
 11
118.71777662468929
 21
86.688679006912196
 31
0.0
  0
LINE
  5
2B
  8
2
 10
116.21777662468929
 20
86.188679006912196
 30
0.0
 11
116.21777662468929
 21
64.188679006912196
 31
0.0
  0
LINE
  5
2C
  8
2
 10
118.367776624689
 20
86.688679006912196
 30
0.0
 11
118.367776624689
 21
63.688679006912203
 31
0.0
1001
ACAD
1000
ASC_BOUNDS
1002
{
1070
    19
1002
}
  0
LINE
  5
2D
  8
2
 10
119.7177766246884
 20
86.688679006912196
 30
0.0
 11
119.7177766246884
 21
63.688679006912203
 31
0.0
1001
ACAD
1000
ASC_BOUNDS
1002
{
1070
    19
1002
}
  0
LINE
  5
2E
  8
2
 10
126.7177766246884
 20
85.988679006912363
 30
0.0
 11
126.7177766246884
 21
64.388679006912014
 31
0.0
1001
ACAD
1000
ASC_BOUNDS
1002
{
1070
    19
1002
}
  0
LINE
  5
2F
  8
0
 10
131.21777662468841
 20
55.188679006912189
 30
0.0
 11
131.21777662468841
 21
95.188679006912196
 31
0.0
1001
ACAD
1000
ASC_BOUNDS
1002
{
1070
    19
1002
}
  0
CIRCLE
  5
30
  8
2
 10
123.21777662468929
 20
67.688679006912196
 30
0.0
 40
2.0
  0
LINE
  5
31
  8
0
 10
118.4546369038751
 20
57.438679006912203
 30
0.0
 11
117.1555987981981
 21
55.188679006912189
 31
0.0
  0
LINE
  5
32
  8
2
 10
116.21777662468929
 20
64.188679006912196
 30
0.0
 11
118.367776624689
 21
64.188679006912196
 31
0.0
1001
ACAD
1000
ASC_BOUNDS
1002
{
1070
    19
1002
}
  0
LINE
  5
33
  8
0
 10
115.21777662468929
 20
55.188679006912189
 30
0.0
 11
117.1555987981981
 21
55.188679006912189
 31
0.0
1001
ACAD
1000
ASC_BOUNDS
1002
{
1070
    19
1002
}
  0
LINE
  5
34
  8
2
 10
116.21777662468929
 20
64.188679006912196
 30
0.0
 11
115.21777662468929
 21
63.611328737722197
 31
0.0
1001
ACAD
1000
ASC_BOUNDS
1002
{
1070
    19
1002
}
  0
LINE
  5
35
  8
0
 10
127.9809163455036
 20
57.438679006912203
 30
0.0
 11
129.2799544511806
 21
55.188679006911741
 31
0.0
  0
ARC
  5
36
  8
0
 10
123.21777662468929
 20
54.688679006912189
 30
0.0
 40
5.5
 50
29.999999999999549
 51
150.0
  0
LINE
  5
37
  8
2
 10
118.71777662468929
 20
65.467567959300311
 30
0.0
 11
119.7177766246884
 21
65.467567959300311
 31
0.0
  0
ARC
  5
38
  8
2
 10
120.0177766246895
 20
64.488679006911923
 30
0.0
 40
0.3
 50
180.0
 51
270.0
  0
ARC
  5
39
  8
2
 10
126.4177766246891
 20
64.488679006911923
 30
0.0
 40
0.3
 50
270.0
 51
0.0
  0
ARC
  5
3A
  8
2
 10
126.5177766246895
 20
64.388679006912014
 30
0.0
 40
0.2
 50
270.0
 51
0.0
1001
ACAD
1000
ASC_BOUNDS
1002
{
1070
    19
1002
}
  0
LINE
  5
3B
  8
2
 10
119.7177766246884
 20
64.188679006912196
 30
0.0
 11
126.5177766246895
 21
64.188679006912196
 31
0.0
1001
ACAD
1000
ASC_BOUNDS
1002
{
1070
    19
1002
}
  0
LINE
  5
3C
  8
2
 10
118.367776624689
 20
63.688679006912203
 30
0.0
 11
119.7177766246884
 21
63.688679006912203
 31
0.0
1001
ACAD
1000
ASC_BOUNDS
1002
{
1070
    19
1002
}
  0
LINE
  5
3D
  8
0
 10
129.2799544511806
 20
55.188679006911741
 30
0.0
 11
131.21777662468841
 21
55.188679006911279
 31
0.0
1001
ACAD
1000
ASC_BOUNDS
1002
{
1070
    19
1002
}
  0
LINE
  5
3E
  8
0
 10
118.4546369038751
 20
92.938679006912196
 30
0.0
 11
117.1555987981981
 21
95.188679006912196
 31
0.0
  0
LINE
  5
3F
  8
2
 10
116.21777662468929
 20
86.188679006912196
 30
0.0
 11
118.367776624689
 21
86.188679006912196
 31
0.0
1001
ACAD
1000
ASC_BOUNDS
1002
{
1070
    19
1002
}
  0
LINE
  5
40
  8
1
 10
110.21777662468929
 20
75.188679006912196
 30
0.0
 11
136.21777662468841
 21
75.188679006912196
 31
0.0
  0
LINE
  5
43
  8
0
 10
115.21777662468929
 20
95.188679006912196
 30
0.0
 11
117.1555987981981
 21
95.188679006912196
 31
0.0
1001
ACAD
1000
ASC_BOUNDS
1002
{
1070
    19
1002
}
  0
LINE
  5
44
  8
2
 10
116.21777662468929
 20
86.188679006912196
 30
0.0
 11
115.21777662468929
 21
86.766029276101278
 31
0.0
  0
LINE
  5
45
  8
2
 10
120.0177766246895
 20
71.188679006912196
 30
0.0
 11
126.4177766246891
 21
71.188679006912196
 31
0.0
  0
ARC
  5
46
  8
2
 10
120.0177766246895
 20
70.888679006912014
 30
0.0
 40
0.3
 50
90.0
 51
180.0
  0
ARC
  5
47
  8
2
 10
126.4177766246891
 20
70.888679006912014
 30
0.0
 40
0.3
 50
0.0
 51
90.0
  0
LINE
  5
48
  8
2
 10
119.7177766246884
 20
68.78867900691165
 30
0.0
 11
121.5474473158399
 21
68.78867900691165
 31
0.0
  0
LINE
  5
49
  8
2
 10
119.7177766246884
 20
66.588679006911832
 30
0.0
 11
121.54744731584169
 21
66.588679006911832
 31
0.0
  0
LINE
  5
4A
  8
2
 10
124.88810593353691
 20
66.588679006911832
 30
0.0
 11
126.7177766246884
 21
66.588679006911832
 31
0.0
  0
LINE
  5
4B
  8
2
 10
124.88810593353691
 20
68.78867900691165
 30
0.0
 11
126.7177766246884
 21
68.78867900691165
 31
0.0
  0
LINE
  5
4C
  8
2
 10
126.7177766246884
 20
66.188679006912196
 30
0.0
 11
131.21777662468841
 21
66.188679006912196
 31
0.0
1001
ACAD
1000
ASC_BOUNDS
1002
{
1070
    19
1002
}
  0
LINE
  5
4D
  8
0
 10
127.9809163455036
 20
92.938679006912196
 30
0.0
 11
129.2799544511806
 21
95.188679006912196
 31
0.0
  0
ARC
  5
4E
  8
0
 10
123.21777662468929
 20
95.688679006912196
 30
0.0
 40
5.5
 50
209.9999999999996
 51
330.00000000000051
  0
ARC
  5
4F
  8
2
 10
120.01777662468859
 20
85.888679006912014
 30
0.0
 40
0.3
 50
90.0
 51
180.0
  0
ARC
  5
50
  8
2
 10
126.4177766246891
 20
85.888679006912014
 30
0.0
 40
0.3
 50
0.0
 51
90.0
  0
ARC
  5
51
  8
2
 10
126.5177766246895
 20
85.988679006912363
 30
0.0
 40
0.2
 50
0.0
 51
90.0
  0
ARC
  5
52
  8
2
 10
126.5177766246895
 20
85.988679006912363
 30
0.0
 40
0.2
 50
0.0
 51
90.0
1001
ACAD
1000
ASC_BOUNDS
1002
{
1070
    19
1002
}
  0
LINE
  5
53
  8
2
 10
119.7177766246884
 20
86.188679006912196
 30
0.0
 11
126.5177766246895
 21
86.188679006912196
 31
0.0
1001
ACAD
1000
ASC_BOUNDS
1002
{
1070
    19
1002
}
  0
LINE
  5
54
  8
2
 10
118.367776624689
 20
86.688679006912196
 30
0.0
 11
119.7177766246884
 21
86.688679006912196
 31
0.0
1001
ACAD
1000
ASC_BOUNDS
1002
{
1070
    19
1002
}
  0
LINE
  5
55
  8
2
 10
118.71777662468929
 20
84.909790054524066
 30
0.0
 11
119.7177766246884
 21
84.909790054524066
 31
0.0
  0
LINE
  5
56
  8
2
 10
120.0177766246895
 20
79.188679006912196
 30
0.0
 11
126.4177766246891
 21
79.188679006912196
 31
0.0
  0
ARC
  5
57
  8
2
 10
126.4177766246891
 20
79.488679006911923
 30
0.0
 40
0.3
 50
270.0
 51
0.0
  0
ARC
  5
58
  8
2
 10
120.0177766246895
 20
79.488679006911468
 30
0.0
 40
0.3
 50
180.0
 51
270.0
  0
LINE
  5
59
  8
2
 10
124.88810593353691
 20
81.588679006911818
 30
0.0
 11
126.7177766246884
 21
81.588679006911818
 31
0.0
  0
LINE
  5
5A
  8
2
 10
124.88810593353691
 20
83.78867900691165
 30
0.0
 11
126.7177766246884
 21
83.78867900691165
 31
0.0
  0
CIRCLE
  5
5B
  8
2
 10
123.21777662468929
 20
82.688679006912196
 30
0.0
 40
2.0
  0
LINE
  5
5C
  8
2
 10
119.7177766246884
 20
83.78867900691165
 30
0.0
 11
121.54744731584169
 21
83.78867900691165
 31
0.0
  0
LINE
  5
5D
  8
2
 10
119.7177766246884
 20
81.588679006911818
 30
0.0
 11
121.5474473158399
 21
81.588679006911818
 31
0.0
  0
LINE
  5
5E
  8
2
 10
126.7177766246884
 20
84.188679006912196
 30
0.0
 11
131.21777662468841
 21
84.188679006912196
 31
0.0
1001
ACAD
1000
ASC_BOUNDS
1002
{
1070
    19
1002
}
  0
LINE
  5
5F
  8
0
 10
129.2799544511806
 20
95.188679006912196
 30
0.0
 11
131.21777662468841
 21
95.188679006912196
 31
0.0
1001
ACAD
1000
ASC_BOUNDS
1002
{
1070
    19
1002
}
  0
LINE
  5
60
  8
1
 10
80.217776624689336
 20
75.188679006912196
 30
0.0
 11
30.21777662468935
 21
75.188679006912196
 31
0.0
  0
LINE
  5
61
  8
1
 10
55.217776624689343
 20
100.1886790069122
 30
0.0
 11
55.217776624689343
 21
50.188679006912189
 31
0.0
  0
CIRCLE
  5
62
  8
2
 10
55.217776624689343
 20
75.188679006912196
 30
0.0
 40
15.0
  0
CIRCLE
  5
63
  8
0
 10
55.217776624689343
 20
75.188679006912196
 30
0.0
 40
20.0
  0
CIRCLE
  5
64
  8
2
 10
55.217776624689343
 20
75.188679006912196
 30
0.0
 40
11.5
  0
CIRCLE
  5
65
  8
0
 10
55.217776624689343
 20
75.188679006912196
 30
0.0
 40
11.0
  0
ARC
  5
66
  8
0
 10
55.967776624688383
 20
75.188679006912196
 30
0.0
 40
9.75
 50
42.834156958489928
 51
317.1658430415107
  0
LINE
  5
67
  8
0
 10
62.140747654218778
 20
80.997741444441402
 30
0.0
 11
63.117692296298507
 21
81.817495333291106
 31
0.0
  0
LINE
  5
68
  8
0
 10
63.710057782524238
 20
78.279616569383833
 30
0.0
 11
65.554395453334124
 21
78.950900583494516
 31
0.0
  0
CIRCLE
  5
69
  8
0
 10
62.925401892465288
 20
79.638680437424085
 30
0.0
 40
1.0
  0
ARC
  5
6A
  8
0
 10
62.986813814938159
 20
79.674134720046496
 30
0.0
 40
1.570911426267553
 50
122.58722830885699
 51
297.41277169114272
  0
ARC
  5
6B
  8
0
 10
62.986813814938159
 20
70.703223293778024
 30
0.0
 40
1.570911426267553
 50
62.587228308857348
 51
237.41277169114301
  0
CIRCLE
  5
6C
  8
0
 10
62.925401892465288
 20
70.738677576400434
 30
0.0
 40
1.0
  0
LINE
  5
6D
  8
0
 10
63.710057782524238
 20
72.097741444440544
 30
0.0
 11
65.554395453333854
 21
71.426457430330004
 31
0.0
  0
LINE
  5
6E
  8
0
 10
62.140747654218778
 20
69.379616569383131
 30
0.0
 11
63.117692296298507
 21
68.559862680533286
 31
0.0
  0
LINE
  5
6F
  8
2
 10
65.554395453334124
 20
78.950900583494516
 30
0.0
 11
66.024241763727161
 21
79.121910655157421
 31
0.0
  0
LINE
  5
70
  8
2
 10
66.024241763726934
 20
71.255447358667254
 30
0.0
 11
65.554395453333854
 21
71.426457430330004
 31
0.0
  0
CIRCLE
  5
71
  8
0
 10
55.217776624689343
 20
75.188679006912196
 30
0.0
 40
4.0
  0
LINE
  5
8F
  8
0
 10
117.1555987981981
 20
95.188679006912196
 30
0.0
 11
117.1555987981981
 21
55.188679006912189
 31
0.0
  0
LINE
  5
90
  8
0
 10
129.2799544511806
 20
95.188679006912196
 30
0.0
 11
129.27995445117119
 21
55.188679006911748
 31
0.0
  0
TEXT
  5
151
  8
0
 62
     3
 10
0.0
 20
0.0
 30
0.0
 40
10.0
  1
GRL40J-R
  7
STANDARD1
  0
ENDSEC
  0
EOF
