  0
SECTION
  2
HEADER
  9
$ACADVER
  1
AC1009
  9
$INSBASE
 10
0.0
 20
0.0
 30
0.0
  9
$EXTMIN
 10
0.0
 20
-2.960436562073669
 30
0.0
  9
$EXTMAX
 10
106.4573896076252
 20
74.446916367249742
 30
0.0
  9
$LIMMIN
 10
0.0
 20
0.0
  9
$LIMMAX
 10
187.5
 20
135.0
  9
$ORTHOMODE
 70
     1
  9
$REGENMODE
 70
     1
  9
$FILLMODE
 70
     1
  9
$QTEXTMODE
 70
     0
  9
$MIRRTEXT
 70
     0
  9
$DRAGMODE
 70
     2
  9
$LTSCALE
 40
5.0
  9
$OSMODE
 70
  3071
  9
$ATTMODE
 70
     1
  9
$TEXTSIZE
 40
0.2
  9
$TRACEWID
 40
0.05
  9
$TEXTSTYLE
  7
STANDARD
  9
$CLAYER
  8
0
  9
$CELTYPE
  6
BYLAYER
  9
$CECOLOR
 62
   256
  9
$DIMSCALE
 40
0.5
  9
$DIMASZ
 40
3.0
  9
$DIMEXO
 40
2.0
  9
$DIMDLI
 40
0.3799999999999999
  9
$DIMRND
 40
0.0
  9
$DIMDLE
 40
0.0
  9
$DIMEXE
 40
2.0
  9
$DIMTP
 40
0.0
  9
$DIMTM
 40
0.0
  9
$DIMTXT
 40
3.2000000000000002
  9
$DIMCEN
 40
0.09
  9
$DIMTSZ
 40
0.0
  9
$DIMTOL
 70
     0
  9
$DIMLIM
 70
     0
  9
$DIMTIH
 70
     0
  9
$DIMTOH
 70
     0
  9
$DIMSE1
 70
     0
  9
$DIMSE2
 70
     0
  9
$DIMTAD
 70
     1
  9
$DIMZIN
 70
     0
  9
$DIMBLK
  1

  9
$DIMASO
 70
     0
  9
$DIMSHO
 70
     0
  9
$DIMPOST
  1

  9
$DIMAPOST
  1

  9
$DIMALT
 70
     0
  9
$DIMALTD
 70
     2
  9
$DIMALTF
 40
25.399999999999999
  9
$DIMLFAC
 40
1.0
  9
$DIMTOFL
 70
     0
  9
$DIMTVP
 40
1.6000000000000001
  9
$DIMTIX
 70
     1
  9
$DIMSOXD
 70
     0
  9
$DIMSAH
 70
     0
  9
$DIMBLK1
  1

  9
$DIMBLK2
  1

  9
$DIMSTYLE
  2
STANDARD
  9
$DIMCLRD
 70
     0
  9
$DIMCLRE
 70
     0
  9
$DIMCLRT
 70
     0
  9
$DIMTFAC
 40
1.0
  9
$DIMGAP
 40
0.09
  9
$LUNITS
 70
     2
  9
$LUPREC
 70
     4
  9
$SKETCHINC
 40
0.1
  9
$FILLETRAD
 40
0.4
  9
$AUNITS
 70
     0
  9
$AUPREC
 70
     0
  9
$MENU
  1
E:\r13\win\SUPPORT\ACAD
  9
$ELEVATION
 40
0.0
  9
$PELEVATION
 40
0.0
  9
$THICKNESS
 40
0.0
  9
$LIMCHECK
 70
     0
  9
$BLIPMODE
 70
     0
  9
$CHAMFERA
 40
0.0
  9
$CHAMFERB
 40
0.0
  9
$SKPOLY
 70
     0
  9
$TDCREATE
 40
2451824.6906229062
  9
$TDUPDATE
 40
2456598.6893993062
  9
$TDINDWG
 40
0.0212548843
  9
$TDUSRTIMER
 40
0.0212548843
  9
$USRTIMER
 70
     1
  9
$ANGBASE
 50
0.0
  9
$ANGDIR
 70
     0
  9
$PDMODE
 70
     0
  9
$PDSIZE
 40
0.0
  9
$PLINEWID
 40
0.0
  9
$COORDS
 70
     1
  9
$SPLFRAME
 70
     0
  9
$SPLINETYPE
 70
     6
  9
$SPLINESEGS
 70
     8
  9
$ATTDIA
 70
     0
  9
$ATTREQ
 70
     1
  9
$HANDLING
 70
     1
  9
$HANDSEED
  5
1F8
  9
$SURFTAB1
 70
     6
  9
$SURFTAB2
 70
     6
  9
$SURFTYPE
 70
     6
  9
$SURFU
 70
     6
  9
$SURFV
 70
     6
  9
$UCSNAME
  2

  9
$UCSORG
 10
0.0
 20
0.0
 30
0.0
  9
$UCSXDIR
 10
1.0
 20
0.0
 30
0.0
  9
$UCSYDIR
 10
0.0
 20
1.0
 30
0.0
  9
$PUCSNAME
  2

  9
$PUCSORG
 10
0.0
 20
0.0
 30
0.0
  9
$PUCSXDIR
 10
1.0
 20
0.0
 30
0.0
  9
$PUCSYDIR
 10
0.0
 20
1.0
 30
0.0
  9
$USERI1
 70
     0
  9
$USERI2
 70
     1
  9
$USERI3
 70
     0
  9
$USERI4
 70
     0
  9
$USERI5
 70
     0
  9
$USERR1
 40
0.0
  9
$USERR2
 40
0.0
  9
$USERR3
 40
0.0
  9
$USERR4
 40
0.0
  9
$USERR5
 40
0.0
  9
$WORLDVIEW
 70
     1
  9
$SHADEDGE
 70
     3
  9
$SHADEDIF
 70
    70
  9
$TILEMODE
 70
     1
  9
$MAXACTVP
 70
    16
  9
$PLIMCHECK
 70
     0
  9
$PEXTMIN
 10
1.0000000000000000E+020
 20
1.0000000000000000E+020
 30
1.0000000000000000E+020
  9
$PEXTMAX
 10
-1.0000000000000000E+020
 20
-1.0000000000000000E+020
 30
-1.0000000000000000E+020
  9
$PLIMMIN
 10
0.0
 20
0.0
  9
$PLIMMAX
 10
12.0
 20
9.0
  9
$UNITMODE
 70
     0
  9
$VISRETAIN
 70
     0
  9
$PLINEGEN
 70
     0
  9
$PSLTSCALE
 70
     0
  0
ENDSEC
  0
SECTION
  2
TABLES
  0
TABLE
  2
VPORT
 70
     1
  0
VPORT
  2
*ACTIVE
 70
     0
 10
0.0
 20
0.0
 11
1.0
 21
1.0
 12
93.74713919532617
 22
66.313465060797697
 13
0.0
 23
0.0
 14
5.0
 24
5.0
 15
5.0
 25
5.0
 16
0.0
 26
0.0
 36
1.0
 17
0.0
 27
0.0
 37
0.0
 40
140.15365342376049
 41
2.304913294797688
 42
50.0
 43
0.0
 44
0.0
 50
0.0
 51
0.0
 71
     0
 72
   500
 73
     1
 74
     0
 75
     0
 76
     0
 77
     0
 78
     2
  0
ENDTAB
  0
TABLE
  2
LTYPE
 70
     5
  0
LTYPE
  2
CONTINUOUS
 70
     0
  3
Solid Line
 72
    65
 73
     0
 40
0.0
  0
LTYPE
  2
CENTER
 70
     0
  3
____ _ ____ _ ____ _ ____ _ ____ _ ____ _ ____
 72
    65
 73
     4
 40
2.0
 49
1.25
 49
-0.25
 49
0.25
 49
-0.25
  0
LTYPE
  2
HIDDEN
 70
     0
  3
__ __ __ __ __ __ __ __ __ __ __ __ __ __ __ __
 72
    65
 73
     2
 40
0.375
 49
0.25
 49
-0.125
  0
LTYPE
  2
PHANTOM
 70
     0
  3
_____ _ _ _____ _ _ _____ _ _ _____ _ _ ____
 72
    65
 73
     6
 40
2.5
 49
1.25
 49
-0.25
 49
0.25
 49
-0.25
 49
0.25
 49
-0.25
  0
LTYPE
  2
PHANTOM2
 70
     0
  3
___ _ _ ___ _ _ ___ _ _ ___ _ _
 72
    65
 73
     6
 40
1.25
 49
0.625
 49
-0.125
 49
0.125
 49
-0.125
 49
0.125
 49
-0.125
  0
ENDTAB
  0
TABLE
  2
LAYER
 70
     4
  0
LAYER
  2
0
 70
     0
 62
     7
  6
CONTINUOUS
  0
LAYER
  2
1
 70
     0
 62
     1
  6
CENTER
  0
LAYER
  2
2
 70
     0
 62
     2
  6
HIDDEN
  0
LAYER
  2
5
 70
     0
 62
     3
  6
PHANTOM
  0
ENDTAB
  0
TABLE
  2
STYLE
 70
     2
  0
STYLE
  2
STANDARD
 70
     0
 40
0.0
 41
1.0
 50
0.0
 71
     0
 42
0.2
  3
TXT
  4
BIGFONT
  0
STYLE
  2
STANDARD1
 70
     0
 40
0.0
 41
1.0
 50
0.0
 71
     0
 42
3.0
  3
txt
  4

  0
ENDTAB
  0
TABLE
  2
VIEW
 70
     0
  0
ENDTAB
  0
TABLE
  2
UCS
 70
     0
  0
ENDTAB
  0
TABLE
  2
APPID
 70
     3
  0
APPID
  2
ACAD
 70
     0
  0
APPID
  2
ACAD_MLEADERVER
 70
     0
  0
APPID
  2
ACAD_NAV_VCDISPLAY
 70
     0
  0
ENDTAB
  0
TABLE
  2
DIMSTYLE
 70
     1
  0
DIMSTYLE
  2
STANDARD
 70
     0
  3

  4

  5

  6

  7

 40
1.0
 41
0.18
 42
0.0625
 43
0.38
 44
0.18
 45
0.0
 46
0.0
 47
0.0
 48
0.0
140
0.18
141
0.09
142
0.0
143
25.399999999999999
144
1.0
145
0.0
146
1.0
147
0.09
 71
     0
 72
     0
 73
     1
 74
     1
 75
     0
 76
     0
 77
     0
 78
     0
170
     0
171
     2
172
     0
173
     0
174
     0
175
     0
176
     0
177
     0
178
     0
  0
ENDTAB
  0
ENDSEC
  0
SECTION
  2
BLOCKS
  0
BLOCK
  8
0
  2
$MODEL_SPACE
 70
     0
 10
0.0
 20
0.0
 30
0.0
  3
$MODEL_SPACE
  1

  0
ENDBLK
  5
9
  8
0
  0
BLOCK
 67
     1
  8
0
  2
$PAPER_SPACE
 70
     0
 10
0.0
 20
0.0
 30
0.0
  3
$PAPER_SPACE
  1

  0
ENDBLK
  5
E
 67
     1
  8
0
  0
ENDSEC
  0
SECTION
  2
ENTITIES
  0
LINE
  5
26
  8
1
 10
86.957389607625245
 20
65.946916367249742
 30
0.0
 11
103.9573896076252
 21
65.946916367249742
 31
0.0
  0
LINE
  5
29
  8
1
 10
87.957389607625316
 20
30.64150874099909
 30
0.0
 11
102.9573896076253
 21
30.64150874099909
 31
0.0
  0
CIRCLE
  5
2A
  8
5
 10
95.457389607625245
 20
65.946916367249742
 30
0.0
 40
6.0
  0
CIRCLE
  5
2D
  8
5
 10
95.457389607625316
 20
30.64150874099909
 30
0.0
 40
5.0
  0
LINE
  5
2E
  8
2
 10
98.457389607625259
 20
54.141508909458373
 30
0.0
 11
101.4573896076252
 21
54.141508909458373
 31
0.0
  0
LINE
  5
2F
  8
0
 10
100.8525013559773
 20
62.641508909458253
 30
0.0
 11
101.4573896076252
 21
62.641508909458359
 31
0.0
  0
LINE
  5
30
  8
2
 10
98.457389607625259
 20
41.141508909458359
 30
0.0
 11
101.4573896076252
 21
41.141508909458359
 31
0.0
  0
CIRCLE
  5
31
  8
2
 10
95.457389607625245
 20
53.391508909458373
 30
0.0
 40
1.5
  0
LINE
  5
32
  8
2
 10
96.693310317054852
 20
52.541508909458457
 30
0.0
 11
98.457389607625259
 21
52.541508909458457
 31
0.0
  0
LINE
  5
33
  8
2
 10
96.693310317055762
 20
54.241508909458283
 30
0.0
 11
98.457389607625259
 21
54.241508909458283
 31
0.0
  0
ARC
  5
34
  8
2
 10
98.157389607625092
 20
55.841508909458632
 30
0.0
 40
0.3
 50
0.0
 51
90.0
  0
ARC
  5
35
  8
2
 10
98.157389607625092
 20
50.941508909458094
 30
0.0
 40
0.3
 50
270.0
 51
0.0
  0
ARC
  5
36
  8
2
 10
98.257389607624532
 20
55.941508909458094
 30
0.0
 40
0.2
 50
0.0
 51
90.0
  0
LINE
  5
37
  8
0
 10
94.707389607625259
 20
57.891508909458373
 30
0.0
 11
96.207389607625259
 21
57.891508909458373
 31
0.0
  0
LINE
  5
3A
  8
0
 10
89.457389607625245
 20
62.641508909458359
 30
0.0
 11
90.062277859273195
 21
62.641508909458253
 31
0.0
  0
LINE
  5
3B
  8
2
 10
90.457389607625245
 20
56.141508909458359
 30
0.0
 11
91.307389607624714
 21
56.141508909458359
 31
0.0
  0
LINE
  5
3C
  8
2
 10
90.457389607625245
 20
56.141508909458359
 30
0.0
 11
89.457389607625245
 21
56.718859178647897
 31
0.0
  0
LINE
  5
3D
  8
2
 10
91.457389607625274
 20
55.254655433727642
 30
0.0
 11
92.457389607625259
 21
55.25465543372809
 31
0.0
  0
ARC
  5
3E
  8
2
 10
92.757389607624532
 20
55.841508909458632
 30
0.0
 40
0.3
 50
90.0
 51
180.0
  0
ARC
  5
3F
  8
2
 10
92.757389607624532
 20
50.941508909458094
 30
0.0
 40
0.3
 50
180.0
 51
270.0
  0
LINE
  5
40
  8
2
 10
91.307389607624714
 20
56.541508909458457
 30
0.0
 11
92.457389607625259
 21
56.541508909458457
 31
0.0
  0
LINE
  5
41
  8
2
 10
92.757389607624532
 20
50.641508909458359
 30
0.0
 11
98.157389607625092
 21
50.641508909458359
 31
0.0
  0
LINE
  5
42
  8
2
 10
92.457389607625259
 20
52.541508909458457
 30
0.0
 11
94.221468898194757
 21
52.541508909458457
 31
0.0
  0
LINE
  5
43
  8
2
 10
92.457389607625259
 20
54.241508909458283
 30
0.0
 11
94.221468898193848
 21
54.241508909458283
 31
0.0
  0
LINE
  5
44
  8
2
 10
92.457389607625259
 20
56.141508909458359
 30
0.0
 11
98.257389607624532
 21
56.141508909458359
 31
0.0
  0
CIRCLE
  5
45
  8
2
 10
95.457389607625245
 20
41.891508909458359
 30
0.0
 40
1.5
  0
LINE
  5
46
  8
2
 10
96.693310317055762
 20
41.04150890945845
 30
0.0
 11
98.457389607625259
 21
41.04150890945845
 31
0.0
  0
ARC
  5
47
  8
2
 10
98.157389607625092
 20
44.341508909458639
 30
0.0
 40
0.3
 50
0.0
 51
90.0
  0
LINE
  5
48
  8
2
 10
96.693310317054852
 20
42.741508909458268
 30
0.0
 11
98.457389607625259
 21
42.741508909458268
 31
0.0
  0
LINE
  5
49
  8
2
 10
91.457389607625274
 20
40.028362385188643
 30
0.0
 11
92.457389607625259
 21
40.028362385188643
 31
0.0
  0
ARC
  5
4A
  8
2
 10
92.757389607624532
 20
44.341508909458177
 30
0.0
 40
0.3
 50
90.0
 51
180.0
  0
LINE
  5
4B
  8
2
 10
92.457389607625259
 20
41.04150890945845
 30
0.0
 11
94.221468898193848
 21
41.04150890945845
 31
0.0
  0
LINE
  5
4C
  8
2
 10
92.457389607625259
 20
42.741508909458268
 30
0.0
 11
94.221468898194757
 21
42.741508909458268
 31
0.0
  0
LINE
  5
4D
  8
2
 10
92.757389607624532
 20
44.641508909458373
 30
0.0
 11
98.157389607625092
 21
44.641508909458373
 31
0.0
  0
ARC
  5
4E
  8
2
 10
98.257389607624532
 20
39.341508909458639
 30
0.0
 40
0.2
 50
270.0
 51
0.0
  0
LINE
  5
4F
  8
2
 10
90.457389607625245
 20
39.141508909458373
 30
0.0
 11
91.307389607624714
 21
39.141508909458373
 31
0.0
  0
LINE
  5
50
  8
2
 10
90.457389607625245
 20
39.141508909458373
 30
0.0
 11
89.457389607625245
 21
38.564158640268829
 31
0.0
  0
LINE
  5
51
  8
2
 10
91.307389607624714
 20
38.741508909458268
 30
0.0
 11
92.457389607625259
 21
38.741508909458268
 31
0.0
  0
LINE
  5
52
  8
2
 10
92.457389607625259
 20
39.141508909458373
 30
0.0
 11
98.257389607624532
 21
39.141508909458373
 31
0.0
  0
ARC
  5
53
  8
2
 10
98.157389607625092
 20
39.441508909458101
 30
0.0
 40
0.3
 50
270.0
 51
0.0
  0
ARC
  5
54
  8
2
 10
92.757389607624532
 20
39.441508909458101
 30
0.0
 40
0.3
 50
180.0
 51
270.0
  0
LINE
  5
55
  8
2
 10
90.457389607625245
 20
39.141508909458373
 30
0.0
 11
90.457389607625245
 21
56.141508909458359
 31
0.0
  0
LINE
  5
56
  8
0
 10
89.457389607625245
 20
32.641508909458373
 30
0.0
 11
89.457389607625245
 21
62.641508909458359
 31
0.0
  0
LINE
  5
57
  8
2
 10
91.457389607625274
 20
56.541508909458457
 30
0.0
 11
91.457389607625274
 21
38.741508909458268
 31
0.0
  0
LINE
  5
58
  8
2
 10
91.307389607624714
 20
38.741508909458268
 30
0.0
 11
91.307389607624714
 21
56.541508909458457
 31
0.0
  0
LINE
  5
59
  8
2
 10
92.457389607625259
 20
38.741508909458268
 30
0.0
 11
92.457389607625259
 21
56.541508909458457
 31
0.0
  0
LINE
  5
5A
  8
2
 10
98.457389607625259
 20
39.341508909458639
 30
0.0
 11
98.457389607625259
 21
55.941508909458094
 31
0.0
  0
LINE
  5
5B
  8
0
 10
101.4573896076252
 20
32.641508909458373
 30
0.0
 11
101.4573896076252
 21
62.641508909458359
 31
0.0
  0
LINE
  5
5C
  8
1
 10
84.457389607625245
 20
47.641508909458359
 30
0.0
 11
106.4573896076252
 21
47.641508909458359
 31
0.0
  0
LINE
  5
5D
  8
1
 10
95.457389607625245
 20
23.14150874099909
 30
0.0
 11
95.457389607625245
 21
74.446916367249742
 31
0.0
  0
LINE
  5
5E
  8
0
 10
96.207389607625259
 20
58.743797354639462
 30
0.0
 11
100.8525013559773
 21
62.641508909458253
 31
0.0
  0
LINE
  5
5F
  8
0
 10
94.707389607625259
 20
58.743797354639689
 30
0.0
 11
90.062277859273195
 21
62.641508909458253
 31
0.0
  0
LINE
  5
60
  8
0
 10
94.707389607625259
 20
36.539220464277037
 30
0.0
 11
90.062277859273195
 21
32.64150890945848
 31
0.0
  0
LINE
  5
61
  8
0
 10
96.207389607625259
 20
36.539220464277271
 30
0.0
 11
100.8525013559773
 21
32.64150890945848
 31
0.0
  0
LINE
  5
62
  8
0
 10
89.457389607625245
 20
32.641508909458373
 30
0.0
 11
90.062277859273195
 21
32.64150890945848
 31
0.0
  0
LINE
  5
63
  8
0
 10
94.707389607625259
 20
58.743797354639689
 30
0.0
 11
94.707389607625259
 21
36.539220464277037
 31
0.0
  0
LINE
  5
64
  8
0
 10
96.207389607636671
 20
58.743797354649011
 30
0.0
 11
96.207389607624805
 21
36.539220464277378
 31
0.0
  0
LINE
  5
65
  8
0
 10
94.707389607625259
 20
37.391508909458373
 30
0.0
 11
96.207389607625259
 21
37.391508909458373
 31
0.0
  0
LINE
  5
66
  8
0
 10
100.8525013559773
 20
32.64150890945848
 30
0.0
 11
101.4573896076252
 21
32.641508909458373
 31
0.0
  0
CIRCLE
  5
67
  8
0
 10
50.043253462034947
 20
44.416508909458372
 30
0.0
 40
0.85
  0
ARC
  5
68
  8
0
 10
50.043253462034947
 20
44.416508909458372
 30
0.0
 40
1.3499999999999719
 50
72.081469884707005
 51
227.9185301152944
  0
LINE
  5
69
  8
0
 10
50.458600345760942
 20
45.70102709390693
 30
0.0
 11
52.54509669489417
 21
45.026361863776167
 31
0.0
  0
LINE
  5
6A
  8
0
 10
49.138501524542441
 20
43.414548864544649
 30
0.0
 11
50.536031628482931
 21
42.152604263397222
 31
0.0
  0
LINE
  5
6B
  8
2
 10
52.54509669489417
 20
45.026361863776167
 30
0.0
 11
52.925694675471618
 21
44.903296120449902
 31
0.0
  0
LINE
  5
6E
  8
2
 10
52.54509669489417
 20
50.256655955140552
 30
0.0
 11
52.925694675471618
 21
50.379721698466817
 31
0.0
  0
LINE
  5
6F
  8
0
 10
49.138501524542441
 20
51.868468954372076
 30
0.0
 11
50.536031628482931
 21
53.13041355551951
 31
0.0
  0
LINE
  5
70
  8
0
 10
50.458600345760942
 20
49.581990725009803
 30
0.0
 11
52.54509669489417
 21
50.256655955140552
 31
0.0
  0
ARC
  5
71
  8
0
 10
50.043253462034947
 20
50.866508909458361
 30
0.0
 40
1.3499999999999719
 50
132.08146988470551
 51
287.91853011529298
  0
CIRCLE
  5
72
  8
0
 10
50.043253462034947
 20
50.866508909458361
 30
0.0
 40
0.85
  0
ARC
  5
73
  8
0
 10
45.207389607625259
 20
47.641508909458359
 30
0.0
 40
7.6500000000000901
 50
45.848778434529848
 51
314.15122156547011
  0
CIRCLE
  5
74
  8
2
 10
44.457389607625252
 20
47.641508909458359
 30
0.0
 40
8.9000000000000892
  0
CIRCLE
  5
75
  8
0
 10
44.457389607625252
 20
47.641508909458359
 30
0.0
 40
3.0
  0
CIRCLE
  5
76
  8
0
 10
44.457389607625252
 20
47.641508909458359
 30
0.0
 40
8.5
  0
LINE
  5
78
  8
1
 10
64.457389607625245
 20
47.641508909458359
 30
0.0
 11
24.457389607625259
 21
47.641508909458359
 31
0.0
  0
LINE
  5
79
  8
1
 10
44.457389607625252
 20
67.641508909458366
 30
0.0
 11
44.457389607625252
 21
27.64150890945837
 31
0.0
  0
CIRCLE
  5
7A
  8
0
 10
44.457389607625252
 20
47.641508909458359
 30
0.0
 40
15.0
  0
LINE
  5
9C
  8
0
 10
100.8525013559773
 20
62.641508909458253
 30
0.0
 11
100.8525013559773
 21
32.64150890945848
 31
0.0
  0
LINE
  5
9D
  8
0
 10
90.062277859273195
 20
62.641508909458253
 30
0.0
 11
90.062277859273195
 21
32.64150890945848
 31
0.0
  0
CIRCLE
  5
BA
  8
2
 10
44.457389607625252
 20
47.641508909458359
 30
0.0
 40
10.25
  0
TEXT
  5
161
  8
0
 62
     3
 10
0.0
 20
0.0
 30
0.0
 40
10.0
  1
GRL30J-Y
  7
STANDARD1
  0
ENDSEC
  0
EOF
