  0
SECTION
  2
HEADER
  9
$ACADVER
  1
AC1009
  9
$INSBASE
 10
0.0
 20
0.0
 30
0.0
  9
$EXTMIN
 10
0.0
 20
-2.960436562073669
 30
0.0
  9
$EXTMAX
 10
105.0415496188443
 20
68.867924493775206
 30
0.0
  9
$LIMMIN
 10
0.0
 20
0.0
  9
$LIMMAX
 10
187.5
 20
135.0
  9
$ORTHOMODE
 70
     0
  9
$REGENMODE
 70
     1
  9
$FILLMODE
 70
     1
  9
$QTEXTMODE
 70
     0
  9
$MIRRTEXT
 70
     0
  9
$DRAGMODE
 70
     2
  9
$LTSCALE
 40
5.0
  9
$OSMODE
 70
  3071
  9
$ATTMODE
 70
     1
  9
$TEXTSIZE
 40
0.2
  9
$TRACEWID
 40
0.05
  9
$TEXTSTYLE
  7
STANDARD
  9
$CLAYER
  8
0
  9
$CELTYPE
  6
BYLAYER
  9
$CECOLOR
 62
   256
  9
$DIMSCALE
 40
0.5
  9
$DIMASZ
 40
3.0
  9
$DIMEXO
 40
2.0
  9
$DIMDLI
 40
0.3799999999999999
  9
$DIMRND
 40
0.0
  9
$DIMDLE
 40
0.0
  9
$DIMEXE
 40
2.0
  9
$DIMTP
 40
0.0
  9
$DIMTM
 40
0.0
  9
$DIMTXT
 40
3.2000000000000002
  9
$DIMCEN
 40
0.09
  9
$DIMTSZ
 40
0.0
  9
$DIMTOL
 70
     0
  9
$DIMLIM
 70
     0
  9
$DIMTIH
 70
     0
  9
$DIMTOH
 70
     0
  9
$DIMSE1
 70
     0
  9
$DIMSE2
 70
     0
  9
$DIMTAD
 70
     1
  9
$DIMZIN
 70
     0
  9
$DIMBLK
  1

  9
$DIMASO
 70
     0
  9
$DIMSHO
 70
     0
  9
$DIMPOST
  1

  9
$DIMAPOST
  1

  9
$DIMALT
 70
     0
  9
$DIMALTD
 70
     2
  9
$DIMALTF
 40
25.399999999999999
  9
$DIMLFAC
 40
1.0
  9
$DIMTOFL
 70
     0
  9
$DIMTVP
 40
1.6000000000000001
  9
$DIMTIX
 70
     1
  9
$DIMSOXD
 70
     0
  9
$DIMSAH
 70
     0
  9
$DIMBLK1
  1

  9
$DIMBLK2
  1

  9
$DIMSTYLE
  2
STANDARD
  9
$DIMCLRD
 70
     0
  9
$DIMCLRE
 70
     0
  9
$DIMCLRT
 70
     0
  9
$DIMTFAC
 40
1.0
  9
$DIMGAP
 40
0.09
  9
$LUNITS
 70
     2
  9
$LUPREC
 70
     4
  9
$SKETCHINC
 40
0.1
  9
$FILLETRAD
 40
0.4
  9
$AUNITS
 70
     0
  9
$AUPREC
 70
     0
  9
$MENU
  1
E:\r13\win\SUPPORT\ACAD
  9
$ELEVATION
 40
0.0
  9
$PELEVATION
 40
0.0
  9
$THICKNESS
 40
0.0
  9
$LIMCHECK
 70
     0
  9
$BLIPMODE
 70
     0
  9
$CHAMFERA
 40
0.0
  9
$CHAMFERB
 40
0.0
  9
$SKPOLY
 70
     0
  9
$TDCREATE
 40
2451824.6906229062
  9
$TDUPDATE
 40
2456598.689391192
  9
$TDINDWG
 40
0.0122489815
  9
$TDUSRTIMER
 40
0.0122489815
  9
$USRTIMER
 70
     1
  9
$ANGBASE
 50
0.0
  9
$ANGDIR
 70
     0
  9
$PDMODE
 70
     0
  9
$PDSIZE
 40
0.0
  9
$PLINEWID
 40
0.0
  9
$COORDS
 70
     1
  9
$SPLFRAME
 70
     0
  9
$SPLINETYPE
 70
     6
  9
$SPLINESEGS
 70
     8
  9
$ATTDIA
 70
     0
  9
$ATTREQ
 70
     1
  9
$HANDLING
 70
     1
  9
$HANDSEED
  5
1E6
  9
$SURFTAB1
 70
     6
  9
$SURFTAB2
 70
     6
  9
$SURFTYPE
 70
     6
  9
$SURFU
 70
     6
  9
$SURFV
 70
     6
  9
$UCSNAME
  2

  9
$UCSORG
 10
0.0
 20
0.0
 30
0.0
  9
$UCSXDIR
 10
1.0
 20
0.0
 30
0.0
  9
$UCSYDIR
 10
0.0
 20
1.0
 30
0.0
  9
$PUCSNAME
  2

  9
$PUCSORG
 10
0.0
 20
0.0
 30
0.0
  9
$PUCSXDIR
 10
1.0
 20
0.0
 30
0.0
  9
$PUCSYDIR
 10
0.0
 20
1.0
 30
0.0
  9
$USERI1
 70
     0
  9
$USERI2
 70
     1
  9
$USERI3
 70
     0
  9
$USERI4
 70
     0
  9
$USERI5
 70
     0
  9
$USERR1
 40
0.0
  9
$USERR2
 40
0.0
  9
$USERR3
 40
0.0
  9
$USERR4
 40
0.0
  9
$USERR5
 40
0.0
  9
$WORLDVIEW
 70
     1
  9
$SHADEDGE
 70
     3
  9
$SHADEDIF
 70
    70
  9
$TILEMODE
 70
     1
  9
$MAXACTVP
 70
    16
  9
$PLIMCHECK
 70
     0
  9
$PEXTMIN
 10
1.0000000000000000E+020
 20
1.0000000000000000E+020
 30
1.0000000000000000E+020
  9
$PEXTMAX
 10
-1.0000000000000000E+020
 20
-1.0000000000000000E+020
 30
-1.0000000000000000E+020
  9
$PLIMMIN
 10
0.0
 20
0.0
  9
$PLIMMAX
 10
12.0
 20
9.0
  9
$UNITMODE
 70
     0
  9
$VISRETAIN
 70
     0
  9
$PLINEGEN
 70
     0
  9
$PSLTSCALE
 70
     0
  0
ENDSEC
  0
SECTION
  2
TABLES
  0
TABLE
  2
VPORT
 70
     1
  0
VPORT
  2
*ACTIVE
 70
     0
 10
0.0
 20
0.0
 11
1.0
 21
1.0
 12
93.74713919532617
 22
66.313465060797697
 13
0.0
 23
0.0
 14
5.0
 24
5.0
 15
5.0
 25
5.0
 16
0.0
 26
0.0
 36
1.0
 17
0.0
 27
0.0
 37
0.0
 40
140.15365342376049
 41
2.304913294797688
 42
50.0
 43
0.0
 44
0.0
 50
0.0
 51
0.0
 71
     0
 72
   500
 73
     1
 74
     0
 75
     0
 76
     0
 77
     0
 78
     2
  0
ENDTAB
  0
TABLE
  2
LTYPE
 70
     4
  0
LTYPE
  2
CONTINUOUS
 70
     0
  3
Solid Line
 72
    65
 73
     0
 40
0.0
  0
LTYPE
  2
CENTER
 70
     0
  3
____ _ ____ _ ____ _ ____ _ ____ _ ____ _ ____
 72
    65
 73
     4
 40
2.0
 49
1.25
 49
-0.25
 49
0.25
 49
-0.25
  0
LTYPE
  2
HIDDEN
 70
     0
  3
__ __ __ __ __ __ __ __ __ __ __ __ __ __ __ __
 72
    65
 73
     2
 40
0.375
 49
0.25
 49
-0.125
  0
LTYPE
  2
PHANTOM2
 70
     0
  3
___ _ _ ___ _ _ ___ _ _ ___ _ _
 72
    65
 73
     6
 40
1.25
 49
0.625
 49
-0.125
 49
0.125
 49
-0.125
 49
0.125
 49
-0.125
  0
ENDTAB
  0
TABLE
  2
LAYER
 70
     3
  0
LAYER
  2
0
 70
     0
 62
     7
  6
CONTINUOUS
  0
LAYER
  2
1
 70
     0
 62
     1
  6
CENTER
  0
LAYER
  2
2
 70
     0
 62
     2
  6
HIDDEN
  0
ENDTAB
  0
TABLE
  2
STYLE
 70
     2
  0
STYLE
  2
STANDARD
 70
     0
 40
0.0
 41
1.0
 50
0.0
 71
     0
 42
0.2
  3
TXT
  4
BIGFONT
  0
STYLE
  2
STANDARD1
 70
     0
 40
0.0
 41
1.0
 50
0.0
 71
     0
 42
3.0
  3
txt
  4

  0
ENDTAB
  0
TABLE
  2
VIEW
 70
     0
  0
ENDTAB
  0
TABLE
  2
UCS
 70
     0
  0
ENDTAB
  0
TABLE
  2
APPID
 70
     3
  0
APPID
  2
ACAD
 70
     0
  0
APPID
  2
ACAD_MLEADERVER
 70
     0
  0
APPID
  2
ACAD_NAV_VCDISPLAY
 70
     0
  0
ENDTAB
  0
TABLE
  2
DIMSTYLE
 70
     1
  0
DIMSTYLE
  2
STANDARD
 70
     0
  3

  4

  5

  6

  7

 40
1.0
 41
0.18
 42
0.0625
 43
0.38
 44
0.18
 45
0.0
 46
0.0
 47
0.0
 48
0.0
140
0.18
141
0.09
142
0.0
143
25.399999999999999
144
1.0
145
0.0
146
1.0
147
0.09
 71
     0
 72
     0
 73
     1
 74
     1
 75
     0
 76
     0
 77
     0
 78
     0
170
     0
171
     2
172
     0
173
     0
174
     0
175
     0
176
     0
177
     0
178
     0
  0
ENDTAB
  0
ENDSEC
  0
SECTION
  2
BLOCKS
  0
BLOCK
  8
0
  2
$MODEL_SPACE
 70
     0
 10
0.0
 20
0.0
 30
0.0
  3
$MODEL_SPACE
  1

  0
ENDBLK
  5
9
  8
0
  0
BLOCK
 67
     1
  8
0
  2
$PAPER_SPACE
 70
     0
 10
0.0
 20
0.0
 30
0.0
  3
$PAPER_SPACE
  1

  0
ENDBLK
  5
E
 67
     1
  8
0
  0
ENDSEC
  0
SECTION
  2
ENTITIES
  0
LINE
  5
26
  8
0
 10
100.0415496188443
 20
33.867924493775213
 30
0.0
 11
100.0415496188443
 21
63.867924493775199
 31
0.0
  0
LINE
  5
27
  8
0
 10
88.041549618843405
 20
33.867924493775213
 30
0.0
 11
88.041549618843405
 21
63.867924493775199
 31
0.0
  0
LINE
  5
28
  8
0
 10
97.938663935873592
 20
35.617924493775213
 30
0.0
 11
98.949026906955623
 21
33.867924493774751
 31
0.0
  0
LINE
  5
29
  8
0
 10
100.0415496188443
 20
33.867924493775213
 30
0.0
 11
98.949026906955623
 21
33.867924493775213
 31
0.0
  0
LINE
  5
2A
  8
0
 10
89.134072330732124
 20
33.867924493775213
 30
0.0
 11
88.041549618843405
 21
33.867924493775213
 31
0.0
  0
LINE
  5
2B
  8
0
 10
90.144435301814156
 20
35.617924493775213
 30
0.0
 11
89.134072330732124
 21
33.867924493774751
 31
0.0
  0
ARC
  5
2C
  8
0
 10
94.041549618844329
 20
33.367924493775213
 30
0.0
 40
4.5
 50
30.00000000000032
 51
149.99999999999969
  0
LINE
  5
2D
  8
1
 10
83.041549618843405
 20
48.867924493775199
 30
0.0
 11
105.0415496188443
 21
48.867924493775199
 31
0.0
  0
LINE
  5
30
  8
0
 10
97.938663935873592
 20
62.117924493775199
 30
0.0
 11
98.949026906955623
 21
63.867924493775199
 31
0.0
  0
LINE
  5
31
  8
0
 10
98.949026906955623
 20
63.867924493775199
 30
0.0
 11
100.0415496188443
 21
63.867924493775199
 31
0.0
  0
LINE
  5
32
  8
2
 10
91.041549618843419
 20
39.96792449377466
 30
0.0
 11
91.041549618843419
 21
57.767924493774842
 31
0.0
  0
LINE
  5
33
  8
2
 10
89.891549618843797
 20
39.96792449377466
 30
0.0
 11
89.891549618843797
 21
57.767924493774842
 31
0.0
  0
LINE
  5
34
  8
2
 10
89.041549618843419
 20
40.367924493775213
 30
0.0
 11
89.041549618843419
 21
57.367924493775213
 31
0.0
  0
LINE
  5
35
  8
2
 10
90.041549618843419
 20
57.767924493774842
 30
0.0
 11
90.041549618843419
 21
39.96792449377466
 31
0.0
  0
LINE
  5
36
  8
2
 10
97.041549618843405
 20
40.567924493775017
 30
0.0
 11
97.041549618843405
 21
57.167924493774933
 31
0.0
  0
LINE
  5
37
  8
2
 10
91.341549618843615
 20
45.867924493775199
 30
0.0
 11
96.741549618844147
 21
45.867924493775199
 31
0.0
  0
LINE
  5
38
  8
2
 10
91.041549618844314
 20
43.96792449377466
 30
0.0
 11
92.805628909413826
 21
43.96792449377466
 31
0.0
  0
LINE
  5
39
  8
2
 10
91.041549618843419
 20
40.367924493775213
 30
0.0
 11
96.841549618843601
 21
40.367924493775213
 31
0.0
  0
LINE
  5
3A
  8
2
 10
91.041549618844314
 20
42.267924493774842
 30
0.0
 11
92.805628909412917
 21
42.267924493774842
 31
0.0
  0
ARC
  5
3B
  8
2
 10
91.341549618843615
 20
45.567924493775017
 30
0.0
 40
0.3
 50
90.0
 51
180.0
  0
LINE
  5
3C
  8
2
 10
89.891549618843797
 20
39.96792449377466
 30
0.0
 11
91.041549618843419
 21
39.96792449377466
 31
0.0
  0
ARC
  5
3D
  8
2
 10
91.341549618843615
 20
40.667924493774933
 30
0.0
 40
0.3
 50
180.0
 51
270.0
  0
LINE
  5
3E
  8
2
 10
90.041549618843419
 20
41.254777969505483
 30
0.0
 11
91.041549618843419
 21
41.254777969505483
 31
0.0
  0
LINE
  5
3F
  8
2
 10
89.041549618843419
 20
40.367924493775213
 30
0.0
 11
88.041549618843405
 21
39.790574224585221
 31
0.0
  0
LINE
  5
40
  8
2
 10
89.041549618843419
 20
40.367924493775213
 30
0.0
 11
89.891549618843797
 21
40.367924493775213
 31
0.0
  0
LINE
  5
41
  8
2
 10
95.277470328273921
 20
43.96792449377466
 30
0.0
 11
97.041549618844343
 21
43.96792449377466
 31
0.0
  0
ARC
  5
42
  8
2
 10
96.741549618844147
 20
45.567924493775017
 30
0.0
 40
0.3
 50
0.0
 51
90.0
  0
LINE
  5
43
  8
2
 10
95.277470328274816
 20
42.267924493774842
 30
0.0
 11
97.041549618844343
 21
42.267924493774842
 31
0.0
  0
ARC
  5
44
  8
2
 10
96.841549618843601
 20
40.567924493775017
 30
0.0
 40
0.2
 50
270.0
 51
0.0
  0
ARC
  5
45
  8
2
 10
96.741549618843237
 20
40.667924493774933
 30
0.0
 40
0.3
 50
270.0
 51
0.0
  0
CIRCLE
  5
46
  8
2
 10
94.041549618844329
 20
43.117924493775199
 30
0.0
 40
1.5
  0
LINE
  5
47
  8
2
 10
91.341549618843615
 20
51.867924493775199
 30
0.0
 11
96.741549618844147
 21
51.867924493775199
 31
0.0
  0
LINE
  5
48
  8
2
 10
91.041549618843419
 20
57.367924493775213
 30
0.0
 11
96.841549618843601
 21
57.367924493775213
 31
0.0
  0
LINE
  5
49
  8
2
 10
91.041549618844314
 20
55.46792449377466
 30
0.0
 11
92.805628909412917
 21
55.46792449377466
 31
0.0
  0
LINE
  5
4A
  8
2
 10
91.041549618844314
 20
53.767924493774842
 30
0.0
 11
92.805628909413826
 21
53.767924493774842
 31
0.0
  0
LINE
  5
4B
  8
2
 10
89.891549618843797
 20
57.767924493774842
 30
0.0
 11
91.041549618843419
 21
57.767924493774842
 31
0.0
  0
ARC
  5
4C
  8
2
 10
91.341549618843615
 20
52.167924493774933
 30
0.0
 40
0.3
 50
180.0
 51
270.0
  0
LINE
  5
4D
  8
2
 10
90.041549618843419
 20
56.481071018044467
 30
0.0
 11
91.041549618843419
 21
56.481071018044929
 31
0.0
  0
ARC
  5
4E
  8
2
 10
91.341549618843615
 20
57.067924493775017
 30
0.0
 40
0.3
 50
90.0
 51
180.0
  0
LINE
  5
4F
  8
2
 10
89.041549618843419
 20
57.367924493775213
 30
0.0
 11
88.041549618843405
 21
57.945274762964289
 31
0.0
  0
LINE
  5
50
  8
0
 10
88.041549618843405
 20
63.867924493775199
 30
0.0
 11
89.134072330732124
 21
63.867924493775199
 31
0.0
  0
LINE
  5
51
  8
0
 10
90.144435301814156
 20
62.117924493775199
 30
0.0
 11
89.134072330732124
 21
63.867924493775199
 31
0.0
  0
LINE
  5
52
  8
2
 10
89.041549618843419
 20
57.367924493775213
 30
0.0
 11
89.891549618843797
 21
57.367924493775213
 31
0.0
  0
LINE
  5
53
  8
2
 10
95.277470328274816
 20
55.46792449377466
 30
0.0
 11
97.041549618844343
 21
55.46792449377466
 31
0.0
  0
LINE
  5
54
  8
2
 10
95.277470328273921
 20
53.767924493774842
 30
0.0
 11
97.041549618844343
 21
53.767924493774842
 31
0.0
  0
CIRCLE
  5
55
  8
2
 10
94.041549618844329
 20
54.617924493775199
 30
0.0
 40
1.5
  0
ARC
  5
56
  8
2
 10
96.741549618844147
 20
52.167924493774933
 30
0.0
 40
0.3
 50
270.0
 51
0.0
  0
ARC
  5
57
  8
2
 10
96.841549618843601
 20
57.167924493774933
 30
0.0
 40
0.2
 50
0.0
 51
90.0
  0
ARC
  5
58
  8
2
 10
96.741549618844147
 20
57.067924493775017
 30
0.0
 40
0.3
 50
0.0
 51
90.0
  0
LINE
  5
59
  8
2
 10
97.041549618843405
 20
42.367924493775199
 30
0.0
 11
100.0415496188443
 21
42.367924493775199
 31
0.0
  0
ARC
  5
5A
  8
0
 10
94.041549618844329
 20
64.367924493775206
 30
0.0
 40
4.5
 50
210.00000000000031
 51
329.99999999999972
  0
LINE
  5
5B
  8
2
 10
97.041549618843405
 20
55.367924493775213
 30
0.0
 11
100.0415496188443
 21
55.367924493775213
 31
0.0
  0
CIRCLE
  5
5C
  8
0
 10
48.627413473253107
 20
45.642924493775197
 30
0.0
 40
0.85
  0
ARC
  5
5D
  8
0
 10
48.627413473253107
 20
45.642924493775197
 30
0.0
 40
1.3499999999999719
 50
72.081469884707005
 51
227.91853011529369
  0
LINE
  5
5E
  8
0
 10
49.042760356979102
 20
46.927442678223763
 30
0.0
 11
51.129256706112322
 21
46.252777448093013
 31
0.0
  0
LINE
  5
5F
  8
0
 10
47.722661535760608
 20
44.640964448861489
 30
0.0
 11
49.12019163970109
 21
43.379019847714069
 31
0.0
  0
LINE
  5
60
  8
2
 10
51.129256706112322
 20
46.252777448093013
 30
0.0
 11
51.509854686689771
 21
46.129711704766748
 31
0.0
  0
LINE
  5
63
  8
2
 10
51.129256706112322
 20
51.483071539457399
 30
0.0
 11
51.509854686689771
 21
51.606137282783671
 31
0.0
  0
LINE
  5
64
  8
0
 10
47.722661535760608
 20
53.094884538688909
 30
0.0
 11
49.12019163970109
 21
54.35682913983635
 31
0.0
  0
LINE
  5
65
  8
0
 10
49.042760356979102
 20
50.808406309326642
 30
0.0
 11
51.129256706112322
 21
51.483071539457399
 31
0.0
  0
ARC
  5
66
  8
0
 10
48.627413473253107
 20
52.0929244937752
 30
0.0
 40
1.3499999999999719
 50
132.08146988470631
 51
287.91853011529298
  0
CIRCLE
  5
67
  8
0
 10
48.627413473253107
 20
52.0929244937752
 30
0.0
 40
0.85
  0
ARC
  5
68
  8
0
 10
43.791549618843412
 20
48.867924493775199
 30
0.0
 40
7.6500000000000901
 50
45.848778434530431
 51
314.15122156546948
  0
CIRCLE
  5
69
  8
2
 10
43.041549618843419
 20
48.867924493775199
 30
0.0
 40
8.9000000000000892
  0
CIRCLE
  5
6A
  8
0
 10
43.041549618843419
 20
48.867924493775199
 30
0.0
 40
3.0
  0
CIRCLE
  5
6B
  8
0
 10
43.041549618843419
 20
48.867924493775199
 30
0.0
 40
8.5
  0
CIRCLE
  5
6C
  8
2
 10
43.041549618843419
 20
48.867924493775199
 30
0.0
 40
11.0
  0
LINE
  5
6D
  8
1
 10
63.041549618843419
 20
48.867924493775199
 30
0.0
 11
23.041549618843419
 21
48.867924493775199
 31
0.0
  0
LINE
  5
6E
  8
1
 10
43.041549618843419
 20
68.867924493775206
 30
0.0
 11
43.041549618843419
 21
28.86792449377521
 31
0.0
  0
CIRCLE
  5
6F
  8
0
 10
43.041549618843419
 20
48.867924493775199
 30
0.0
 40
15.0
  0
LINE
  5
8E
  8
0
 10
89.134072330732124
 20
63.867924493775199
 30
0.0
 11
89.13407233073238
 21
33.867924493775213
 31
0.0
  0
LINE
  5
8F
  8
0
 10
98.949026906955623
 20
63.867924493775199
 30
0.0
 11
98.949026906955382
 21
33.867924493775213
 31
0.0
  0
TEXT
  5
151
  8
0
 62
     3
 10
0.0
 20
0.0
 30
0.0
 40
10.0
  1
GRL30J-R
  7
STANDARD1
  0
ENDSEC
  0
EOF
