  0
SECTION
  2
HEADER
  9
$ACADVER
  1
AC1009
  9
$INSBASE
 10
0.0
 20
0.0
 30
0.0
  9
$EXTMIN
 10
0.0
 20
-2.960436562073669
 30
0.0
  9
$EXTMAX
 10
121.1050477489768
 20
63.0
 30
0.0
  9
$LIMMIN
 10
0.0
 20
0.0
  9
$LIMMAX
 10
187.5
 20
135.0
  9
$ORTHOMODE
 70
     0
  9
$REGENMODE
 70
     1
  9
$FILLMODE
 70
     1
  9
$QTEXTMODE
 70
     0
  9
$MIRRTEXT
 70
     0
  9
$DRAGMODE
 70
     2
  9
$LTSCALE
 40
5.0
  9
$OSMODE
 70
    37
  9
$ATTMODE
 70
     1
  9
$TEXTSIZE
 40
0.2
  9
$TRACEWID
 40
0.05
  9
$TEXTSTYLE
  7
STANDARD
  9
$CLAYER
  8
0
  9
$CELTYPE
  6
BYLAYER
  9
$CECOLOR
 62
   256
  9
$DIMSCALE
 40
0.5
  9
$DIMASZ
 40
3.0
  9
$DIMEXO
 40
2.0
  9
$DIMDLI
 40
0.38
  9
$DIMRND
 40
0.0
  9
$DIMDLE
 40
0.0
  9
$DIMEXE
 40
2.0
  9
$DIMTP
 40
0.0
  9
$DIMTM
 40
0.0
  9
$DIMTXT
 40
3.0
  9
$DIMCEN
 40
0.0
  9
$DIMTSZ
 40
0.0
  9
$DIMTOL
 70
     0
  9
$DIMLIM
 70
     0
  9
$DIMTIH
 70
     0
  9
$DIMTOH
 70
     0
  9
$DIMSE1
 70
     0
  9
$DIMSE2
 70
     0
  9
$DIMTAD
 70
     1
  9
$DIMZIN
 70
     8
  9
$DIMBLK
  1

  9
$DIMASO
 70
     0
  9
$DIMSHO
 70
     0
  9
$DIMPOST
  1

  9
$DIMAPOST
  1

  9
$DIMALT
 70
     0
  9
$DIMALTD
 70
     2
  9
$DIMALTF
 40
25.399999999999999
  9
$DIMLFAC
 40
1.0
  9
$DIMTOFL
 70
     1
  9
$DIMTVP
 40
1.6000000000000001
  9
$DIMTIX
 70
     1
  9
$DIMSOXD
 70
     0
  9
$DIMSAH
 70
     0
  9
$DIMBLK1
  1

  9
$DIMBLK2
  1

  9
$DIMSTYLE
  2
STANDARD
  9
$DIMCLRD
 70
     0
  9
$DIMCLRE
 70
     0
  9
$DIMCLRT
 70
     0
  9
$DIMTFAC
 40
1.0
  9
$DIMGAP
 40
0.09
  9
$LUNITS
 70
     2
  9
$LUPREC
 70
     1
  9
$SKETCHINC
 40
0.1
  9
$FILLETRAD
 40
0.5
  9
$AUNITS
 70
     0
  9
$AUPREC
 70
     0
  9
$MENU
  1
E:\r13\win\SUPPORT\ACAD
  9
$ELEVATION
 40
0.0
  9
$PELEVATION
 40
0.0
  9
$THICKNESS
 40
0.0
  9
$LIMCHECK
 70
     0
  9
$BLIPMODE
 70
     0
  9
$CHAMFERA
 40
0.0
  9
$CHAMFERB
 40
0.0
  9
$SKPOLY
 70
     0
  9
$TDCREATE
 40
2449840.6116550928
  9
$TDUPDATE
 40
2459250.5872674999
  9
$TDINDWG
 40
0.0599451273
  9
$TDUSRTIMER
 40
0.0599451273
  9
$USRTIMER
 70
     1
  9
$ANGBASE
 50
0.0
  9
$ANGDIR
 70
     0
  9
$PDMODE
 70
     0
  9
$PDSIZE
 40
0.0
  9
$PLINEWID
 40
0.0
  9
$COORDS
 70
     1
  9
$SPLFRAME
 70
     0
  9
$SPLINETYPE
 70
     6
  9
$SPLINESEGS
 70
     8
  9
$ATTDIA
 70
     0
  9
$ATTREQ
 70
     1
  9
$HANDLING
 70
     1
  9
$HANDSEED
  5
F3A
  9
$SURFTAB1
 70
     6
  9
$SURFTAB2
 70
     6
  9
$SURFTYPE
 70
     6
  9
$SURFU
 70
     6
  9
$SURFV
 70
     6
  9
$UCSNAME
  2

  9
$UCSORG
 10
0.0
 20
0.0
 30
0.0
  9
$UCSXDIR
 10
1.0
 20
0.0
 30
0.0
  9
$UCSYDIR
 10
0.0
 20
1.0
 30
0.0
  9
$PUCSNAME
  2

  9
$PUCSORG
 10
0.0
 20
0.0
 30
0.0
  9
$PUCSXDIR
 10
1.0
 20
0.0
 30
0.0
  9
$PUCSYDIR
 10
0.0
 20
1.0
 30
0.0
  9
$USERI1
 70
     3
  9
$USERI2
 70
     1
  9
$USERI3
 70
     0
  9
$USERI4
 70
     0
  9
$USERI5
 70
     0
  9
$USERR1
 40
0.5
  9
$USERR2
 40
3.0
  9
$USERR3
 40
3.0
  9
$USERR4
 40
3.0
  9
$USERR5
 40
10.0
  9
$WORLDVIEW
 70
     1
  9
$SHADEDGE
 70
     3
  9
$SHADEDIF
 70
    70
  9
$TILEMODE
 70
     1
  9
$MAXACTVP
 70
    16
  9
$PLIMCHECK
 70
     0
  9
$PEXTMIN
 10
1.0000000000000000E+020
 20
1.0000000000000000E+020
 30
1.0000000000000000E+020
  9
$PEXTMAX
 10
-1.0000000000000000E+020
 20
-1.0000000000000000E+020
 30
-1.0000000000000000E+020
  9
$PLIMMIN
 10
0.0
 20
0.0
  9
$PLIMMAX
 10
12.0
 20
9.0
  9
$UNITMODE
 70
     0
  9
$VISRETAIN
 70
     0
  9
$PLINEGEN
 70
     0
  9
$PSLTSCALE
 70
     0
  0
ENDSEC
  0
SECTION
  2
TABLES
  0
TABLE
  2
VPORT
 70
     1
  0
VPORT
  2
*ACTIVE
 70
     0
 10
0.0
 20
0.0
 11
1.0
 21
1.0
 12
132.35294117647061
 22
50.0
 13
0.0
 23
0.0
 14
5.0
 24
5.0
 15
10.0
 25
10.0
 16
0.0
 26
0.0
 36
1.0
 17
0.0
 27
0.0
 37
0.0
 40
100.0
 41
2.6470588235294108
 42
50.0
 43
0.0
 44
0.0
 50
0.0
 51
0.0
 71
     0
 72
   100
 73
     1
 74
     0
 75
     0
 76
     0
 77
     0
 78
     0
  0
ENDTAB
  0
TABLE
  2
LTYPE
 70
     4
  0
LTYPE
  2
CONTINUOUS
 70
     0
  3
Solid Line
 72
    65
 73
     0
 40
0.0
  0
LTYPE
  2
CENTER
 70
     0
  3
____ _ ____ _ ____ _ ____ _ ____ _ ____ _ ____
 72
    65
 73
     4
 40
2.0
 49
1.25
 49
-0.25
 49
0.25
 49
-0.25
  0
LTYPE
  2
HIDDEN
 70
     0
  3
_ _ _ _ _ _ _ _ _ _ _ _ _ _ _ _ _ _ _ _ _ _ _
 72
    65
 73
     2
 40
0.375
 49
0.25
 49
-0.125
  0
LTYPE
  2
PHANTOM2
 70
     0
  3
___ _ _ ___ _ _ ___ _ _ ___ _ _
 72
    65
 73
     6
 40
1.25
 49
0.625
 49
-0.125
 49
0.125
 49
-0.125
 49
0.125
 49
-0.125
  0
ENDTAB
  0
TABLE
  2
LAYER
 70
     5
  0
LAYER
  2
0
 70
     0
 62
     7
  6
CONTINUOUS
  0
LAYER
  2
1
 70
     0
 62
     1
  6
CENTER
  0
LAYER
  2
2
 70
     0
 62
     2
  6
HIDDEN
  0
LAYER
  2
DEFPOINTS
 70
     0
 62
     7
  6
CONTINUOUS
  0
LAYER
  2
3
 70
     0
 62
     3
  6
CONTINUOUS
  0
ENDTAB
  0
TABLE
  2
STYLE
 70
     2
  0
STYLE
  2
STANDARD
 70
     0
 40
0.0
 41
1.0
 50
0.0
 71
     0
 42
0.2
  3
TXT
  4
BIGFONT
  0
STYLE
  2
STANDARD1
 70
     0
 40
0.0
 41
1.0
 50
0.0
 71
     0
 42
3.0
  3
txt
  4

  0
ENDTAB
  0
TABLE
  2
VIEW
 70
     0
  0
ENDTAB
  0
TABLE
  2
UCS
 70
     0
  0
ENDTAB
  0
TABLE
  2
APPID
 70
     8
  0
APPID
  2
ACAD
 70
     0
  0
APPID
  2
ACAD_MLEADERVER
 70
     0
  0
APPID
  2
ACAD_NAV_VCDISPLAY
 70
     0
  0
APPID
  2
ACAD_EXEMPT_FROM_CAD_STANDARDS
 70
     0
  0
APPID
  2
ACAD_DSTYLE_DIMRADIAL_EXTENSION
 70
     0
  0
APPID
  2
ACAD_PSEXT
 70
     0
  0
APPID
  2
ACAD_DSTYLE_DIMJAG
 70
     0
  0
APPID
  2
ACAD_DSTYLE_DIMTALN
 70
     0
  0
ENDTAB
  0
TABLE
  2
DIMSTYLE
 70
     1
  0
DIMSTYLE
  2
STANDARD
 70
     0
  3

  4

  5

  6

  7

 40
1.0
 41
0.18
 42
0.0625
 43
0.38
 44
0.18
 45
0.0
 46
0.0
 47
0.0
 48
0.0
140
0.18
141
0.09
142
0.0
143
25.399999999999999
144
1.0
145
0.0
146
1.0
147
0.09
 71
     0
 72
     0
 73
     1
 74
     1
 75
     0
 76
     0
 77
     0
 78
     0
170
     0
171
     2
172
     0
173
     0
174
     0
175
     0
176
     0
177
     0
178
     0
  0
ENDTAB
  0
ENDSEC
  0
SECTION
  2
BLOCKS
  0
BLOCK
  8
0
  2
$MODEL_SPACE
 70
     0
 10
0.0
 20
0.0
 30
0.0
  3
$MODEL_SPACE
  1

  0
ENDBLK
  5
DF
  8
0
  0
BLOCK
 67
     1
  8
0
  2
$PAPER_SPACE
 70
     0
 10
0.0
 20
0.0
 30
0.0
  3
$PAPER_SPACE
  1

  0
ENDBLK
  5
DD
 67
     1
  8
0
  0
ENDSEC
  0
SECTION
  2
ENTITIES
  0
TEXT
  5
1D1
  8
0
 62
     3
 10
0.0
 20
0.0
 30
0.0
 40
10.0
  1
GRL20M5P-U-SUS
  7
STANDARD1
  0
ARC
  5
B1C
  8
2
 10
93.199999999999974
 20
42.700000000000017
 30
0.0
 40
0.2
 50
180.0
 51
270.0
  0
ARC
  5
B1D
  8
2
 10
93.199999999999974
 20
57.299999999999983
 30
0.0
 40
0.2
 50
90.0
 51
180.0
  0
ARC
  5
B1E
  8
2
 10
97.800000000000011
 20
42.700000000000017
 30
0.0
 40
0.2
 50
270.0
 51
0.0
  0
LINE
  5
B1F
  8
2
 10
98.0
 20
42.700000000000017
 30
0.0
 11
98.0
 21
57.299999999999983
 31
0.0
  0
ARC
  5
B20
  8
2
 10
97.800000000000011
 20
57.299999999999983
 30
0.0
 40
0.2
 50
0.0
 51
90.0
  0
ARC
  5
B21
  8
2
 10
93.199999999999974
 20
46.799999999999983
 30
0.0
 40
0.2
 50
90.0
 51
180.0
  0
ARC
  5
B22
  8
2
 10
97.800000000000011
 20
46.799999999999983
 30
0.0
 40
0.2
 50
0.0
 51
90.0
  0
ARC
  5
B23
  8
2
 10
93.199999999999974
 20
53.200000000000017
 30
0.0
 40
0.2
 50
180.0
 51
270.0
  0
ARC
  5
B24
  8
2
 10
97.800000000000011
 20
53.200000000000017
 30
0.0
 40
0.2
 50
270.0
 51
0.0
  0
CIRCLE
  5
B25
  8
2
 10
95.5
 20
45.0
 30
0.0
 40
1.190499999999999
  0
LINE
  5
B26
  8
2
 10
94.424272000000002
 20
44.490000000000002
 30
0.0
 11
94.157649999999975
 21
44.490000000000002
 31
0.0
  0
ARC
  5
B27
  8
2
 10
95.514999999999986
 20
45.0
 30
0.0
 40
1.45
 50
154.90389099999931
 51
200.59280699999991
  0
ARC
  5
B28
  8
2
 10
95.514999999999986
 20
45.0
 30
0.0
 40
1.25
 50
150.5278789999997
 51
204.07925999999989
  0
LINE
  5
B29
  8
2
 10
94.201883000000009
 20
45.615000000000009
 30
0.0
 11
94.480654000000015
 21
45.615000000000009
 31
0.0
  0
LINE
  5
B2A
  8
2
 10
96.575727999999998
 20
44.490000000000002
 30
0.0
 11
96.84235000000001
 21
44.490000000000002
 31
0.0
  0
ARC
  5
B2B
  8
2
 10
95.485000000000014
 20
45.0
 30
0.0
 40
1.45
 50
339.40719300000012
 51
25.096108999999728
  0
ARC
  5
B2C
  8
2
 10
95.485000000000014
 20
45.0
 30
0.0
 40
1.25
 50
335.92074000000019
 51
29.47212100000025
  0
LINE
  5
B2D
  8
2
 10
96.798117000000005
 20
45.615000000000009
 30
0.0
 11
96.519345999999985
 21
45.615000000000009
 31
0.0
  0
LINE
  5
B2E
  8
2
 10
93.0
 20
43.5
 30
0.0
 11
93.250000000000014
 21
43.5
 31
0.0
  0
LINE
  5
B2F
  8
2
 10
93.250000000000014
 20
44.07500000000001
 30
0.0
 11
93.250000000000014
 21
43.424999999999983
 31
0.0
  0
LINE
  5
B30
  8
2
 10
93.499999999999986
 20
43.424999999999983
 30
0.0
 11
93.250000000000014
 21
43.424999999999983
 31
0.0
  0
LINE
  5
B31
  8
2
 10
93.0
 20
46.25
 30
0.0
 11
93.599999999999994
 21
46.25
 31
0.0
  0
LINE
  5
B32
  8
2
 10
93.250000000000014
 20
46.150000000000013
 30
0.0
 11
93.499999999999986
 21
46.150000000000013
 31
0.0
  0
LINE
  5
B33
  8
2
 10
93.599999999999994
 20
46.25
 30
0.0
 11
93.599999999999994
 21
45.899999999999999
 31
0.0
  0
LINE
  5
B34
  8
2
 10
93.599999999999994
 20
45.899999999999999
 30
0.0
 11
94.720712000000006
 21
45.899999999999999
 31
0.0
  0
LINE
  5
B35
  8
2
 10
93.499999999999986
 20
44.07500000000001
 30
0.0
 11
93.250000000000014
 21
44.07500000000001
 31
0.0
  0
LINE
  5
B36
  8
2
 10
93.499999999999986
 20
43.424999999999983
 30
0.0
 11
93.499999999999986
 21
44.07500000000001
 31
0.0
  0
LINE
  5
B37
  8
2
 10
93.499999999999986
 20
43.5
 30
0.0
 11
93.75
 21
43.5
 31
0.0
  0
LINE
  5
B38
  8
2
 10
93.75
 20
44.149999999999999
 30
0.0
 11
94.666459000000003
 21
44.149999999999999
 31
0.0
  0
LINE
  5
B39
  8
2
 10
93.250000000000014
 20
44.32500000000001
 30
0.0
 11
93.499999999999986
 21
44.07500000000001
 31
0.0
  0
LINE
  5
B3A
  8
2
 10
93.250000000000014
 20
44.32500000000001
 30
0.0
 11
93.250000000000014
 21
46.150000000000013
 31
0.0
  0
LINE
  5
B3B
  8
2
 10
93.75
 20
44.178552999999987
 30
0.0
 11
93.499999999999986
 21
44.428552999999987
 31
0.0
  0
LINE
  5
B3C
  8
2
 10
93.499999999999986
 20
44.428552999999987
 30
0.0
 11
93.499999999999986
 21
46.150000000000013
 31
0.0
  0
LINE
  5
B3D
  8
2
 10
93.75
 20
43.5
 30
0.0
 11
93.75
 21
44.178552999999987
 31
0.0
  0
LINE
  5
B3E
  8
2
 10
98.0
 20
43.5
 30
0.0
 11
97.75
 21
43.5
 31
0.0
  0
LINE
  5
B3F
  8
2
 10
97.75
 20
44.07500000000001
 30
0.0
 11
97.75
 21
43.424999999999983
 31
0.0
  0
LINE
  5
B40
  8
2
 10
97.5
 20
43.424999999999983
 30
0.0
 11
97.75
 21
43.424999999999983
 31
0.0
  0
LINE
  5
B41
  8
2
 10
98.0
 20
46.25
 30
0.0
 11
97.400000000000006
 21
46.25
 31
0.0
  0
LINE
  5
B42
  8
2
 10
97.75
 20
46.150000000000013
 30
0.0
 11
97.5
 21
46.150000000000013
 31
0.0
  0
LINE
  5
B43
  8
2
 10
97.400000000000006
 20
46.25
 30
0.0
 11
97.400000000000006
 21
45.899999999999999
 31
0.0
  0
LINE
  5
B44
  8
2
 10
97.5
 20
44.07500000000001
 30
0.0
 11
97.75
 21
44.07500000000001
 31
0.0
  0
LINE
  5
B45
  8
2
 10
97.5
 20
43.424999999999983
 30
0.0
 11
97.5
 21
44.07500000000001
 31
0.0
  0
LINE
  5
B46
  8
2
 10
97.5
 20
43.5
 30
0.0
 11
97.250000000000014
 21
43.5
 31
0.0
  0
LINE
  5
B47
  8
2
 10
97.75
 20
44.32500000000001
 30
0.0
 11
97.5
 21
44.07500000000001
 31
0.0
  0
LINE
  5
B48
  8
2
 10
97.75
 20
44.32500000000001
 30
0.0
 11
97.75
 21
46.150000000000013
 31
0.0
  0
LINE
  5
B49
  8
2
 10
97.250000000000014
 20
44.178552999999987
 30
0.0
 11
97.5
 21
44.428552999999987
 31
0.0
  0
LINE
  5
B4A
  8
2
 10
97.5
 20
44.428552999999987
 30
0.0
 11
97.5
 21
46.150000000000013
 31
0.0
  0
LINE
  5
B4B
  8
2
 10
97.250000000000014
 20
43.5
 30
0.0
 11
97.250000000000014
 21
44.178552999999987
 31
0.0
  0
LINE
  5
B4C
  8
2
 10
96.333540999999997
 20
44.149999999999999
 30
0.0
 11
97.250000000000014
 21
44.149999999999999
 31
0.0
  0
LINE
  5
B4D
  8
2
 10
96.279288000000008
 20
45.899999999999999
 30
0.0
 11
97.400000000000006
 21
45.899999999999999
 31
0.0
  0
CIRCLE
  5
B4E
  8
2
 10
95.5
 20
55.0
 30
0.0
 40
1.190499999999999
  0
LINE
  5
B4F
  8
2
 10
94.424272000000002
 20
55.509999999999991
 30
0.0
 11
94.157649999999975
 21
55.509999999999991
 31
0.0
  0
ARC
  5
B50
  8
2
 10
95.514999999999986
 20
55.0
 30
0.0
 40
1.45
 50
159.40719300000009
 51
205.09610900000069
  0
ARC
  5
B51
  8
2
 10
95.514999999999986
 20
55.0
 30
0.0
 40
1.25
 50
155.92074000000011
 51
209.47212100000019
  0
LINE
  5
B52
  8
2
 10
94.201883000000009
 20
54.384999999999991
 30
0.0
 11
94.480654000000015
 21
54.384999999999991
 31
0.0
  0
LINE
  5
B53
  8
2
 10
96.575727999999998
 20
55.509999999999991
 30
0.0
 11
96.84235000000001
 21
55.509999999999991
 31
0.0
  0
ARC
  5
B54
  8
2
 10
95.485000000000014
 20
55.0
 30
0.0
 40
1.45
 50
334.90389100000033
 51
20.592806999999869
  0
ARC
  5
B55
  8
2
 10
95.485000000000014
 20
55.0
 30
0.0
 40
1.25
 50
330.52787899999981
 51
24.079259999999859
  0
LINE
  5
B56
  8
2
 10
96.798117000000005
 20
54.384999999999991
 30
0.0
 11
96.519345999999985
 21
54.384999999999991
 31
0.0
  0
LINE
  5
B57
  8
2
 10
93.0
 20
56.5
 30
0.0
 11
93.250000000000014
 21
56.5
 31
0.0
  0
LINE
  5
B58
  8
2
 10
93.250000000000014
 20
55.924999999999983
 30
0.0
 11
93.250000000000014
 21
56.575000000000017
 31
0.0
  0
LINE
  5
B59
  8
2
 10
93.499999999999986
 20
56.575000000000017
 30
0.0
 11
93.250000000000014
 21
56.575000000000017
 31
0.0
  0
LINE
  5
B5A
  8
2
 10
93.0
 20
53.75
 30
0.0
 11
93.599999999999994
 21
53.75
 31
0.0
  0
LINE
  5
B5B
  8
2
 10
93.250000000000014
 20
53.849999999999987
 30
0.0
 11
93.499999999999986
 21
53.849999999999987
 31
0.0
  0
LINE
  5
B5C
  8
2
 10
93.599999999999994
 20
53.75
 30
0.0
 11
93.599999999999994
 21
54.100000000000001
 31
0.0
  0
LINE
  5
B5D
  8
2
 10
93.599999999999994
 20
54.100000000000001
 30
0.0
 11
94.720712000000006
 21
54.100000000000001
 31
0.0
  0
LINE
  5
B5E
  8
2
 10
93.499999999999986
 20
55.924999999999983
 30
0.0
 11
93.250000000000014
 21
55.924999999999983
 31
0.0
  0
LINE
  5
B5F
  8
2
 10
93.499999999999986
 20
56.575000000000017
 30
0.0
 11
93.499999999999986
 21
55.924999999999983
 31
0.0
  0
LINE
  5
B60
  8
2
 10
93.499999999999986
 20
56.5
 30
0.0
 11
93.75
 21
56.5
 31
0.0
  0
LINE
  5
B61
  8
2
 10
93.250000000000014
 20
55.67499999999999
 30
0.0
 11
93.499999999999986
 21
55.924999999999983
 31
0.0
  0
LINE
  5
B62
  8
2
 10
93.250000000000014
 20
55.67499999999999
 30
0.0
 11
93.250000000000014
 21
53.849999999999987
 31
0.0
  0
LINE
  5
B63
  8
2
 10
93.75
 20
55.821446999999999
 30
0.0
 11
93.499999999999986
 21
55.571447000000013
 31
0.0
  0
LINE
  5
B64
  8
2
 10
93.499999999999986
 20
55.571447000000013
 30
0.0
 11
93.499999999999986
 21
53.849999999999987
 31
0.0
  0
LINE
  5
B65
  8
2
 10
93.75
 20
56.5
 30
0.0
 11
93.75
 21
55.821446999999999
 31
0.0
  0
LINE
  5
B66
  8
2
 10
98.0
 20
56.5
 30
0.0
 11
97.75
 21
56.5
 31
0.0
  0
LINE
  5
B67
  8
2
 10
97.75
 20
55.924999999999983
 30
0.0
 11
97.75
 21
56.575000000000017
 31
0.0
  0
LINE
  5
B68
  8
2
 10
97.5
 20
56.575000000000017
 30
0.0
 11
97.75
 21
56.575000000000017
 31
0.0
  0
LINE
  5
B69
  8
2
 10
98.0
 20
53.75
 30
0.0
 11
97.400000000000006
 21
53.75
 31
0.0
  0
LINE
  5
B6A
  8
2
 10
97.75
 20
53.849999999999987
 30
0.0
 11
97.5
 21
53.849999999999987
 31
0.0
  0
LINE
  5
B6B
  8
2
 10
97.400000000000006
 20
53.75
 30
0.0
 11
97.400000000000006
 21
54.100000000000001
 31
0.0
  0
LINE
  5
B6C
  8
2
 10
97.5
 20
55.924999999999983
 30
0.0
 11
97.75
 21
55.924999999999983
 31
0.0
  0
LINE
  5
B6D
  8
2
 10
97.5
 20
56.575000000000017
 30
0.0
 11
97.5
 21
55.924999999999983
 31
0.0
  0
LINE
  5
B6E
  8
2
 10
97.5
 20
56.5
 30
0.0
 11
97.250000000000014
 21
56.5
 31
0.0
  0
LINE
  5
B6F
  8
2
 10
97.75
 20
55.67499999999999
 30
0.0
 11
97.5
 21
55.924999999999983
 31
0.0
  0
LINE
  5
B70
  8
2
 10
97.75
 20
55.67499999999999
 30
0.0
 11
97.75
 21
53.849999999999987
 31
0.0
  0
LINE
  5
B71
  8
2
 10
97.250000000000014
 20
55.821446999999999
 30
0.0
 11
97.5
 21
55.571447000000013
 31
0.0
  0
LINE
  5
B72
  8
2
 10
97.5
 20
55.571447000000013
 30
0.0
 11
97.5
 21
53.849999999999987
 31
0.0
  0
LINE
  5
B73
  8
2
 10
97.250000000000014
 20
56.5
 30
0.0
 11
97.250000000000014
 21
55.821446999999999
 31
0.0
  0
LINE
  5
B74
  8
2
 10
96.333540999999997
 20
55.849999999999987
 30
0.0
 11
97.250000000000014
 21
55.849999999999987
 31
0.0
  0
LINE
  5
B75
  8
2
 10
96.279288000000008
 20
54.100000000000001
 30
0.0
 11
97.400000000000006
 21
54.100000000000001
 31
0.0
  0
LINE
  5
B76
  8
2
 10
93.75
 20
55.849999999999987
 30
0.0
 11
94.666459000000003
 21
55.849999999999987
 31
0.0
  0
LINE
  5
B77
  8
2
 10
93.0
 20
43.0
 30
0.0
 11
92.5
 21
43.0
 31
0.0
  0
LINE
  5
B78
  8
2
 10
98.0
 20
43.0
 30
0.0
 11
98.500000000000014
 21
43.0
 31
0.0
  0
LINE
  5
B79
  8
2
 10
93.0
 20
57.0
 30
0.0
 11
92.5
 21
57.0
 31
0.0
  0
LINE
  5
B7A
  8
2
 10
98.0
 20
57.0
 30
0.0
 11
98.500000000000014
 21
57.0
 31
0.0
  0
LINE
  5
B7B
  8
2
 10
97.800000000000011
 20
42.5
 30
0.0
 11
93.199999999999974
 21
42.5
 31
0.0
  0
LINE
  5
B7C
  8
2
 10
97.800000000000011
 20
57.5
 30
0.0
 11
93.199999999999974
 21
57.5
 31
0.0
  0
LINE
  5
B7D
  8
2
 10
92.699999999999989
 20
53.0
 30
0.0
 11
92.699999999999989
 21
47.0
 31
0.0
  0
LINE
  5
B81
  8
2
 10
98.0
 20
46.0
 30
0.0
 11
98.500000000000014
 21
46.0
 31
0.0
  0
LINE
  5
B82
  8
2
 10
98.0
 20
54.0
 30
0.0
 11
98.500000000000014
 21
54.0
 31
0.0
  0
LINE
  5
B89
  8
2
 10
92.699999999999989
 20
47.0
 30
0.0
 11
98.0
 21
47.0
 31
0.0
  0
LINE
  5
B8A
  8
2
 10
92.699999999999989
 20
53.0
 30
0.0
 11
98.0
 21
53.0
 31
0.0
  0
LINE
  5
B8B
  8
2
 10
93.0
 20
42.700000000000017
 30
0.0
 11
93.0
 21
47.0
 31
0.0
  0
LINE
  5
B8C
  8
2
 10
93.0
 20
53.0
 30
0.0
 11
93.0
 21
57.299999999999983
 31
0.0
  0
LINE
  5
B8D
  8
1
 10
89.500000000000014
 20
50.0
 30
0.0
 11
110.5
 21
50.0
 31
0.0
  0
LINE
  5
B93
  8
1
 10
63.0
 20
50.0
 30
0.0
 11
37.000000000000007
 21
50.0
 31
0.0
  0
LINE
  5
B94
  8
1
 10
50.0
 20
63.0
 30
0.0
 11
50.0
 21
37.0
 31
0.0
  0
LINE
  5
B95
  8
0
 10
51.500000000000007
 20
50.866025403784448
 30
0.0
 11
51.500000000000007
 21
49.13397459621558
 31
0.0
  0
LINE
  5
B96
  8
0
 10
48.499999999999993
 20
50.866025403784469
 30
0.0
 11
48.500000000000007
 21
49.133974596215552
 31
0.0
  0
CIRCLE
  5
B97
  8
0
 10
50.0
 20
50.0
 30
0.0
 40
3.0
  0
LINE
  5
B98
  8
0
 10
50.0
 20
51.732050807568903
 30
0.0
 11
51.499999999999993
 21
50.866025403784448
 31
0.0
  0
LINE
  5
B99
  8
0
 10
48.500000000000007
 20
49.133974596215552
 30
0.0
 11
50.0
 21
48.267949192431132
 31
0.0
  0
LINE
  5
B9A
  8
0
 10
50.000000000000021
 20
51.732050807568903
 30
0.0
 11
48.499999999999993
 21
50.866025403784448
 31
0.0
  0
LINE
  5
B9B
  8
0
 10
51.500000000000007
 20
49.13397459621558
 30
0.0
 11
49.99999999999995
 21
48.267949192431132
 31
0.0
  0
CIRCLE
  5
B9C
  8
2
 10
50.0
 20
50.0
 30
0.0
 40
7.4999999999999707
  0
CIRCLE
  5
B9D
  8
0
 10
50.0
 20
50.0
 30
0.0
 40
7.0
  0
CIRCLE
  5
B9E
  8
0
 10
50.0
 20
50.0
 30
0.0
 40
6.5
  0
CIRCLE
  5
B9F
  8
0
 10
50.0
 20
50.0
 30
0.0
 40
5.9249999999999821
  0
CIRCLE
  5
BA0
  8
0
 10
50.0
 20
50.0
 30
0.0
 40
3.7500543520294261
  0
LINE
  5
BA1
  8
0
 10
98.500000000000014
 20
59.0
 30
0.0
 11
98.500000000000014
 21
41.0
 31
0.0
  0
LINE
  5
BA2
  8
0
 10
92.5
 20
59.0
 30
0.0
 11
92.5
 21
41.0
 31
0.0
  0
CIRCLE
  5
BA3
  8
0
 10
50.0
 20
50.0
 30
0.0
 40
10.0
  0
ARC
  5
BA4
  8
0
 10
95.5
 20
55.0
 30
0.0
 40
5.0
 50
53.130102354155781
 51
126.8698976458442
  0
ARC
  5
BA5
  8
0
 10
95.5
 20
45.0
 30
0.0
 40
5.0
 50
233.1301023541568
 51
306.8698976458432
  0
CIRCLE
  5
BA6
  8
0
 10
50.0
 20
50.0
 30
0.0
 40
9.0
  0
LINE
  5
CB2
  8
2
 10
95.199999999999989
 20
51.732050807568882
 30
0.0
 11
95.199999999999989
 21
48.267949192431161
 31
0.0
  0
LINE
  5
CB3
  8
2
 10
92.699999999999989
 20
51.732050807568889
 30
0.0
 11
95.199999999999989
 21
51.732050807568889
 31
0.0
  0
LINE
  5
CB4
  8
2
 10
92.699999999999989
 20
50.866025403784448
 30
0.0
 11
95.199999999999989
 21
50.866025403784448
 31
0.0
  0
LINE
  5
CB5
  8
2
 10
92.699999999999989
 20
49.13397459621558
 30
0.0
 11
95.199999999999989
 21
49.13397459621558
 31
0.0
  0
LINE
  5
CB6
  8
2
 10
92.699999999999989
 20
48.267949192431161
 30
0.0
 11
95.199999999999989
 21
48.267949192431161
 31
0.0
  0
LINE
  5
CB7
  8
2
 10
95.199999999999989
 20
51.732050807568882
 30
0.0
 11
96.200000000000003
 21
50.0
 31
0.0
  0
LINE
  5
CB8
  8
2
 10
95.199999999999989
 20
48.267949192431118
 30
0.0
 11
96.200000000000003
 21
50.0
 31
0.0
  0
LINE
  5
EC3
  8
0
 10
107.0
 20
47.499999999999972
 30
0.0
 11
107.5
 21
47.999999999999972
 31
0.0
  0
LINE
  5
EC4
  8
0
 10
107.5
 20
47.999999999999972
 30
0.0
 11
107.5
 21
51.999999999999993
 31
0.0
  0
LINE
  5
EC5
  8
0
 10
107.0
 20
52.499999999999993
 30
0.0
 11
107.5
 21
51.999999999999993
 31
0.0
  0
LINE
  5
EC6
  8
0
 10
99.500000000000014
 20
53.999999999999979
 30
0.0
 11
99.500000000000014
 21
45.999999999999979
 31
0.0
  0
LINE
  5
EC7
  8
0
 10
101.0
 20
47.499999999999993
 30
0.0
 11
101.0
 21
52.499999999999993
 31
0.0
  0
LINE
  5
EC8
  8
0
 10
101.0
 20
48.09999999999998
 30
0.0
 11
99.500000000000014
 21
48.09999999999998
 31
0.0
  0
LINE
  5
EC9
  8
0
 10
101.0
 20
51.899999999999991
 30
0.0
 11
99.500000000000014
 21
51.899999999999991
 31
0.0
  0
LINE
  5
ECA
  8
0
 10
107.0
 20
47.499999999999972
 30
0.0
 11
107.0
 21
52.499999999999993
 31
0.0
  0
LINE
  5
ECB
  8
0
 10
98.500000000000014
 20
45.999999999999979
 30
0.0
 11
99.500000000000014
 21
45.999999999999979
 31
0.0
  0
LINE
  5
ECC
  8
0
 10
98.500000000000014
 20
53.999999999999979
 30
0.0
 11
99.500000000000014
 21
53.999999999999979
 31
0.0
  0
LINE
  5
ECD
  8
0
 10
101.0
 20
52.499999999999993
 30
0.0
 11
107.0
 21
52.499999999999993
 31
0.0
  0
LINE
  5
ECE
  8
3
 10
101.0
 20
52.067000000000192
 30
0.0
 11
107.43299999999979
 21
52.067000000000156
 31
0.0
  0
LINE
  5
ECF
  8
3
 10
101.0
 20
47.93299999999978
 30
0.0
 11
107.43299999999979
 21
47.93299999999978
 31
0.0
  0
LINE
  5
ED0
  8
0
 10
101.0
 20
47.499999999999993
 30
0.0
 11
107.0
 21
47.49999999999995
 31
0.0
  0
ENDSEC
  0
EOF
