  0
SECTION
  2
HEADER
  9
$ACADVER
  1
AC1009
  9
$INSBASE
 10
0.0
 20
0.0
 30
0.0
  9
$EXTMIN
 10
0.0
 20
-2.960436562073669
 30
0.0
  9
$EXTMAX
 10
121.1050477489768
 20
60.0
 30
0.0
  9
$LIMMIN
 10
0.0
 20
0.0
  9
$LIMMAX
 10
187.5
 20
135.0
  9
$ORTHOMODE
 70
     1
  9
$REGENMODE
 70
     1
  9
$FILLMODE
 70
     1
  9
$QTEXTMODE
 70
     0
  9
$MIRRTEXT
 70
     0
  9
$DRAGMODE
 70
     2
  9
$LTSCALE
 40
5.0
  9
$OSMODE
 70
    37
  9
$ATTMODE
 70
     1
  9
$TEXTSIZE
 40
0.2
  9
$TRACEWID
 40
0.05
  9
$TEXTSTYLE
  7
STANDARD
  9
$CLAYER
  8
0
  9
$CELTYPE
  6
BYLAYER
  9
$CECOLOR
 62
   256
  9
$DIMSCALE
 40
0.5
  9
$DIMASZ
 40
3.0
  9
$DIMEXO
 40
2.0
  9
$DIMDLI
 40
0.38
  9
$DIMRND
 40
0.0
  9
$DIMDLE
 40
0.0
  9
$DIMEXE
 40
2.0
  9
$DIMTP
 40
0.0
  9
$DIMTM
 40
0.0
  9
$DIMTXT
 40
3.0
  9
$DIMCEN
 40
0.0
  9
$DIMTSZ
 40
0.0
  9
$DIMTOL
 70
     0
  9
$DIMLIM
 70
     0
  9
$DIMTIH
 70
     0
  9
$DIMTOH
 70
     0
  9
$DIMSE1
 70
     0
  9
$DIMSE2
 70
     0
  9
$DIMTAD
 70
     1
  9
$DIMZIN
 70
     0
  9
$DIMBLK
  1

  9
$DIMASO
 70
     0
  9
$DIMSHO
 70
     0
  9
$DIMPOST
  1

  9
$DIMAPOST
  1

  9
$DIMALT
 70
     0
  9
$DIMALTD
 70
     2
  9
$DIMALTF
 40
25.399999999999999
  9
$DIMLFAC
 40
1.0
  9
$DIMTOFL
 70
     1
  9
$DIMTVP
 40
1.6000000000000001
  9
$DIMTIX
 70
     1
  9
$DIMSOXD
 70
     0
  9
$DIMSAH
 70
     0
  9
$DIMBLK1
  1

  9
$DIMBLK2
  1

  9
$DIMSTYLE
  2
STANDARD
  9
$DIMCLRD
 70
     0
  9
$DIMCLRE
 70
     0
  9
$DIMCLRT
 70
     0
  9
$DIMTFAC
 40
1.0
  9
$DIMGAP
 40
0.09
  9
$LUNITS
 70
     2
  9
$LUPREC
 70
     4
  9
$SKETCHINC
 40
0.1
  9
$FILLETRAD
 40
0.5
  9
$AUNITS
 70
     0
  9
$AUPREC
 70
     4
  9
$MENU
  1
E:\r13\win\SUPPORT\ACAD
  9
$ELEVATION
 40
0.0
  9
$PELEVATION
 40
0.0
  9
$THICKNESS
 40
0.0
  9
$LIMCHECK
 70
     0
  9
$BLIPMODE
 70
     0
  9
$CHAMFERA
 40
0.0
  9
$CHAMFERB
 40
0.0
  9
$SKPOLY
 70
     0
  9
$TDCREATE
 40
2449840.6116550928
  9
$TDUPDATE
 40
2456769.6700225119
  9
$TDINDWG
 40
0.0477184722
  9
$TDUSRTIMER
 40
0.0477184722
  9
$USRTIMER
 70
     1
  9
$ANGBASE
 50
0.0
  9
$ANGDIR
 70
     0
  9
$PDMODE
 70
     0
  9
$PDSIZE
 40
0.0
  9
$PLINEWID
 40
0.0
  9
$COORDS
 70
     1
  9
$SPLFRAME
 70
     0
  9
$SPLINETYPE
 70
     6
  9
$SPLINESEGS
 70
     8
  9
$ATTDIA
 70
     0
  9
$ATTREQ
 70
     1
  9
$HANDLING
 70
     1
  9
$HANDSEED
  5
CAC
  9
$SURFTAB1
 70
     6
  9
$SURFTAB2
 70
     6
  9
$SURFTYPE
 70
     6
  9
$SURFU
 70
     6
  9
$SURFV
 70
     6
  9
$UCSNAME
  2

  9
$UCSORG
 10
0.0
 20
0.0
 30
0.0
  9
$UCSXDIR
 10
1.0
 20
0.0
 30
0.0
  9
$UCSYDIR
 10
0.0
 20
1.0
 30
0.0
  9
$PUCSNAME
  2

  9
$PUCSORG
 10
0.0
 20
0.0
 30
0.0
  9
$PUCSXDIR
 10
1.0
 20
0.0
 30
0.0
  9
$PUCSYDIR
 10
0.0
 20
1.0
 30
0.0
  9
$USERI1
 70
     3
  9
$USERI2
 70
     1
  9
$USERI3
 70
     0
  9
$USERI4
 70
     0
  9
$USERI5
 70
     0
  9
$USERR1
 40
0.5
  9
$USERR2
 40
3.0
  9
$USERR3
 40
3.0
  9
$USERR4
 40
3.0
  9
$USERR5
 40
10.0
  9
$WORLDVIEW
 70
     1
  9
$SHADEDGE
 70
     3
  9
$SHADEDIF
 70
    70
  9
$TILEMODE
 70
     1
  9
$MAXACTVP
 70
    16
  9
$PLIMCHECK
 70
     0
  9
$PEXTMIN
 10
1.0000000000000000E+020
 20
1.0000000000000000E+020
 30
1.0000000000000000E+020
  9
$PEXTMAX
 10
-1.0000000000000000E+020
 20
-1.0000000000000000E+020
 30
-1.0000000000000000E+020
  9
$PLIMMIN
 10
0.0
 20
0.0
  9
$PLIMMAX
 10
12.0
 20
9.0
  9
$UNITMODE
 70
     0
  9
$VISRETAIN
 70
     0
  9
$PLINEGEN
 70
     0
  9
$PSLTSCALE
 70
     0
  0
ENDSEC
  0
SECTION
  2
TABLES
  0
TABLE
  2
VPORT
 70
     1
  0
VPORT
  2
*ACTIVE
 70
     0
 10
0.0
 20
0.0
 11
1.0
 21
1.0
 12
78.547202186797904
 22
45.0
 13
0.0
 23
0.0
 14
5.0
 24
5.0
 15
10.0
 25
10.0
 16
0.0
 26
0.0
 36
1.0
 17
0.0
 27
0.0
 37
0.0
 40
90.010054704500703
 41
1.7454798331015291
 42
50.0
 43
0.0
 44
0.0
 50
0.0
 51
0.0
 71
     0
 72
   100
 73
     1
 74
     0
 75
     0
 76
     0
 77
     0
 78
     0
  0
ENDTAB
  0
TABLE
  2
LTYPE
 70
     4
  0
LTYPE
  2
CONTINUOUS
 70
     0
  3
Solid Line
 72
    65
 73
     0
 40
0.0
  0
LTYPE
  2
CENTER
 70
     0
  3
____ _ ____ _ ____ _ ____ _ ____ _ ____ _ ____
 72
    65
 73
     4
 40
2.0
 49
1.25
 49
-0.25
 49
0.25
 49
-0.25
  0
LTYPE
  2
HIDDEN
 70
     0
  3
_ _ _ _ _ _ _ _ _ _ _ _ _ _ _ _ _ _ _ _ _ _ _
 72
    65
 73
     2
 40
0.375
 49
0.25
 49
-0.125
  0
LTYPE
  2
PHANTOM2
 70
     0
  3
___ _ _ ___ _ _ ___ _ _ ___ _ _
 72
    65
 73
     6
 40
1.25
 49
0.625
 49
-0.125
 49
0.125
 49
-0.125
 49
0.125
 49
-0.125
  0
ENDTAB
  0
TABLE
  2
LAYER
 70
     5
  0
LAYER
  2
0
 70
     0
 62
     7
  6
CONTINUOUS
  0
LAYER
  2
1
 70
     0
 62
     1
  6
CENTER
  0
LAYER
  2
2
 70
     0
 62
     2
  6
HIDDEN
  0
LAYER
  2
DEFPOINTS
 70
     0
 62
     7
  6
CONTINUOUS
  0
LAYER
  2
3
 70
     0
 62
     3
  6
CONTINUOUS
  0
ENDTAB
  0
TABLE
  2
STYLE
 70
     2
  0
STYLE
  2
STANDARD
 70
     0
 40
0.0
 41
1.0
 50
0.0
 71
     0
 42
0.2
  3
TXT
  4
BIGFONT
  0
STYLE
  2
STANDARD1
 70
     0
 40
0.0
 41
1.0
 50
0.0
 71
     0
 42
3.0
  3
txt
  4

  0
ENDTAB
  0
TABLE
  2
VIEW
 70
     0
  0
ENDTAB
  0
TABLE
  2
UCS
 70
     0
  0
ENDTAB
  0
TABLE
  2
APPID
 70
     6
  0
APPID
  2
ACAD
 70
     0
  0
APPID
  2
ACAD_MLEADERVER
 70
     0
  0
APPID
  2
ACAD_NAV_VCDISPLAY
 70
     0
  0
APPID
  2
ACAD_EXEMPT_FROM_CAD_STANDARDS
 70
     0
  0
APPID
  2
ACAD_DSTYLE_DIMRADIAL_EXTENSION
 70
     0
  0
APPID
  2
ACAD_PSEXT
 70
     0
  0
ENDTAB
  0
TABLE
  2
DIMSTYLE
 70
     1
  0
DIMSTYLE
  2
STANDARD
 70
     0
  3

  4

  5

  6

  7

 40
1.0
 41
0.18
 42
0.0625
 43
0.38
 44
0.18
 45
0.0
 46
0.0
 47
0.0
 48
0.0
140
0.18
141
0.09
142
0.0
143
25.399999999999999
144
1.0
145
0.0
146
1.0
147
0.09
 71
     0
 72
     0
 73
     1
 74
     1
 75
     0
 76
     0
 77
     0
 78
     0
170
     0
171
     2
172
     0
173
     0
174
     0
175
     0
176
     0
177
     0
178
     0
  0
ENDTAB
  0
ENDSEC
  0
SECTION
  2
BLOCKS
  0
BLOCK
  8
0
  2
$MODEL_SPACE
 70
     0
 10
0.0
 20
0.0
 30
0.0
  3
$MODEL_SPACE
  1

  0
ENDBLK
  5
DF
  8
0
  0
BLOCK
 67
     1
  8
0
  2
$PAPER_SPACE
 70
     0
 10
0.0
 20
0.0
 30
0.0
  3
$PAPER_SPACE
  1

  0
ENDBLK
  5
DD
 67
     1
  8
0
  0
ENDSEC
  0
SECTION
  2
ENTITIES
  0
TEXT
  5
1D1
  8
0
 62
     3
 10
0.0
 20
0.0
 30
0.0
 40
10.0
  1
GRL14M4P-U-SUS
  7
STANDARD1
  0
ARC
  5
B25
  8
2
 10
95.150000000000006
 20
54.850000000000023
 30
0.0
 40
0.15
 50
90.0
 51
180.0
  0
ARC
  5
B26
  8
2
 10
98.849999999999994
 20
54.850000000000023
 30
0.0
 40
0.15
 50
0.0
 51
90.0
  0
ARC
  5
B27
  8
2
 10
95.150000000000006
 20
45.149999999999999
 30
0.0
 40
0.15
 50
180.0
 51
270.0
  0
LINE
  5
B28
  8
2
 10
99.0
 20
45.149999999999999
 30
0.0
 11
99.0
 21
54.850000000000023
 31
0.0
  0
ARC
  5
B29
  8
2
 10
98.849999999999994
 20
45.149999999999999
 30
0.0
 40
0.15
 50
270.0
 51
0.0
  0
ARC
  5
B2A
  8
2
 10
95.150000000000006
 20
47.849999999999987
 30
0.0
 40
0.15
 50
90.0
 51
180.0
  0
ARC
  5
B2B
  8
2
 10
98.849999999999994
 20
47.849999999999987
 30
0.0
 40
0.15
 50
0.0
 51
90.0
  0
ARC
  5
B2C
  8
2
 10
95.150000000000006
 20
52.149999999999977
 30
0.0
 40
0.15
 50
180.0
 51
270.0
  0
ARC
  5
B2D
  8
2
 10
98.849999999999994
 20
52.149999999999977
 30
0.0
 40
0.15
 50
270.0
 51
0.0
  0
LINE
  5
B2E
  8
2
 10
95.5
 20
47.199999999999982
 30
0.0
 11
95.0
 21
47.199999999999982
 31
0.0
  0
LINE
  5
B2F
  8
2
 10
95.199999999999989
 20
47.099999999999987
 30
0.0
 11
95.400000000000006
 21
47.099999999999987
 31
0.0
  0
CIRCLE
  5
B30
  8
2
 10
97.0
 20
46.424999999999997
 30
0.0
 40
0.7940000000000002
  0
LINE
  5
B31
  8
2
 10
95.0
 20
45.525000000000013
 30
0.0
 11
95.199999999999989
 21
45.525000000000013
 31
0.0
  0
LINE
  5
B32
  8
2
 10
95.400000000000006
 20
45.525000000000013
 30
0.0
 11
95.599999999999994
 21
45.525000000000013
 31
0.0
  0
LINE
  5
B33
  8
2
 10
95.400000000000006
 20
45.449999999999989
 30
0.0
 11
95.199999999999989
 21
45.449999999999989
 31
0.0
  0
LINE
  5
B34
  8
2
 10
95.400000000000006
 20
45.75
 30
0.0
 11
95.199999999999989
 21
45.75
 31
0.0
  0
LINE
  5
B35
  8
2
 10
95.199999999999989
 20
45.949999999999982
 30
0.0
 11
95.400000000000006
 21
45.75
 31
0.0
  0
LINE
  5
B36
  8
2
 10
95.599999999999994
 20
45.83284299999999
 30
0.0
 11
95.400000000000006
 21
46.032843000000007
 31
0.0
  0
LINE
  5
B37
  8
2
 10
95.199999999999989
 20
45.75
 30
0.0
 11
95.199999999999989
 21
45.449999999999989
 31
0.0
  0
LINE
  5
B38
  8
2
 10
95.400000000000006
 20
45.449999999999989
 30
0.0
 11
95.400000000000006
 21
45.75
 31
0.0
  0
LINE
  5
B39
  8
2
 10
95.199999999999989
 20
45.949999999999982
 30
0.0
 11
95.199999999999989
 21
47.099999999999987
 31
0.0
  0
LINE
  5
B3A
  8
2
 10
95.400000000000006
 20
46.032843000000007
 30
0.0
 11
95.400000000000006
 21
47.099999999999987
 31
0.0
  0
LINE
  5
B3B
  8
2
 10
95.599999999999994
 20
45.525000000000013
 30
0.0
 11
95.599999999999994
 21
45.83284299999999
 31
0.0
  0
LINE
  5
B3C
  8
2
 10
95.5
 20
47.199999999999982
 30
0.0
 11
95.5
 21
46.925000000000011
 31
0.0
  0
LINE
  5
B3D
  8
2
 10
95.5
 20
46.925000000000011
 30
0.0
 11
96.383205000000004
 21
46.925000000000011
 31
0.0
  0
LINE
  5
B3E
  8
2
 10
95.599999999999994
 20
45.824999999999982
 30
0.0
 11
96.479964999999993
 21
45.824999999999982
 31
0.0
  0
LINE
  5
B3F
  8
2
 10
98.500000000000014
 20
47.199999999999982
 30
0.0
 11
99.0
 21
47.199999999999982
 31
0.0
  0
LINE
  5
B40
  8
2
 10
98.800000000000026
 20
47.099999999999987
 30
0.0
 11
98.599999999999994
 21
47.099999999999987
 31
0.0
  0
LINE
  5
B41
  8
2
 10
99.0
 20
45.525000000000013
 30
0.0
 11
98.800000000000026
 21
45.525000000000013
 31
0.0
  0
LINE
  5
B42
  8
2
 10
98.599999999999994
 20
45.525000000000013
 30
0.0
 11
98.400000000000006
 21
45.525000000000013
 31
0.0
  0
LINE
  5
B43
  8
2
 10
98.599999999999994
 20
45.449999999999989
 30
0.0
 11
98.800000000000026
 21
45.449999999999989
 31
0.0
  0
LINE
  5
B44
  8
2
 10
98.599999999999994
 20
45.75
 30
0.0
 11
98.800000000000026
 21
45.75
 31
0.0
  0
LINE
  5
B45
  8
2
 10
98.800000000000026
 20
45.949999999999982
 30
0.0
 11
98.599999999999994
 21
45.75
 31
0.0
  0
LINE
  5
B46
  8
2
 10
98.400000000000006
 20
45.83284299999999
 30
0.0
 11
98.599999999999994
 21
46.032843000000007
 31
0.0
  0
LINE
  5
B47
  8
2
 10
98.800000000000026
 20
45.75
 30
0.0
 11
98.800000000000026
 21
45.449999999999989
 31
0.0
  0
LINE
  5
B48
  8
2
 10
98.599999999999994
 20
45.449999999999989
 30
0.0
 11
98.599999999999994
 21
45.75
 31
0.0
  0
LINE
  5
B49
  8
2
 10
98.800000000000026
 20
45.949999999999982
 30
0.0
 11
98.800000000000026
 21
47.099999999999987
 31
0.0
  0
LINE
  5
B4A
  8
2
 10
98.599999999999994
 20
46.032843000000007
 30
0.0
 11
98.599999999999994
 21
47.099999999999987
 31
0.0
  0
LINE
  5
B4B
  8
2
 10
98.400000000000006
 20
45.525000000000013
 30
0.0
 11
98.400000000000006
 21
45.83284299999999
 31
0.0
  0
LINE
  5
B4C
  8
2
 10
98.500000000000014
 20
47.199999999999982
 30
0.0
 11
98.500000000000014
 21
46.925000000000011
 31
0.0
  0
LINE
  5
B4D
  8
2
 10
97.520034999999993
 20
45.824999999999982
 30
0.0
 11
98.400000000000006
 21
45.824999999999982
 31
0.0
  0
LINE
  5
B4E
  8
2
 10
97.616794999999996
 20
46.925000000000011
 30
0.0
 11
98.500000000000014
 21
46.925000000000011
 31
0.0
  0
LINE
  5
B4F
  8
2
 10
96.126258000000007
 20
46.860000000000007
 30
0.0
 11
96.335762999999986
 21
46.860000000000007
 31
0.0
  0
LINE
  5
B50
  8
2
 10
96.059933999999998
 20
46.164999999999992
 30
0.0
 11
96.249776000000011
 21
46.164999999999992
 31
0.0
  0
ARC
  5
B51
  8
2
 10
97.010000000000005
 20
46.424999999999997
 30
0.0
 40
0.9849999999999999
 50
153.7924320000005
 51
195.30512900000019
  0
ARC
  5
B52
  8
2
 10
97.010000000000005
 20
46.424999999999997
 30
0.0
 40
0.8349999999999999
 50
148.6034599999993
 51
198.14224899999991
  0
LINE
  5
B53
  8
2
 10
97.873741999999993
 20
46.860000000000007
 30
0.0
 11
97.664237000000014
 21
46.860000000000007
 31
0.0
  0
LINE
  5
B54
  8
2
 10
97.940066000000016
 20
46.164999999999992
 30
0.0
 11
97.750224000000003
 21
46.164999999999992
 31
0.0
  0
ARC
  5
B55
  8
2
 10
96.990000000000009
 20
46.424999999999997
 30
0.0
 40
0.9849999999999999
 50
344.69487099999969
 51
26.207567999999469
  0
ARC
  5
B56
  8
2
 10
96.990000000000009
 20
46.424999999999997
 30
0.0
 40
0.8349999999999999
 50
341.85775100000012
 51
31.396540000000719
  0
LINE
  5
B57
  8
2
 10
95.5
 20
52.800000000000011
 30
0.0
 11
95.0
 21
52.800000000000011
 31
0.0
  0
LINE
  5
B58
  8
2
 10
95.199999999999989
 20
52.899999999999977
 30
0.0
 11
95.400000000000006
 21
52.899999999999977
 31
0.0
  0
CIRCLE
  5
B59
  8
2
 10
97.0
 20
53.574999999999989
 30
0.0
 40
0.7940000000000002
  0
LINE
  5
B5A
  8
2
 10
95.0
 20
54.475000000000023
 30
0.0
 11
95.199999999999989
 21
54.475000000000023
 31
0.0
  0
LINE
  5
B5B
  8
2
 10
95.400000000000006
 20
54.475000000000023
 30
0.0
 11
95.599999999999994
 21
54.475000000000023
 31
0.0
  0
LINE
  5
B5C
  8
2
 10
95.400000000000006
 20
54.550000000000011
 30
0.0
 11
95.199999999999989
 21
54.550000000000011
 31
0.0
  0
LINE
  5
B5D
  8
2
 10
95.400000000000006
 20
54.25
 30
0.0
 11
95.199999999999989
 21
54.25
 31
0.0
  0
LINE
  5
B5E
  8
2
 10
95.199999999999989
 20
54.050000000000011
 30
0.0
 11
95.400000000000006
 21
54.25
 31
0.0
  0
LINE
  5
B5F
  8
2
 10
95.599999999999994
 20
54.167156999999968
 30
0.0
 11
95.400000000000006
 21
53.967156999999979
 31
0.0
  0
LINE
  5
B60
  8
2
 10
95.199999999999989
 20
54.25
 30
0.0
 11
95.199999999999989
 21
54.550000000000011
 31
0.0
  0
LINE
  5
B61
  8
2
 10
95.400000000000006
 20
54.550000000000011
 30
0.0
 11
95.400000000000006
 21
54.25
 31
0.0
  0
LINE
  5
B62
  8
2
 10
95.199999999999989
 20
54.050000000000011
 30
0.0
 11
95.199999999999989
 21
52.899999999999977
 31
0.0
  0
LINE
  5
B63
  8
2
 10
95.400000000000006
 20
53.967156999999979
 30
0.0
 11
95.400000000000006
 21
52.899999999999977
 31
0.0
  0
LINE
  5
B64
  8
2
 10
95.599999999999994
 20
54.475000000000023
 30
0.0
 11
95.599999999999994
 21
54.167156999999968
 31
0.0
  0
LINE
  5
B65
  8
2
 10
95.5
 20
52.800000000000011
 30
0.0
 11
95.5
 21
53.074999999999989
 31
0.0
  0
LINE
  5
B66
  8
2
 10
95.5
 20
53.074999999999989
 30
0.0
 11
96.383205000000004
 21
53.074999999999989
 31
0.0
  0
LINE
  5
B67
  8
2
 10
95.599999999999994
 20
54.175000000000011
 30
0.0
 11
96.479964999999993
 21
54.175000000000011
 31
0.0
  0
LINE
  5
B68
  8
2
 10
98.500000000000014
 20
52.800000000000011
 30
0.0
 11
99.0
 21
52.800000000000011
 31
0.0
  0
LINE
  5
B69
  8
2
 10
98.800000000000026
 20
52.899999999999977
 30
0.0
 11
98.599999999999994
 21
52.899999999999977
 31
0.0
  0
LINE
  5
B6A
  8
2
 10
99.0
 20
54.475000000000023
 30
0.0
 11
98.800000000000026
 21
54.475000000000023
 31
0.0
  0
LINE
  5
B6B
  8
2
 10
98.599999999999994
 20
54.475000000000023
 30
0.0
 11
98.400000000000006
 21
54.475000000000023
 31
0.0
  0
LINE
  5
B6C
  8
2
 10
98.599999999999994
 20
54.550000000000011
 30
0.0
 11
98.800000000000026
 21
54.550000000000011
 31
0.0
  0
LINE
  5
B6D
  8
2
 10
98.599999999999994
 20
54.25
 30
0.0
 11
98.800000000000026
 21
54.25
 31
0.0
  0
LINE
  5
B6E
  8
2
 10
98.800000000000026
 20
54.050000000000011
 30
0.0
 11
98.599999999999994
 21
54.25
 31
0.0
  0
LINE
  5
B6F
  8
2
 10
98.400000000000006
 20
54.167156999999968
 30
0.0
 11
98.599999999999994
 21
53.967156999999979
 31
0.0
  0
LINE
  5
B70
  8
2
 10
98.800000000000026
 20
54.25
 30
0.0
 11
98.800000000000026
 21
54.550000000000011
 31
0.0
  0
LINE
  5
B71
  8
2
 10
98.599999999999994
 20
54.550000000000011
 30
0.0
 11
98.599999999999994
 21
54.25
 31
0.0
  0
LINE
  5
B72
  8
2
 10
98.800000000000026
 20
54.050000000000011
 30
0.0
 11
98.800000000000026
 21
52.899999999999977
 31
0.0
  0
LINE
  5
B73
  8
2
 10
98.599999999999994
 20
53.967156999999979
 30
0.0
 11
98.599999999999994
 21
52.899999999999977
 31
0.0
  0
LINE
  5
B74
  8
2
 10
98.400000000000006
 20
54.475000000000023
 30
0.0
 11
98.400000000000006
 21
54.167156999999968
 31
0.0
  0
LINE
  5
B75
  8
2
 10
98.500000000000014
 20
52.800000000000011
 30
0.0
 11
98.500000000000014
 21
53.074999999999989
 31
0.0
  0
LINE
  5
B76
  8
2
 10
97.520034999999993
 20
54.175000000000011
 30
0.0
 11
98.400000000000006
 21
54.175000000000011
 31
0.0
  0
LINE
  5
B77
  8
2
 10
97.616794999999996
 20
53.074999999999989
 30
0.0
 11
98.500000000000014
 21
53.074999999999989
 31
0.0
  0
LINE
  5
B78
  8
2
 10
96.126258000000007
 20
53.139999999999993
 30
0.0
 11
96.335762999999986
 21
53.139999999999993
 31
0.0
  0
LINE
  5
B79
  8
2
 10
96.059933999999998
 20
53.834999999999972
 30
0.0
 11
96.249776000000011
 21
53.834999999999972
 31
0.0
  0
ARC
  5
B7A
  8
2
 10
97.010000000000005
 20
53.574999999999989
 30
0.0
 40
0.9849999999999999
 50
164.6948710000006
 51
206.2075679999995
  0
ARC
  5
B7B
  8
2
 10
97.010000000000005
 20
53.574999999999989
 30
0.0
 40
0.8349999999999999
 50
161.85775100000089
 51
211.3965400000007
  0
LINE
  5
B7C
  8
2
 10
97.873741999999993
 20
53.139999999999993
 30
0.0
 11
97.664237000000014
 21
53.139999999999993
 31
0.0
  0
LINE
  5
B7D
  8
2
 10
97.940066000000016
 20
53.834999999999972
 30
0.0
 11
97.750224000000003
 21
53.834999999999972
 31
0.0
  0
ARC
  5
B7E
  8
2
 10
96.990000000000009
 20
53.574999999999989
 30
0.0
 40
0.9849999999999999
 50
333.79243200000047
 51
15.30512899999856
  0
ARC
  5
B7F
  8
2
 10
96.990000000000009
 20
53.574999999999989
 30
0.0
 40
0.8349999999999999
 50
328.6034599999993
 51
18.142248999998259
  0
LINE
  5
B80
  8
2
 10
95.0
 20
45.274999999999999
 30
0.0
 11
94.500000000000014
 21
45.274999999999999
 31
0.0
  0
LINE
  5
B81
  8
2
 10
99.0
 20
45.274999999999999
 30
0.0
 11
99.500000000000014
 21
45.274999999999999
 31
0.0
  0
LINE
  5
B82
  8
2
 10
99.0
 20
54.725000000000023
 30
0.0
 11
99.500000000000014
 21
54.725000000000023
 31
0.0
  0
LINE
  5
B83
  8
2
 10
95.0
 20
54.725000000000023
 30
0.0
 11
94.500000000000014
 21
54.725000000000023
 31
0.0
  0
LINE
  5
B84
  8
2
 10
98.849999999999994
 20
45.0
 30
0.0
 11
95.150000000000006
 21
45.0
 31
0.0
  0
LINE
  5
B85
  8
2
 10
98.849999999999994
 20
55.0
 30
0.0
 11
95.150000000000006
 21
55.0
 31
0.0
  0
LINE
  5
B86
  8
0
 10
105.15000000000001
 20
52.0
 30
0.0
 11
105.5
 21
51.649999999999977
 31
0.0
  0
LINE
  5
B87
  8
0
 10
105.5
 20
48.349999999999987
 30
0.0
 11
105.5
 21
51.649999999999977
 31
0.0
  0
LINE
  5
B88
  8
0
 10
105.15000000000001
 20
48.0
 30
0.0
 11
105.5
 21
48.349999999999987
 31
0.0
  0
LINE
  5
B89
  8
2
 10
94.699999999999974
 20
48.0
 30
0.0
 11
99.0
 21
48.0
 31
0.0
  0
LINE
  5
B8A
  8
2
 10
94.699999999999974
 20
52.0
 30
0.0
 11
99.0
 21
52.0
 31
0.0
  0
LINE
  5
B8B
  8
2
 10
94.699999999999974
 20
52.0
 30
0.0
 11
94.699999999999974
 21
48.0
 31
0.0
  0
LINE
  5
B8C
  8
2
 10
99.0
 20
47.0
 30
0.0
 11
99.500000000000014
 21
47.0
 31
0.0
  0
LINE
  5
B8D
  8
2
 10
99.0
 20
53.0
 30
0.0
 11
99.500000000000014
 21
53.0
 31
0.0
  0
LINE
  5
B8E
  8
0
 10
100.5
 20
53.0
 30
0.0
 11
100.5
 21
47.0
 31
0.0
  0
LINE
  5
B8F
  8
0
 10
105.15000000000001
 20
48.0
 30
0.0
 11
101.5
 21
48.0
 31
0.0
  0
LINE
  5
B90
  8
3
 10
101.5
 20
48.349999999999987
 30
0.0
 11
105.5
 21
48.349999999999987
 31
0.0
  0
LINE
  5
B91
  8
3
 10
101.5
 20
51.649999999999977
 30
0.0
 11
105.5
 21
51.649999999999977
 31
0.0
  0
LINE
  5
B92
  8
0
 10
105.15000000000001
 20
52.0
 30
0.0
 11
101.5
 21
52.0
 31
0.0
  0
LINE
  5
B93
  8
0
 10
101.5
 20
48.0
 30
0.0
 11
101.5
 21
52.0
 31
0.0
  0
LINE
  5
B94
  8
0
 10
101.5
 20
48.550000000000011
 30
0.0
 11
100.5
 21
48.550000000000011
 31
0.0
  0
LINE
  5
B95
  8
0
 10
101.5
 20
51.449999999999989
 30
0.0
 11
100.5
 21
51.449999999999989
 31
0.0
  0
LINE
  5
B96
  8
2
 10
95.0
 20
54.850000000000023
 30
0.0
 11
95.0
 21
52.0
 31
0.0
  0
LINE
  5
B97
  8
2
 10
95.0
 20
48.0
 30
0.0
 11
95.0
 21
45.149999999999999
 31
0.0
  0
LINE
  5
B98
  8
1
 10
91.5
 20
50.0
 30
0.0
 11
108.5
 21
50.0
 31
0.0
  0
ARC
  5
B99
  8
0
 10
97.0
 20
52.0
 30
0.0
 40
5.0
 50
59.999999999999758
 51
119.9999999999993
  0
ARC
  5
B9A
  8
0
 10
97.0
 20
48.0
 30
0.0
 40
5.0
 50
239.9999999999998
 51
300.00000000000023
  0
LINE
  5
B9C
  8
0
 10
99.500000000000014
 20
56.330126999999997
 30
0.0
 11
99.499999999999986
 21
43.669872981077802
 31
0.0
  0
LINE
  5
B9D
  8
0
 10
94.500000000000014
 20
56.330126999999997
 30
0.0
 11
94.500000000000014
 21
43.669872999999988
 31
0.0
  0
LINE
  5
B9E
  8
0
 10
99.500000000000014
 20
53.0
 30
0.0
 11
100.5
 21
53.0
 31
0.0
  0
LINE
  5
B9F
  8
0
 10
99.500000000000014
 20
47.0
 30
0.0
 11
100.5
 21
47.0
 31
0.0
  0
LINE
  5
BA0
  8
1
 10
60.0
 20
50.0
 30
0.0
 11
40.0
 21
50.0
 31
0.0
  0
LINE
  5
BA1
  8
1
 10
50.0
 20
60.0
 30
0.0
 11
50.0
 21
40.0
 31
0.0
  0
CIRCLE
  5
BA2
  8
0
 10
50.0
 20
50.0
 30
0.0
 40
7.0
  0
CIRCLE
  5
BA3
  8
2
 10
50.0
 20
50.0
 30
0.0
 40
5.0
  0
CIRCLE
  5
BA4
  8
0
 10
50.0
 20
50.0
 30
0.0
 40
4.7249999999999996
  0
CIRCLE
  5
BA5
  8
0
 10
50.0
 20
50.0
 30
0.0
 40
4.4749999999999996
  0
CIRCLE
  5
BA6
  8
0
 10
50.0
 20
50.0
 30
0.0
 40
4.25
  0
CIRCLE
  5
BA7
  8
0
 10
50.0
 20
50.0
 30
0.0
 40
2.0
  0
CIRCLE
  5
BA8
  8
0
 10
50.0
 20
50.0
 30
0.0
 40
2.7999999999999989
  0
LINE
  5
BA9
  8
0
 10
48.999999999999993
 20
49.422649730810349
 30
0.0
 11
49.999999999999957
 21
48.845299461620748
 31
0.0
  0
LINE
  5
BAA
  8
0
 10
48.999999999999979
 20
50.577350269189623
 30
0.0
 11
48.999999999999993
 21
49.422649730810349
 31
0.0
  0
LINE
  5
BAB
  8
0
 10
50.0
 20
51.154700538379238
 30
0.0
 11
48.999999999999979
 21
50.577350269189623
 31
0.0
  0
LINE
  5
BAC
  8
0
 10
50.0
 20
51.154700538379238
 30
0.0
 11
50.999999999999993
 21
50.577350269189623
 31
0.0
  0
LINE
  5
BAD
  8
0
 10
50.999999999999993
 20
50.577350269189623
 30
0.0
 11
50.999999999999993
 21
49.42264973081037
 31
0.0
  0
LINE
  5
BAE
  8
0
 10
50.999999999999993
 20
49.42264973081037
 30
0.0
 11
49.999999999999957
 21
48.845299461620748
 31
0.0
  0
CIRCLE
  5
BAF
  8
0
 10
50.0
 20
50.0
 30
0.0
 40
6.3301270000000036
  0
LINE
  5
BBB
  8
0
 10
105.15000000000001
 20
52.0
 30
0.0
 11
105.15000000000001
 21
48.0
 31
0.0
  0
LINE
  5
BCF
  8
2
 10
96.299999999999983
 20
51.154700538379238
 30
0.0
 11
96.299999999999983
 21
48.84529946162079
 31
0.0
  0
LINE
  5
BD0
  8
2
 10
94.699999999999974
 20
51.154700538379238
 30
0.0
 11
96.299999999999983
 21
51.154700538379238
 31
0.0
  0
LINE
  5
BD1
  8
2
 10
94.699999999999974
 20
50.577350269189623
 30
0.0
 11
96.299999999999983
 21
50.577350269189623
 31
0.0
  0
LINE
  5
BD2
  8
2
 10
94.699999999999974
 20
49.42264973081037
 30
0.0
 11
96.299999999999983
 21
49.42264973081037
 31
0.0
  0
LINE
  5
BD3
  8
2
 10
94.699999999999974
 20
48.84529946162079
 30
0.0
 11
96.299999999999983
 21
48.84529946162079
 31
0.0
  0
LINE
  5
BD4
  8
2
 10
96.299999999999983
 20
51.154700538379238
 30
0.0
 11
96.966666666666654
 21
50.0
 31
0.0
  0
LINE
  5
BD5
  8
2
 10
96.299999999999983
 20
48.845299461620762
 30
0.0
 11
96.966666666666654
 21
50.0
 31
0.0
  0
ENDSEC
  0
EOF
